  0
SECTION
  2
HEADER
  9
$ACADVER
  1
AC1009
  9
$INSBASE
 10
0.0
 20
0.0
 30
0.0
  9
$EXTMIN
 10
0.0
 20
-2.960436562073669
 30
0.0
  9
$EXTMAX
 10
226.3455492291101905
 20
178.2188245135232023
 30
0.0
  9
$LIMMIN
 10
0.0
 20
0.0
  9
$LIMMAX
 10
420.0
 20
297.0
  9
$ORTHOMODE
 70
     1
  9
$REGENMODE
 70
     1
  9
$FILLMODE
 70
     1
  9
$QTEXTMODE
 70
     0
  9
$MIRRTEXT
 70
     0
  9
$DRAGMODE
 70
     2
  9
$LTSCALE
 40
10.0
  9
$OSMODE
 70
    37
  9
$ATTMODE
 70
     1
  9
$TEXTSIZE
 40
2.5
  9
$TRACEWID
 40
1.0
  9
$TEXTSTYLE
  7
STANDARD
  9
$CLAYER
  8
0
  9
$CELTYPE
  6
BYLAYER
  9
$CECOLOR
 62
   256
  9
$DIMSCALE
 40
1.0
  9
$DIMASZ
 40
2.5
  9
$DIMEXO
 40
0.625
  9
$DIMDLI
 40
3.75
  9
$DIMRND
 40
0.0
  9
$DIMDLE
 40
0.0
  9
$DIMEXE
 40
1.25
  9
$DIMTP
 40
0.0
  9
$DIMTM
 40
0.0
  9
$DIMTXT
 40
2.5
  9
$DIMCEN
 40
2.5
  9
$DIMTSZ
 40
0.0
  9
$DIMTOL
 70
     0
  9
$DIMLIM
 70
     0
  9
$DIMTIH
 70
     0
  9
$DIMTOH
 70
     0
  9
$DIMSE1
 70
     0
  9
$DIMSE2
 70
     0
  9
$DIMTAD
 70
     1
  9
$DIMZIN
 70
     8
  9
$DIMBLK
  1

  9
$DIMASO
 70
     1
  9
$DIMSHO
 70
     1
  9
$DIMPOST
  1

  9
$DIMAPOST
  1

  9
$DIMALT
 70
     0
  9
$DIMALTD
 70
     3
  9
$DIMALTF
 40
0.03937007874016
  9
$DIMLFAC
 40
1.0
  9
$DIMTOFL
 70
     1
  9
$DIMTVP
 40
0.0
  9
$DIMTIX
 70
     0
  9
$DIMSOXD
 70
     0
  9
$DIMSAH
 70
     0
  9
$DIMBLK1
  1

  9
$DIMBLK2
  1

  9
$DIMSTYLE
  2
ISO-25
  9
$DIMCLRD
 70
     0
  9
$DIMCLRE
 70
     0
  9
$DIMCLRT
 70
     0
  9
$DIMTFAC
 40
1.0
  9
$DIMGAP
 40
0.625
  9
$LUNITS
 70
     2
  9
$LUPREC
 70
     1
  9
$SKETCHINC
 40
1.0
  9
$FILLETRAD
 40
0.0
  9
$AUNITS
 70
     0
  9
$AUPREC
 70
     1
  9
$MENU
  1
.
  9
$ELEVATION
 40
0.0
  9
$PELEVATION
 40
0.0
  9
$THICKNESS
 40
0.0
  9
$LIMCHECK
 70
     0
  9
$BLIPMODE
 70
     0
  9
$CHAMFERA
 40
0.0
  9
$CHAMFERB
 40
0.0
  9
$SKPOLY
 70
     0
  9
$TDCREATE
 40
2454083.4444560189731419
  9
$TDUPDATE
 40
2460571.6584722218103707
  9
$TDINDWG
 40
2.6568298726999999
  9
$TDUSRTIMER
 40
2.6568298726999999
  9
$USRTIMER
 70
     1
  9
$ANGBASE
 50
0.0
  9
$ANGDIR
 70
     0
  9
$PDMODE
 70
     0
  9
$PDSIZE
 40
0.0
  9
$PLINEWID
 40
0.0
  9
$COORDS
 70
     1
  9
$SPLFRAME
 70
     0
  9
$SPLINETYPE
 70
     6
  9
$SPLINESEGS
 70
     8
  9
$ATTDIA
 70
     1
  9
$ATTREQ
 70
     1
  9
$HANDLING
 70
     1
  9
$HANDSEED
  5
1374A
  9
$SURFTAB1
 70
     6
  9
$SURFTAB2
 70
     6
  9
$SURFTYPE
 70
     6
  9
$SURFU
 70
     6
  9
$SURFV
 70
     6
  9
$UCSNAME
  2

  9
$UCSORG
 10
0.0
 20
0.0
 30
0.0
  9
$UCSXDIR
 10
1.0
 20
0.0
 30
0.0
  9
$UCSYDIR
 10
0.0
 20
1.0
 30
0.0
  9
$PUCSNAME
  2

  9
$PUCSORG
 10
0.0
 20
0.0
 30
0.0
  9
$PUCSXDIR
 10
1.0
 20
0.0
 30
0.0
  9
$PUCSYDIR
 10
0.0
 20
1.0
 30
0.0
  9
$USERI1
 70
     0
  9
$USERI2
 70
     0
  9
$USERI3
 70
     0
  9
$USERI4
 70
     0
  9
$USERI5
 70
     0
  9
$USERR1
 40
0.0
  9
$USERR2
 40
0.0
  9
$USERR3
 40
0.0
  9
$USERR4
 40
0.0
  9
$USERR5
 40
0.0
  9
$WORLDVIEW
 70
     1
  9
$SHADEDGE
 70
     3
  9
$SHADEDIF
 70
    70
  9
$TILEMODE
 70
     1
  9
$MAXACTVP
 70
    64
  9
$PLIMCHECK
 70
     0
  9
$PEXTMIN
 10
0.0
 20
0.0
 30
0.0
  9
$PEXTMAX
 10
0.0
 20
0.0
 30
0.0
  9
$PLIMMIN
 10
0.0
 20
0.0
  9
$PLIMMAX
 10
12.0
 20
9.0
  9
$UNITMODE
 70
     0
  9
$VISRETAIN
 70
     1
  9
$PLINEGEN
 70
     0
  9
$PSLTSCALE
 70
     1
  0
ENDSEC
  0
SECTION
  2
TABLES
  0
TABLE
  2
VPORT
 70
     1
  0
VPORT
  2
*ACTIVE
 70
     0
 10
0.0
 20
0.0
 11
1.0
 21
1.0
 12
352.2783251231526833
 22
150.0
 13
0.0
 23
0.0
 14
10.0
 24
10.0
 15
10.0
 25
10.0
 16
0.0
 26
0.0
 36
1.0
 17
0.0
 27
0.0
 37
0.0
 40
300.0
 41
2.3485221674876842
 42
50.0
 43
0.0
 44
0.0
 50
0.0
 51
0.0
 71
     0
 72
  1000
 73
     1
 74
     3
 75
     0
 76
     0
 77
     0
 78
     0
  0
ENDTAB
  0
TABLE
  2
LTYPE
 70
     2
  0
LTYPE
  2
CONTINUOUS
 70
     0
  3
Solid line
 72
    65
 73
     0
 40
0.0
  0
LTYPE
  2
CENTER
 70
     0
  3
____ _ ____ _ ____ _ ____ _ ____ _ ____ _ ____
 72
    65
 73
     4
 40
2.0
 49
1.25
 49
-0.25
 49
0.25
 49
-0.25
  0
ENDTAB
  0
TABLE
  2
LAYER
 70
     4
  0
LAYER
  2
0
 70
     0
 62
     7
  6
CONTINUOUS
  0
LAYER
  2
DEFPOINTS
 70
     0
 62
     7
  6
CONTINUOUS
  0
LAYER
  2
1
 70
     0
 62
     1
  6
CENTER
  0
LAYER
  2
3
 70
     0
 62
     3
  6
CONTINUOUS
  0
ENDTAB
  0
TABLE
  2
STYLE
 70
     2
  0
STYLE
  2
STANDARD
 70
     0
 40
0.0
 41
1.0
 50
0.0
 71
     0
 42
2.5
  3
txt
  4

  0
STYLE
  2
STANDARD1
 70
     0
 40
0.0
 41
1.0
 50
0.0
 71
     0
 42
3.0
  3
txt
  4

  0
ENDTAB
  0
TABLE
  2
VIEW
 70
     3
  0
VIEW
  2
OLE1
 70
     0
 40
17.336203194614189
 10
1078.2627039085309661
 20
377.6744486595430885
 41
31.0749116297020009
 11
0.0
 21
0.0
 31
1.0
 12
0.0
 22
0.0
 32
0.0
 42
50.0
 43
0.0
 44
0.0
 50
0.0
 71
     0
  0
VIEW
  2
OLE2
 70
     0
 40
50.523198253338478
 10
1031.7677389415230209
 20
579.9283567158205415
 41
90.5621550086675455
 11
0.0
 21
0.0
 31
1.0
 12
0.0
 22
0.0
 32
0.0
 42
50.0
 43
0.0
 44
0.0
 50
0.0
 71
     0
  0
VIEW
  2
OLE3
 70
     0
 40
95.502301876216066
 10
202.0430959360805048
 20
425.5599226159864088
 41
146.7053432435849061
 11
0.0
 21
0.0
 31
1.0
 12
0.0
 22
0.0
 32
0.0
 42
50.0
 43
0.0
 44
0.0
 50
0.0
 71
     0
  0
ENDTAB
  0
TABLE
  2
UCS
 70
     0
  0
ENDTAB
  0
TABLE
  2
APPID
 70
    44
  0
APPID
  2
ACAD
 70
     0
  0
APPID
  2
_FTCNV
 70
     0
  0
APPID
  2
DCO15
 70
     0
  0
APPID
  2
GENIUS_GENOREF_13
 70
     0
  0
APPID
  2
GENIUS_GENOENT_13
 70
     0
  0
APPID
  2
GENIUS_GENBH_13
 70
     0
  0
APPID
  2
GENIUS_GENOBJ_13
 70
     0
  0
APPID
  2
GENIUS_GENODEF_13
 70
     0
  0
APPID
  2
GENIUS_GENOLIS_13
 70
     0
  0
APPID
  2
GENIUS_GENOBJ-NBEHI-BHF_13
 70
     0
  0
APPID
  2
GENIUS_GENOBJ-NBEHI-BHB_13
 70
     0
  0
APPID
  2
GENIUS_GENOBJ-F-PART_13
 70
     0
  0
APPID
  2
GENIUS_GEFSTDP_13
 70
     0
  0
APPID
  2
GENIUS_GENOBJ-N-RSSYM_13
 70
     0
  0
APPID
  2
GENIUS_GENSYMENT_13
 70
     0
  0
APPID
  2
GENIUS_GENOBJ-N-TIT_13
 70
     0
  0
APPID
  2
GENIUS_GENTITLE_13
 70
     0
  0
APPID
  2
GENIUS_GENZVEED_13
 70
     0
  0
APPID
  2
GENIUS_GENOBJ-N-LEADER_13
 70
     0
  0
APPID
  2
GENIUS_GENOBJ-N-FIL_13
 70
     0
  0
APPID
  2
GENIUS_GENOBJ-N-SEC_13
 70
     0
  0
APPID
  2
GENIUS_GENOBJ-N-CRS_13
 70
     0
  0
APPID
  2
GENIUS_GENOBJ-N-ZOO_13
 70
     0
  0
APPID
  2
GENIUS_GENZOO_13
 70
     0
  0
APPID
  2
GENIUS_GENOBJ-F-TOL_13
 70
     0
  0
APPID
  2
GENIUS_GENFIL_13
 70
     0
  0
APPID
  2
GENIUS_GENOBJ-N-CHA_13
 70
     0
  0
APPID
  2
_CALL_MAC$
 70
     0
  0
APPID
  2
ASM_BASE
 70
     0
  0
APPID
  2
ASM_EXPLO_VER_2_00
 70
     0
  0
APPID
  2
ASM_CADM_VER_12_00
 70
     0
  0
APPID
  2
ASM_BASEFORO
 70
     0
  0
APPID
  2
ASM_BASETRAVI
 70
     0
  0
APPID
  2
ASM_BASETRAVI1
 70
     0
  0
APPID
  2
ASM_GRUPPI
 70
     0
  0
APPID
  2
ASM_CADM_ALBERO
 70
     0
  0
APPID
  2
ASM_GOLE
 70
     0
  0
APPID
  2
ACAD_MLEADERVER
 70
     0
  0
APPID
  2
ACAD_EXEMPT_FROM_CAD_STANDARDS
 70
     0
  0
APPID
  2
ACAD_DSTYLE_DIMJAG
 70
     0
  0
APPID
  2
ACAD_DSTYLE_DIMTALN
 70
     0
  0
APPID
  2
ACAD_NAV_VCDISPLAY
 70
     0
  0
APPID
  2
ACAECLAYERSTANDARD
 70
     0
  0
APPID
  2
ACCMTRANSPARENCY
 70
     0
  0
ENDTAB
  0
TABLE
  2
DIMSTYLE
 70
     2
  0
DIMSTYLE
  2
ISO-25
 70
     0
  3

  4

  5

  6

  7

 40
1.0
 41
2.5
 42
0.625
 43
3.75
 44
1.25
 45
0.0
 46
0.0
 47
0.0
 48
0.0
140
2.5
141
2.5
142
0.0
143
0.03937007874016
144
1.0
145
0.0
146
1.0
147
0.625
 71
     0
 72
     0
 73
     0
 74
     0
 75
     0
 76
     0
 77
     1
 78
     8
170
     0
171
     3
172
     1
173
     0
174
     0
175
     0
176
     0
177
     0
178
     0
  0
DIMSTYLE
  2
STANDARD
 70
     0
  3

  4

  5

  6

  7

 40
1.0
 41
0.18
 42
0.0625
 43
0.38
 44
0.18
 45
0.0
 46
0.0
 47
0.0
 48
0.0
140
0.18
141
0.09
142
0.0
143
25.3999999999999986
144
1.0
145
0.0
146
1.0
147
0.09
 71
     0
 72
     0
 73
     1
 74
     1
 75
     0
 76
     0
 77
     0
 78
     0
170
     0
171
     2
172
     0
173
     0
174
     0
175
     0
176
     0
177
     0
178
     0
  0
ENDTAB
  0
ENDSEC
  0
SECTION
  2
BLOCKS
  0
BLOCK
  8
0
  2
$MODEL_SPACE
 70
     0
 10
0.0
 20
0.0
 30
0.0
  3
$MODEL_SPACE
  1

  0
ENDBLK
  5
21
  8
0
  0
BLOCK
 67
     1
  8
0
  2
$PAPER_SPACE
 70
     0
 10
0.0
 20
0.0
 30
0.0
  3
$PAPER_SPACE
  1

  0
ENDBLK
  5
53
 67
     1
  8
0
  0
ENDSEC
  0
SECTION
  2
ENTITIES
  0
TEXT
  5
C317
  8
0
 62
     3
 10
0.0
 20
0.0
 30
0.0
 40
10.0
  1
ST-H205U-S
  7
STANDARD1
  0
LINE
  5
10B63
  8
0
 10
136.5273006044164106
 20
167.9688245135232023
 30
0.0
 11
136.5273006044164106
 21
164.7688245135232989
 31
0.0
  0
ARC
  5
10B66
  8
0
 10
130.3109604868863016
 20
162.6688245135235036
 30
0.0
 40
0.5
 50
180.0
 51
270.0000000000007958
  0
ARC
  5
10B67
  8
0
 10
134.3109604868861879
 20
162.6688245135235036
 30
0.0
 40
0.5
 50
270.0000000000007958
 51
0.0
  0
LINE
  5
10B6A
  8
0
 10
134.8109604868861879
 20
162.6688245135235036
 30
0.0
 11
134.8109604868861879
 21
163.1688245135235036
 31
0.0
  0
LINE
  5
10B6B
  8
0
 10
129.8109604868861879
 20
163.1688245135235036
 30
0.0
 11
129.8109604868861879
 21
162.6688245135235036
 31
0.0
  0
ARC
  5
10B70
  8
0
 10
137.227300604417195
 20
162.6688245135231909
 30
0.0
 40
0.5000000000000285
 50
179.9999999999967031
 51
270.0000000000007958
  0
ARC
  5
10B71
  8
0
 10
141.227300604417195
 20
162.6688245135231909
 30
0.0
 40
0.5
 50
270.0000000000007958
 51
0.0000000000032569
  0
LINE
  5
10B74
  8
0
 10
141.727300604417195
 20
162.6688245135231909
 30
0.0
 11
141.727300604417195
 21
163.1688245135231909
 31
0.0
  0
LINE
  5
10B75
  8
0
 10
136.7273006044171098
 20
163.1688245135231909
 30
0.0
 11
136.7273006044171098
 21
162.6688245135231909
 31
0.0
  0
LINE
  5
10B78
  8
0
 10
172.606034118399009
 20
166.118824513523208
 30
0.0
 11
172.606034118399009
 21
166.618824513523208
 31
0.0
  0
ARC
  5
10B79
  8
0
 10
142.9984604879979031
 20
162.6688245135231909
 30
0.0
 40
0.5
 50
180.0
 51
270.0000000000007958
  0
ARC
  5
10B7A
  8
0
 10
146.9984604879979031
 20
162.6688245135231909
 30
0.0
 40
0.5
 50
270.0000000000007958
 51
0.0
  0
ARC
  5
10B7E
  8
0
 10
130.2109604868863926
 20
162.6688245135231909
 30
0.0
 40
0.5
 50
180.0
 51
270.0000000000007958
  0
LINE
  5
10B7F
  8
0
 10
147.4984604879979031
 20
162.6688245135231909
 30
0.0
 11
147.4984604879979031
 21
163.1688245135231909
 31
0.0
  0
LINE
  5
10B80
  8
0
 10
142.4984604879979031
 20
163.1688245135231909
 30
0.0
 11
142.4984604879979031
 21
162.6688245135231909
 31
0.0
  0
LINE
  5
10B83
  8
0
 10
129.7109604868863073
 20
163.1688245135231909
 30
0.0
 11
129.7109604868863073
 21
162.6688245135231909
 31
0.0
  0
CIRCLE
  5
10B97
  8
0
 10
112.1339899448915958
 20
166.3688245135230943
 30
0.0
 40
4.2999999999999767
  0
CIRCLE
  5
10B99
  8
0
 10
112.1339899448911979
 20
166.3688245135232933
 30
0.0
 40
1.9999999999999709
  0
ARC
  5
10B9A
  8
0
 10
112.1339899448920931
 20
166.368824513523208
 30
0.0
 40
4.5
 50
242.7339555492700072
 51
270.0000000000007958
  0
ARC
  5
10B9B
  8
0
 10
112.1339899448920931
 20
166.368824513523208
 30
0.0
 40
4.5000000000000142
 50
147.7690473644998974
 51
212.2309526355039111
  0
ARC
  5
10B9C
  8
0
 10
112.1339899448920931
 20
166.368824513523208
 30
0.0
 40
4.5000000000000249
 50
62.7339555492659713
 51
117.2660444507340003
  0
ARC
  5
10B9D
  8
0
 10
112.1339899448920931
 20
166.368824513523208
 30
0.0
 40
4.4999999999999662
 50
327.7690473644960889
 51
32.2309526355018718
  0
ARC
  5
10B9E
  8
0
 10
112.1339899448920931
 20
166.368824513523208
 30
0.0
 40
4.5
 50
270.0000000000007958
 51
297.2660444507304192
  0
LINE
  5
10B9F
  8
0
 10
140.327834927556296
 20
164.7688245135232989
 30
0.0
 11
140.327834927556296
 21
167.9688245135232023
 31
0.0
  0
LINE
  5
10BA1
  8
0
 10
135.2109604868865063
 20
167.9688245135230886
 30
0.0
 11
135.2109604868865063
 21
164.7688245135231
 31
0.0
  0
LINE
  5
10BA2
  8
0
 10
129.538371037461701
 20
167.9688245135230886
 30
0.0
 11
129.538371037461701
 21
164.7688245135231
 31
0.0
  0
LINE
  5
10BA4
  8
0
 10
127.3094975248150007
 20
164.7688245135231
 30
0.0
 11
127.3094975248150007
 21
167.9688245135230886
 31
0.0
  0
LINE
  5
10BA7
  8
0
 10
117.1364443617237043
 20
163.9688245135230886
 30
0.0
 11
115.7019024998737962
 21
163.9688245135230886
 31
0.0
  0
LINE
  5
10BA8
  8
0
 10
108.5660773899093954
 20
163.9688245135230886
 30
0.0
 11
107.1315355280596009
 21
163.9688245135230886
 31
0.0
  0
ARC
  5
10BA9
  8
0
 10
117.1364443617237043
 20
164.7054245135230985
 30
0.0
 40
0.7366000000000096
 50
270.0000000000007958
 51
298.0000000000034106
  0
LINE
  5
10BAA
  8
0
 10
121.3194554432869978
 20
166.0953198589972999
 30
0.0
 11
117.4822571148717003
 21
164.0550453166231932
 31
0.0
  0
ARC
  5
10BAB
  8
0
 10
122.4164226968924964
 20
164.0322245135230901
 30
0.0
 40
2.3366000000000309
 50
90.0
 51
118.0000000000002984
  0
ARC
  5
10BAC
  8
0
 10
122.4164226968924964
 20
168.7054245135230985
 30
0.0
 40
2.3366000000000309
 50
242.0000000000003126
 51
270.0000000000007958
  0
LINE
  5
10BAD
  8
0
 10
117.4822571148717003
 20
168.6826037104229954
 30
0.0
 11
121.3194554432869978
 21
166.6423291680488887
 31
0.0
  0
ARC
  5
10BAE
  8
0
 10
117.1364443617237043
 20
168.0322245135230901
 30
0.0
 40
0.7366000000000347
 50
61.9999999999992824
 51
90.0
  0
LINE
  5
10BAF
  8
0
 10
107.1315355280596009
 20
168.7688245135231
 30
0.0
 11
108.5660773899092959
 21
168.7688245135231
 31
0.0
  0
LINE
  5
10BB0
  8
0
 10
115.7019024998738956
 20
168.7688245135231
 30
0.0
 11
117.1364443617237043
 21
168.7688245135231
 31
0.0
  0
ARC
  5
10BB1
  8
0
 10
107.1315355280596009
 20
166.8688245135230943
 30
0.0
 40
1.899999999999977
 50
90.0
 51
180.0
  0
LINE
  5
10BB2
  8
0
 10
105.2315355280595952
 20
165.8688245135230943
 30
0.0
 11
105.2315355280595952
 21
166.8688245135230943
 31
0.0
  0
ARC
  5
10BB3
  8
0
 10
107.1315355280596009
 20
165.8688245135230943
 30
0.0
 40
1.900000000000005
 50
180.0
 51
270.0000000000007958
  0
ARC
  5
10BB4
  8
0
 10
107.1315355280596009
 20
166.8688245135230943
 30
0.0
 40
3.5
 50
90.0
 51
180.0
  0
LINE
  5
10BB5
  8
0
 10
107.1315355280596009
 20
170.3688245135230943
 30
0.0
 11
110.5560165610854995
 21
170.3688245135230943
 31
0.0
  0
LINE
  5
10BB6
  8
0
 10
113.7119633286976068
 20
170.3688245135230943
 30
0.0
 11
117.1364443617237043
 21
170.3688245135230943
 31
0.0
  0
ARC
  5
10BB7
  8
0
 10
117.1364443617237043
 20
168.0322245135230901
 30
0.0
 40
2.3366000000000309
 50
61.9999999999996305
 51
90.0
  0
LINE
  5
10BB8
  8
0
 10
118.233411615329203
 20
170.0953198589972999
 30
0.0
 11
122.0706099437445005
 21
168.0550453166231932
 31
0.0
  0
ARC
  5
10BB9
  8
0
 10
122.4164226968924964
 20
168.7054245135230985
 30
0.0
 40
0.7366000000000213
 50
242.0000000000005969
 51
270.0000000000007958
  0
ARC
  5
10BBA
  8
0
 10
122.4164226968924964
 20
164.0322245135230901
 30
0.0
 40
0.73660000000001
 50
90.0
 51
118.0000000000002984
  0
LINE
  5
10BBB
  8
0
 10
118.233411615329203
 20
162.6423291680488887
 30
0.0
 11
122.0706099437445005
 21
164.6826037104229954
 31
0.0
  0
ARC
  5
10BBC
  8
0
 10
117.1364443617237043
 20
164.7054245135230985
 30
0.0
 40
2.336600000000006
 50
270.0000000000007958
 51
298.0000000000030127
  0
LINE
  5
10BBD
  8
0
 10
107.1315355280596009
 20
162.3688245135230943
 30
0.0
 11
110.5560165610857979
 21
162.3688245135230943
 31
0.0
  0
LINE
  5
10BBE
  8
0
 10
113.7119633286973936
 20
162.3688245135230943
 30
0.0
 11
117.1364443617237043
 21
162.3688245135230943
 31
0.0
  0
ARC
  5
10BBF
  8
0
 10
107.1315355280596009
 20
165.8688245135230943
 30
0.0
 40
3.5
 50
180.0
 51
270.0000000000007958
  0
LINE
  5
10BC0
  8
0
 10
103.6315355280596009
 20
166.8688245135230943
 30
0.0
 11
103.6315355280596009
 21
165.8688245135230943
 31
0.0
  0
LINE
  5
10BC1
  8
0
 10
122.4164226968924964
 20
167.9688245135230886
 30
0.0
 11
140.7731930744315036
 21
167.9688245135230886
 31
0.0
  0
LINE
  5
10BC2
  8
0
 10
122.4164226968924964
 20
164.7688245135231
 30
0.0
 11
140.7731930744315036
 21
164.7688245135231
 31
0.0
  0
LINE
  5
10BC3
  8
0
 10
140.7731930744315889
 20
164.7688245135232989
 30
0.0
 11
140.7731930744315889
 21
167.9688245135232023
 31
0.0
  0
LINE
  5
10BC5
  8
0
 10
140.6933714099837118
 20
167.9688245135232023
 30
0.0
 11
140.6933714099837118
 21
169.5688245135233103
 31
0.0
  0
LINE
  5
10BC8
  8
0
 10
141.1010691905040062
 20
167.9688245135232023
 30
0.0
 11
141.1010691905040062
 21
164.7688245135232989
 31
0.0
  0
LINE
  5
10BCA
  8
0
 10
140.7731930744315889
 20
163.1688245135233046
 30
0.0
 11
140.6933714099837118
 21
163.1688245135233046
 31
0.0
  0
LINE
  5
10BCB
  8
0
 10
140.6933714099837118
 20
164.7688245135232989
 30
0.0
 11
140.6933714099837118
 21
163.1688245135233046
 31
0.0
  0
LINE
  5
10BCD
  8
0
 10
141.1010691905040062
 20
167.9688245135232023
 30
0.0
 11
149.0460434928517088
 21
167.9688245135232023
 31
0.0
  0
LINE
  5
10BD1
  8
0
 10
149.0460434928517941
 20
164.7688245135232989
 30
0.0
 11
141.1010691905040062
 21
164.7688245135232989
 31
0.0
  0
LINE
  5
10BD3
  8
0
 10
149.0460434928517941
 20
164.7688245135232989
 30
0.0
 11
149.0460434928517088
 21
167.9688245135232023
 31
0.0
  0
LINE
  5
10BDC
  8
0
 10
149.1858609073863988
 20
164.7688245135232989
 30
0.0
 11
149.1858609073865125
 21
167.9688245135232023
 31
0.0
  0
LINE
  5
10BDD
  8
0
 10
149.1858609073865125
 20
167.9688245135232023
 30
0.0
 11
149.2024656400191986
 21
167.9688245135232023
 31
0.0
  0
LINE
  5
10BDF
  8
0
 10
160.9286780709128095
 20
170.323022131257602
 30
0.0
 11
160.9286780709128095
 21
162.414626895788814
 31
0.0
  0
LINE
  5
10BE8
  8
0
 10
148.0413019746322902
 20
162.368824513523208
 30
0.0
 11
148.6965773065479937
 21
162.368824513523208
 31
0.0
  0
POLYLINE
  5
10BE9
  8
0
 66
     1
 10
0.0
 20
0.0
 30
0.0
 70
   128
  0
VERTEX
  5
13622
  8
0
 10
147.841571668324292
 20
163.1688245135231909
 30
0.0
  0
VERTEX
  5
13623
  8
0
 10
147.8529701571958128
 20
162.9861410811581095
 30
0.0
  0
VERTEX
  5
13624
  8
0
 10
147.8718078168793966
 20
162.8132542805035996
 30
0.0
  0
VERTEX
  5
13625
  8
0
 10
147.8971590419920119
 20
162.6617177323367116
 30
0.0
  0
VERTEX
  5
13626
  8
0
 10
147.9280495991696966
 20
162.5373549012205956
 30
0.0
  0
VERTEX
  5
13627
  8
0
 10
147.9632923816236882
 20
162.4449449810119859
 30
0.0
  0
VERTEX
  5
13628
  8
0
 10
148.0015330289888027
 20
162.3880392331199971
 30
0.0
  0
VERTEX
  5
13629
  8
0
 10
148.0413019746322902
 20
162.368824513523208
 30
0.0
  0
SEQEND
  5
1362A
  8
0
  0
ARC
  5
10BEA
  8
0
 10
149.0511343342624002
 20
169.6917742333511967
 30
0.0
 40
1.2157954089553931
 50
146.1598035573211973
 51
185.8040707670461984
  0
LINE
  5
10BEB
  8
0
 10
148.6965773065479937
 20
170.368824513523208
 30
0.0
 11
148.0413019746324039
 21
170.368824513523208
 31
0.0
  0
LINE
  5
10BF3
  8
0
 10
160.9286780709128095
 20
170.323022131257602
 30
0.0
 11
162.8480389190021924
 21
171.9164777586491937
 31
0.0
  0
LINE
  5
10BF4
  8
0
 10
162.8480389190017092
 20
160.8211712683971086
 30
0.0
 11
160.9286780709128095
 21
162.414626895788814
 31
0.0
  0
LINE
  5
10BF9
  8
0
 10
167.1106716584629908
 20
161.3188245135231966
 30
0.0
 11
164.9749160830498909
 21
161.3188245135229124
 31
0.0
  0
LINE
  5
10BFB
  8
0
 10
159.3781640681631018
 20
160.3188245135231966
 30
0.0
 11
167.2287174372956997
 21
160.3188245135231966
 31
0.0
  0
ARC
  5
10BFC
  8
0
 10
148.0910986840752912
 20
133.6096087286672116
 30
0.0
 40
28.7592157850600216
 50
84.440665441786507
 51
89.9997841800485219
  0
LINE
  5
10C00
  8
0
 10
164.9749160830498909
 20
161.3188245135229124
 30
0.0
 11
164.9749160830488108
 21
171.4188245135231909
 31
0.0
  0
ARC
  5
10C03
  8
0
 10
148.0910982088668959
 20
199.1280598264966102
 30
0.0
 40
28.7592353131792784
 50
270.0002167665430193
 51
275.5753211639691926
  0
LINE
  5
10C05
  8
0
 10
164.9749160830488108
 20
171.4188245135231909
 30
0.0
 11
167.1106716584631044
 21
171.4188245135231909
 31
0.0
  0
LINE
  5
10C06
  8
0
 10
166.9068227682029999
 20
172.4188245135231909
 30
0.0
 11
159.378164068163386
 21
172.4188245135231909
 31
0.0
  0
LINE
  5
10C08
  8
0
 10
171.8098830086589999
 20
166.618824513523208
 30
0.0
 11
171.8098830086589999
 21
166.118824513523208
 31
0.0
  0
LINE
  5
10C1B
  8
0
 10
126.6547104858425996
 20
163.1688245135231909
 30
0.0
 11
148.7198821140885912
 21
163.1688245135231909
 31
0.0
  0
LINE
  5
10C1D
  8
0
 10
148.7198821140885059
 20
169.5688245135233103
 30
0.0
 11
126.6547104890936026
 21
169.5688245135231966
 31
0.0
  0
LINE
  5
10C26
  8
0
 10
129.8297104858471016
 20
154.5188245135232137
 30
0.0
 11
147.379710485847113
 21
154.5188245135232137
 31
0.0
  0
ARC
  5
10C27
  8
0
 10
129.8297104858471016
 20
157.6938245135231114
 30
0.0
 40
3.1750000000000109
 50
179.9999999999984084
 51
270.0000000000017053
  0
ARC
  5
10C28
  8
0
 10
147.379710485847113
 20
157.6938245135231114
 30
0.0
 40
3.1750000000000109
 50
270.0
 51
0.0
  0
LINE
  5
10C2D
  8
0
 10
133.0047104858469993
 20
156.368824513523208
 30
0.0
 11
130.6047104858471073
 21
156.368824513523208
 31
0.0
  0
ARC
  5
10C2E
  8
0
 10
133.0047104858469993
 20
158.5188245135232137
 30
0.0
 40
2.1500000000000048
 50
270.0000000000007958
 51
90.0
  0
LINE
  5
10C2F
  8
0
 10
130.6047104858471073
 20
160.6688245135231909
 30
0.0
 11
133.0047104858469993
 21
160.6688245135231909
 31
0.0
  0
ARC
  5
10C30
  8
0
 10
130.6047104858471073
 20
158.5188245135232137
 30
0.0
 40
2.1500000000000048
 50
90.0
 51
270.0000000000007958
  0
LINE
  5
10C31
  8
0
 10
126.654710485847005
 20
157.6938245135231966
 30
0.0
 11
126.6547104858471045
 21
164.7688245135231
 31
0.0
  0
LINE
  5
10C32
  8
0
 10
150.5547104858470959
 20
162.2631083690154981
 30
0.0
 11
150.5547104858470959
 21
157.6938245135231966
 31
0.0
  0
LINE
  5
10C33
  8
0
 10
147.3797104890936112
 20
178.2188245135232023
 30
0.0
 11
129.8297104890934861
 21
178.2188245135232023
 31
0.0
  0
ARC
  5
10C34
  8
0
 10
147.3797104890936112
 20
175.0438245135231909
 30
0.0
 40
3.1750000000000109
 50
0.0
 51
90.0
  0
ARC
  5
10C35
  8
0
 10
129.8297104890934861
 20
175.0438245135231909
 30
0.0
 40
3.1750000000000109
 50
89.9999999999992042
 51
180.0000000000015064
  0
LINE
  5
10C3E
  8
0
 10
150.5547104890935941
 20
175.0438245135231909
 30
0.0
 11
150.5547104890935941
 21
170.4745406583099907
 31
0.0
  0
LINE
  5
10C3F
  8
0
 10
126.6547104890936026
 20
167.9688245135230886
 30
0.0
 11
126.6547104890935032
 21
175.0438245135231909
 31
0.0
  0
LINE
  5
10C55
  8
1
 10
100.8467796676754062
 20
166.3688245135228954
 30
0.0
 11
176.1063473565189099
 21
166.3688245135234069
 31
0.0
  0
LINE
  5
10C56
  8
0
 10
57.4420208136103625
 20
115.8893099750214049
 30
0.0
 11
57.4420208136104122
 21
115.0693099750213975
 31
0.0
  0
LINE
  5
10C57
  8
0
 10
66.0420208136103639
 20
115.0693099750216959
 30
0.0
 11
66.0420208136103639
 21
115.8893099750218028
 31
0.0
  0
LINE
  5
10C58
  8
0
 10
58.2420208136229505
 20
118.6893099750948011
 30
0.0
 11
57.700568950936578
 21
118.3767025964105954
 31
0.0
  0
LINE
  5
10C59
  8
0
 10
65.7834726762838642
 20
118.3767025964107944
 30
0.0
 11
65.2420208135970086
 21
118.689309975095199
 31
0.0
  0
LINE
  5
10C5A
  8
0
 10
57.4420208136105899
 20
108.419309975021406
 30
0.0
 11
57.4420208136106467
 21
107.5993099750213986
 31
0.0
  0
LINE
  5
10C5B
  8
0
 10
66.0420208136106623
 20
107.599309975021697
 30
0.0
 11
66.0420208136106055
 21
108.4193099750218039
 31
0.0
  0
LINE
  5
10C5C
  8
0
 10
65.2420208135978044
 20
104.7993099749483008
 30
0.0
 11
65.7834726762846742
 21
105.1119173536326059
 31
0.0
  0
LINE
  5
10C5D
  8
0
 10
57.7005689509372033
 20
105.1119173536322933
 30
0.0
 11
58.2420208136238386
 21
104.7993099749480024
 31
0.0
  0
ARC
  5
10C5E
  8
0
 10
58.2420208136059898
 20
101.4820631850611932
 30
0.0
 40
1.0
 50
180.0000000000015064
 51
270.0000000000025011
  0
ARC
  5
10C5F
  8
0
 10
65.2420208136059756
 20
101.4820631850615058
 30
0.0
 40
1.000000000000028
 50
270.0000000000056843
 51
0.0000000000016284
  0
LINE
  5
10C60
  8
0
 10
57.242020813605933
 20
103.4820631850606958
 30
0.0
 11
57.2420208136059898
 21
101.4820631850605963
 31
0.0
  0
LINE
  5
10C61
  8
0
 10
66.2420208136059898
 20
101.4820631850609942
 30
0.0
 11
66.242020813605933
 21
103.4820631850610937
 31
0.0
  0
LINE
  5
10C62
  8
0
 10
59.7420208136099404
 20
123.9820640343580038
 30
0.0
 11
59.7420208136102104
 21
118.6893099751023044
 31
0.0
  0
LINE
  5
10C63
  8
0
 10
59.7420208136107718
 20
104.7993099749403996
 30
0.0
 11
59.742020813605933
 21
103.4820631850606958
 31
0.0
  0
LINE
  5
10C64
  8
0
 10
63.742020813605933
 20
103.4820631850609942
 30
0.0
 11
63.7420208136107718
 21
104.7993099749405985
 31
0.0
  0
LINE
  5
10C65
  8
0
 10
63.7420208136102033
 20
118.6893099751026028
 30
0.0
 11
63.7420208136100399
 21
123.9820640344589009
 31
0.0
  0
LINE
  5
10C69
  8
0
 10
66.0420208136103639
 20
115.8893099750218028
 30
0.0
 11
57.4420208136103625
 21
115.8893099750214049
 31
0.0
  0
LINE
  5
10C6B
  8
0
 10
57.700568950936578
 20
118.3767025964105954
 30
0.0
 11
57.7005689292829302
 21
115.8893099750214049
 31
0.0
  0
LINE
  5
10C6E
  8
0
 10
59.7212948714466521
 20
115.8893099750216038
 30
0.0
 11
59.721294879789447
 21
118.3767025790920968
 31
0.0
  0
LINE
  5
10C71
  8
0
 10
63.7627467557740388
 20
115.8893099750217033
 30
0.0
 11
63.7627467124664591
 21
118.3767025964107944
 31
0.0
  0
LINE
  5
10C74
  8
0
 10
65.7834726979376967
 20
115.8893099750218028
 30
0.0
 11
65.7834726762838642
 21
118.3767025964107944
 31
0.0
  0
LINE
  5
10C75
  8
0
 10
65.2420208135970086
 20
118.689309975095199
 30
0.0
 11
58.2420208136229505
 21
118.6893099750948011
 31
0.0
  0
LINE
  5
10C7A
  8
0
 10
66.0420208136106623
 20
107.599309975021697
 30
0.0
 11
57.4420208136106467
 21
107.5993099750213986
 31
0.0
  0
LINE
  5
10C7D
  8
0
 10
57.7005689292833281
 20
107.5993099750213986
 30
0.0
 11
57.7005689509372033
 21
105.1119173536322933
 31
0.0
  0
LINE
  5
10C7E
  8
0
 10
59.7212948714469931
 20
107.5993099750214981
 30
0.0
 11
59.7212948547611688
 21
105.1119173709510051
 31
0.0
  0
LINE
  5
10C81
  8
0
 10
63.7627467774283119
 20
105.1119173536325064
 30
0.0
 11
63.7627467557744367
 21
107.599309975021697
 31
0.0
  0
LINE
  5
10C84
  8
0
 10
65.7834726762846742
 20
105.1119173536327054
 30
0.0
 11
65.7834726979380946
 21
107.599309975021697
 31
0.0
  0
LINE
  5
10C88
  8
0
 10
58.2420208136238386
 20
104.7993099749471071
 30
0.0
 11
65.2420208135978044
 21
104.7993099749483008
 31
0.0
  0
LINE
  5
10C8B
  8
0
 10
66.242020813605933
 20
103.4820631850615058
 30
0.0
 11
57.242020813605933
 21
103.4820631850611932
 31
0.0
  0
LINE
  5
10C90
  8
0
 10
138.4535309690589031
 20
108.5339907852923034
 30
0.0
 11
141.9627541789618874
 21
106.967583144698807
 31
0.0
  0
LINE
  5
10C91
  8
0
 10
145.4389672077853959
 20
111.3294528486385957
 30
0.0
 11
145.4257132970116118
 21
111.335368980460899
 31
0.0
  0
LINE
  5
10C92
  8
0
 10
103.6315355280594019
 20
115.0693099750213975
 30
0.0
 11
103.6315355280597004
 21
108.419309975021406
 31
0.0
  0
LINE
  5
10C93
  8
0
 10
127.3094975248148017
 20
115.0693099750216959
 30
0.0
 11
103.6315355280594019
 21
115.0693099750213975
 31
0.0
  0
LINE
  5
10C95
  8
0
 10
103.6315355280597004
 20
108.419309975021406
 30
0.0
 11
127.3912119923142967
 21
108.4193099750225997
 31
0.0
  0
LINE
  5
10CA1
  8
0
 10
122.4164226968926954
 20
108.4193099750223013
 30
0.0
 11
122.416422696892397
 21
115.0693099750221933
 31
0.0
  0
ARC
  5
10CA4
  8
0
 10
127.3912119923143962
 20
105.9193099750224007
 30
0.0
 40
2.500000000000028
 50
52.3912700893752898
 51
90.0000000000024443
  0
ARC
  5
10CA5
  8
0
 10
127.3094975248148017
 20
117.5693099750225059
 30
0.0
 40
2.5
 50
270.0000000000025011
 51
333.0685947739278276
  0
ARC
  5
10CA6
  8
0
 10
132.1788302741123005
 20
114.9464035213318027
 30
0.0
 40
3.032145578881654
 50
51.1858317636764326
 51
150.5543082692919086
  0
LINE
  5
10CAC
  8
0
 10
163.8239174197032924
 20
114.9610461328750972
 30
0.0
 11
160.9286780709128095
 21
115.1619876765145989
 31
0.0
  0
LINE
  5
10CB2
  8
0
 10
171.8098830086593125
 20
113.2982000746945062
 30
0.0
 11
163.8239174197032924
 21
114.9610461328750972
 31
0.0
  0
ARC
  5
10CBB
  8
0
 10
171.6060341183990943
 20
112.3191977100705969
 30
0.0
 40
1.0000000000000131
 50
348.2378775205799002
 51
78.2378775205867356
  0
ARC
  5
10CC0
  8
0
 10
171.3614154500870086
 20
111.1443948725215023
 30
0.0
 40
0.9999999999999749
 50
258.2378775205822876
 51
348.2378775205816055
  0
LINE
  5
10CC8
  8
0
 10
163.5213481157582862
 20
111.7554138519266047
 30
0.0
 11
171.1575665598267904
 21
110.1653925078973941
 31
0.0
  0
ARC
  5
10CCA
  8
0
 10
153.6169041435713893
 20
123.0555780470905063
 30
0.0
 40
13.9438775541001991
 50
297.1877673355776892
 51
302.6615388833885731
  0
ARC
  5
10CCC
  8
0
 10
162.8690316669257072
 20
108.6226062851292937
 30
0.0
 40
3.1999999999999988
 50
78.2378775205807955
 51
122.6615388833863989
  0
CIRCLE
  5
10CD2
  8
0
 10
139.2273006044171098
 20
111.1453755018350051
 30
0.0
 40
2.5000000000000191
  0
CIRCLE
  5
10CD3
  8
0
 10
132.3109604868861027
 20
114.9193099750225002
 30
0.0
 40
2.5000000000000302
  0
LINE
  5
10CDC
  8
0
 10
147.8374530843722141
 20
110.0160356203769965
 30
0.0
 11
149.1858609073865125
 21
116.4918837131679936
 31
0.0
  0
LINE
  5
10CDD
  8
0
 10
144.8005967959416864
 20
111.4655313882661005
 30
0.0
 11
148.0005321965803091
 21
110.7992375120763029
 31
0.0
  0
ARC
  5
10CDE
  8
0
 10
144.2502047934679013
 20
108.8222250096815031
 30
0.0
 40
2.6999999939728418
 50
78.2378775205823729
 51
143.7000866032059037
  0
LINE
  5
10CDF
  8
0
 10
141.412306550058787
 20
109.5196011073360012
 30
0.0
 11
142.0741960202038001
 21
110.4206572998115945
 31
0.0
  0
ARC
  5
10CE0
  8
0
 10
139.2362977573006901
 20
111.1180333903572972
 30
0.0
 40
2.7000000054751259
 50
215.5120048987863015
 51
323.7000869696826726
  0
ARC
  5
10CE1
  8
0
 10
131.8289539178555003
 20
105.8320843546779031
 30
0.0
 40
6.3999999925231146
 50
35.5120048994664117
 51
86.9637503198072039
  0
ARC
  5
10CE2
  8
0
 10
132.3109604868963061
 20
114.919309975029293
 30
0.0
 40
2.6999999969148138
 50
78.2378775438347276
 51
266.9637503268626233
  0
LINE
  5
10CE3
  8
0
 10
140.6933714099835981
 20
115.9318252337839965
 30
0.0
 11
132.8613524888970971
 21
117.5626163567174984
 31
0.0
  0
LINE
  5
10CE5
  8
0
 10
141.1010691905038072
 20
117.8898299630323976
 30
0.0
 11
140.6933714099835981
 21
115.9318252337839965
 31
0.0
  0
ARC
  5
10CE6
  8
0
 10
164.2287838247951868
 20
190.3959728901473909
 30
0.0
 40
76.1054002444797106
 50
252.3085686786500048
 51
258.4924985884885018
  0
LINE
  5
10CEB
  8
0
 10
126.654710485847005
 20
102.0820631851195941
 30
0.0
 11
150.5547104858470959
 21
102.0820631853274989
 31
0.0
  0
LINE
  5
10CED
  8
0
 10
126.6547104858608037
 20
100.4820631851195998
 30
0.0
 11
150.5547104858609941
 21
100.4820631853276041
 31
0.0
  0
LINE
  5
10CF1
  8
0
 10
150.5547104858428895
 20
102.5664147183974961
 30
0.0
 11
150.5547104858609941
 21
100.4820631853276041
 31
0.0
  0
CIRCLE
  5
10CF8
  8
0
 10
132.2109604868863073
 20
108.5693099750218948
 30
0.0
 40
2.5000000000000009
  0
CIRCLE
  5
10CF9
  8
0
 10
144.9984604879979031
 20
108.569309975077303
 30
0.0
 40
2.50000000000002
  0
LINE
  5
10CFA
  8
0
 10
126.654710485842898
 20
102.566414718189904
 30
0.0
 11
126.8709637870287992
 21
102.8186631851214941
 31
0.0
  0
LINE
  5
10CFC
  8
0
 10
150.3374274372571051
 20
102.8186631853253061
 30
0.0
 11
150.5547104858428895
 21
102.5664147183974961
 31
0.0
  0
LINE
  5
10CFE
  8
0
 10
126.6547104858608037
 20
100.4820631851195998
 30
0.0
 11
126.654710485842898
 21
102.566414718189904
 31
0.0
  0
ARC
  5
10CFF
  8
0
 10
144.998460487998301
 20
108.569309975077303
 30
0.0
 40
2.79507331793803
 50
19.6028627512801705
 51
180.0524374672488079
  0
LINE
  5
10D00
  8
0
 10
147.6315332877211119
 20
109.5070532683132001
 30
0.0
 11
150.3374274372571051
 21
102.8186631853253061
 31
0.0
  0
LINE
  5
10D01
  8
0
 10
126.8709637870287992
 20
102.8186631851214941
 30
0.0
 11
129.584103174407403
 21
109.5568957612556034
 31
0.0
  0
ARC
  5
10D02
  8
0
 10
132.2109604868863073
 20
108.5693099750218948
 30
0.0
 40
2.8063686545596629
 50
359.9478294195668013
 51
159.395890484179489
  0
ARC
  5
10D03
  8
0
 10
138.610358053932913
 20
108.2897223996996985
 30
0.0
 40
3.6036942140980148
 50
175.5910649304080096
 51
4.4088914627947657
  0
LINE
  5
10D57
  8
0
 10
146.6047104858471073
 20
102.082063185292796
 30
0.0
 11
146.6047104858610055
 21
100.4820631852929012
 31
0.0
  0
LINE
  5
10D76
  8
0
 10
66.2420208136059898
 20
101.4820631850615058
 30
0.0
 11
57.2420208136059898
 21
101.4820631850610937
 31
0.0
  0
LINE
  5
10D77
  8
1
 10
112.1339899448880999
 20
124.9820631850083998
 30
0.0
 11
112.1339899448890947
 21
98.9820631849932937
 31
0.0
  0
LINE
  5
10D79
  8
1
 10
146.6047104891108859
 20
98.4820631852825557
 30
0.0
 11
146.6047104890623132
 21
104.0820631852824931
 31
0.0
  0
LINE
  5
10D7A
  8
0
 10
107.8339899448916981
 20
115.8893099750241049
 30
0.0
 11
107.8339899448916981
 21
115.069309975023998
 31
0.0
  0
LINE
  5
10D7B
  8
0
 10
116.4339899448917066
 20
115.0693099750240975
 30
0.0
 11
116.4339899448917066
 21
115.8893099750242044
 31
0.0
  0
LINE
  5
10D7C
  8
0
 10
107.8339899448917976
 20
108.419309975023495
 30
0.0
 11
107.8339899448917976
 21
107.5993099750239992
 31
0.0
  0
LINE
  5
10D7D
  8
0
 10
116.4339899448918061
 20
107.5993099750240987
 30
0.0
 11
116.4339899448918061
 21
108.419309975023495
 31
0.0
  0
ARC
  5
10D7E
  8
0
 10
108.6339899448884978
 20
101.4820631849932937
 30
0.0
 40
1.0
 50
180.0
 51
270.0
  0
ARC
  5
10D7F
  8
0
 10
115.6339899448884978
 20
101.4820631849932937
 30
0.0
 40
1.0
 50
270.0000000000025011
 51
0.0
  0
LINE
  5
10D80
  8
0
 10
107.6339899448884978
 20
103.4820631849927963
 30
0.0
 11
107.6339899448884978
 21
101.4820631849927963
 31
0.0
  0
LINE
  5
10D81
  8
0
 10
116.6339899448884978
 20
101.4820631849927963
 30
0.0
 11
116.6339899448884978
 21
103.4820631849928958
 31
0.0
  0
LINE
  5
10D84
  8
0
 10
110.1339899448880004
 20
123.9820640344083955
 30
0.0
 11
110.1339899448914963
 21
118.6893099751048055
 31
0.0
  0
LINE
  5
10D85
  8
0
 10
110.1339899448915958
 20
104.7993099749429007
 30
0.0
 11
110.1339899448884978
 21
103.4820631849927963
 31
0.0
  0
LINE
  5
10D86
  8
0
 10
114.1339899448884978
 20
103.4820631849928958
 30
0.0
 11
114.1339899448916952
 21
104.7993099749429007
 31
0.0
  0
LINE
  5
10D87
  8
0
 10
114.1339899448914963
 20
118.6893099751048055
 30
0.0
 11
114.1339899448880999
 21
123.982064034408495
 31
0.0
  0
ARC
  5
10D88
  8
0
 10
58.0420208136099376
 20
112.9193099750224007
 30
0.0
 40
0.5000000000000057
 50
180.0
 51
233.1301023542490896
  0
ARC
  5
10D8A
  8
0
 10
65.4420208136099433
 20
112.9193099750225002
 30
0.0
 40
0.5000000000000228
 50
306.8698976459348842
 51
0.0
  0
LINE
  5
10D8E
  8
0
 10
57.4420208136104691
 20
115.1402711201427991
 30
0.0
 11
56.194367565575007
 21
115.0287761240854962
 31
0.0
  0
LINE
  5
10D8F
  8
0
 10
67.2896740616452291
 20
115.0287761240855957
 30
0.0
 11
66.0420208136104776
 21
115.1402711174042963
 31
0.0
  0
ARC
  5
10D93
  8
0
 10
58.0420208136101934
 20
110.5693099750218948
 30
0.0
 40
0.5000000000000014
 50
126.8698976457880008
 51
180.0
  0
ARC
  5
10D95
  8
0
 10
65.4420208136101849
 20
110.5693099750218948
 30
0.0
 40
0.5
 50
0.0
 51
53.1301023540973532
  0
LINE
  5
10D98
  8
0
 10
66.0420208136104776
 20
115.0693099750219943
 30
0.0
 11
57.4420208136104122
 21
115.0693099750187969
 31
0.0
  0
LINE
  5
10D9A
  8
0
 10
116.4339899448917066
 20
115.8893099750241049
 30
0.0
 11
107.8339899448916981
 21
115.8893099750241049
 31
0.0
  0
LINE
  5
10D9B
  8
0
 10
108.6339899448916952
 20
118.6893099750968048
 30
0.0
 11
108.6339899448916952
 21
115.8893099750240054
 31
0.0
  0
LINE
  5
10D9E
  8
0
 10
112.1339899073861943
 20
118.3767025964130966
 30
0.0
 11
112.1339899448917947
 21
115.8893099750240054
 31
0.0
  0
LINE
  5
10DA1
  8
0
 10
115.6339899448916952
 20
115.8893099750241049
 30
0.0
 11
115.6339899611582069
 21
118.6893099750975011
 31
0.0
  0
LINE
  5
10DA6
  8
0
 10
115.6339899611582069
 20
118.6893099750975011
 30
0.0
 11
108.6339899448916952
 21
118.6893099750968048
 31
0.0
  0
LINE
  5
10DA7
  8
0
 10
116.4339899448918061
 20
107.5993099750240987
 30
0.0
 11
107.8339899448917976
 21
107.5993099750239992
 31
0.0
  0
LINE
  5
10DAC
  8
0
 10
108.6339899448917947
 20
107.5993099750239992
 30
0.0
 11
108.6339899871106951
 21
104.7993099749507024
 31
0.0
  0
LINE
  5
10DAD
  8
0
 10
112.1339899448917947
 20
107.5993099750238997
 30
0.0
 11
112.1339899823971962
 21
105.1119173536347944
 31
0.0
  0
LINE
  5
10DB0
  8
0
 10
115.6339899448917947
 20
107.5993099750239992
 30
0.0
 11
115.6339899448917947
 21
104.7993099749503045
 31
0.0
  0
LINE
  5
10DB5
  8
0
 10
108.6339899871106951
 20
104.7993099749507024
 30
0.0
 11
115.6339899448917947
 21
104.7993099749503045
 31
0.0
  0
LINE
  5
10DB7
  8
0
 10
116.6339899448884978
 20
103.4820631849932937
 30
0.0
 11
107.6339899448884978
 21
103.4820631849932937
 31
0.0
  0
LINE
  5
10DBB
  8
0
 10
57.7420208136106012
 20
108.4193099750215055
 30
0.0
 11
57.7420208136105728
 21
115.0693099750215964
 31
0.0
  0
LINE
  5
10DBC
  8
0
 10
61.242020813610651
 20
108.419309975021406
 30
0.0
 11
61.2420208136106083
 21
115.0693099750213975
 31
0.0
  0
LINE
  5
10DBF
  8
0
 10
62.2420208136105799
 20
115.0693099750213975
 30
0.0
 11
62.2420208136106083
 21
108.419309975021406
 31
0.0
  0
LINE
  5
10DC0
  8
0
 10
65.7420208136106083
 20
108.4193099750216049
 30
0.0
 11
65.7420208136105657
 21
115.0693099750216959
 31
0.0
  0
LINE
  5
10DC3
  8
0
 10
66.0420208136105629
 20
108.419309975021406
 30
0.0
 11
57.4420208136105614
 21
108.419309975021406
 31
0.0
  0
LINE
  5
10DCD
  8
0
 10
55.6920208143321673
 20
114.4316138395342932
 30
0.0
 11
55.6920208136099504
 21
111.7223158697689058
 31
0.0
  0
LINE
  5
10DCE
  8
0
 10
67.7920208128876567
 20
114.431613839536297
 30
0.0
 11
67.7920208136099518
 21
111.7223158697690053
 31
0.0
  0
LINE
  5
10DDA
  8
0
 10
70.4170208136102929
 20
102.0820631851195941
 30
0.0
 11
70.4170208136103071
 21
100.4820631851195998
 31
0.0
  0
LINE
  5
10DDC
  8
0
 10
73.59202081361029
 20
102.0820631851472058
 30
0.0
 11
73.59202081361029
 21
100.4820631852232964
 31
0.0
  0
LINE
  5
10DDE
  8
0
 10
66.242020813610452
 20
102.0820631850832001
 30
0.0
 11
73.59202081361029
 21
102.0820631851472058
 31
0.0
  0
LINE
  5
10DDF
  8
0
 10
49.8920208136102588
 20
102.082063185223106
 30
0.0
 11
49.8920208136102588
 21
100.4820631852230974
 31
0.0
  0
LINE
  5
10DE0
  8
0
 10
49.8920208136102588
 20
102.082063185223106
 30
0.0
 11
57.242020813610452
 21
102.082063185223106
 31
0.0
  0
LINE
  5
10DE1
  8
0
 10
53.067020813610327
 20
102.082063185223106
 30
0.0
 11
53.067020813610327
 21
100.4820631852230974
 31
0.0
  0
LINE
  5
10DE3
  8
0
 10
49.8920208136102588
 20
100.4820631852230974
 30
0.0
 11
73.59202081361029
 21
100.4820631852232964
 31
0.0
  0
LINE
  5
10DE5
  8
0
 10
64.9420208136053532
 20
103.4820631850616053
 30
0.0
 11
64.9420208136102701
 21
104.7993099749410959
 31
0.0
  0
LINE
  5
10DE6
  8
0
 10
58.5420208136102715
 20
104.7993099749409964
 30
0.0
 11
58.542020813605312
 21
103.4820631850616053
 31
0.0
  0
LINE
  5
10DEF
  8
0
 10
107.6339899448884978
 20
101.4820631849932937
 30
0.0
 11
116.6339899448884978
 21
101.4820631849932937
 31
0.0
  0
LINE
  5
10DF8
  8
1
 10
53.8920208136102374
 20
104.082063185223106
 30
0.0
 11
53.892020813610273
 21
98.4820631852231543
 31
0.0
  0
LINE
  5
10DF9
  8
1
 10
69.5920208136102332
 20
104.0820631851539986
 30
0.0
 11
69.5920208136103042
 21
98.4820631851540327
 31
0.0
  0
ARC
  5
10DFF
  8
0
 10
210.995549229113692
 20
101.4820631851850976
 30
0.0
 40
1.0000000000000231
 50
260.0702630039826886
 51
269.9999999999976126
  0
ARC
  5
10E00
  8
0
 10
217.995549229113692
 20
101.4820631851850976
 30
0.0
 40
1.000000000000028
 50
270.0000000000040927
 51
279.9297369751602105
  0
LINE
  5
10E01
  8
0
 10
209.995549229113692
 20
103.4820631851846002
 30
0.0
 11
209.995549229113692
 21
102.0820631853272005
 31
0.0
  0
LINE
  5
10E02
  8
0
 10
218.995549229113692
 20
102.082063185223106
 30
0.0
 11
218.995549229113692
 21
103.4820631851845008
 31
0.0
  0
LINE
  5
10E03
  8
0
 10
212.4955492291103951
 20
123.9820640344085945
 30
0.0
 11
212.4955492291103099
 21
118.6893099751030007
 31
0.0
  0
LINE
  5
10E04
  8
0
 10
216.4955492291103099
 20
118.6893099751029013
 30
0.0
 11
216.4955492291103951
 21
123.982064034408296
 31
0.0
  0
LINE
  5
10E07
  8
0
 10
212.8955492291102018
 20
105.8693099750772006
 30
0.0
 11
216.0955492291101905
 21
105.8693099750772006
 31
0.0
  0
LINE
  5
10E08
  8
0
 10
212.8955492291100029
 20
105.6688840450768936
 30
0.0
 11
216.0955492291101052
 21
105.6688840450768936
 31
0.0
  0
LINE
  5
10E09
  8
0
 10
216.0955492291101052
 20
117.9785491002133
 30
0.0
 11
212.8955492291102018
 21
117.9785491002133
 31
0.0
  0
LINE
  5
10E0C
  8
0
 10
214.2455492291101962
 20
110.1443948725215023
 30
0.0
 11
214.7455492291101109
 21
110.1443948725215023
 31
0.0
  0
LINE
  5
10E11
  8
0
 10
216.0015213066415924
 20
109.1117004929902947
 30
0.0
 11
218.0033552468098037
 21
109.1117004929902947
 31
0.0
  0
LINE
  5
10E12
  8
0
 10
210.9836611926866965
 20
109.1117004929902947
 30
0.0
 11
212.9899640759213924
 21
109.1117004929902947
 31
0.0
  0
ARC
  5
10E15
  8
0
 10
218.1955492291104974
 20
116.9193099750224007
 30
0.0
 40
0.5
 50
0.0
 51
90.0
  0
ARC
  5
10E16
  8
0
 10
210.7955492291104918
 20
116.9193099750225002
 30
0.0
 40
0.5000000000000285
 50
90.0
 51
179.9999999999967031
  0
LINE
  5
10E17
  8
0
 10
211.2955492291104918
 20
117.4193099750225002
 30
0.0
 11
210.7955492291104918
 21
117.4193099750225002
 31
0.0
  0
LINE
  5
10E18
  8
0
 10
218.1955492291104974
 20
117.4193099750224007
 30
0.0
 11
217.6955492291104974
 21
117.4193099750224007
 31
0.0
  0
LINE
  5
10E19
  8
0
 10
211.9952082031308862
 20
117.6193099719441051
 30
0.0
 11
211.2955492291102928
 21
117.6193099719441051
 31
0.0
  0
LINE
  5
10E1A
  8
0
 10
217.6955492291102985
 20
117.6193099719441051
 30
0.0
 11
216.993168189857812
 21
117.6193099719441051
 31
0.0
  0
ARC
  5
10E1B
  8
0
 10
218.1955492291102132
 20
106.569309975077303
 30
0.0
 40
0.5
 50
270.0000000000007958
 51
0.0
  0
ARC
  5
10E1C
  8
0
 10
210.7955492291102928
 20
106.569309975077303
 30
0.0
 40
0.5
 50
180.0
 51
270.0000000000007958
  0
LINE
  5
10E1D
  8
0
 10
210.7955492291102928
 20
106.069309975077303
 30
0.0
 11
211.2955492291102075
 21
106.069309975077303
 31
0.0
  0
LINE
  5
10E1E
  8
0
 10
217.6955492291102132
 20
106.069309975077303
 30
0.0
 11
218.1955492291102132
 21
106.069309975077303
 31
0.0
  0
LINE
  5
10E21
  8
0
 10
210.9955492291101962
 20
117.4193099750225002
 30
0.0
 11
210.9955492291101962
 21
118.6893099750955969
 31
0.0
  0
LINE
  5
10E24
  8
0
 10
214.4955491976083124
 20
117.9785491002133
 30
0.0
 11
214.4955491916047947
 21
118.3767025964112065
 31
0.0
  0
LINE
  5
10E27
  8
0
 10
217.9955492379918098
 20
117.4193099750224007
 30
0.0
 11
217.9955492453640886
 21
118.6893099750953979
 31
0.0
  0
LINE
  5
10E28
  8
0
 10
217.9955492453640886
 20
118.6893099750953979
 30
0.0
 11
210.9955492291101962
 21
118.6893099750955969
 31
0.0
  0
LINE
  5
10E32
  8
0
 10
211.2955492291102928
 20
105.0330276204948063
 30
0.0
 11
210.9955492666155976
 21
105.1119173536329043
 31
0.0
  0
LINE
  5
10E33
  8
0
 10
210.9955492713291108
 20
104.7993099749485992
 30
0.0
 11
210.9955492521798135
 21
106.0693099750218948
 31
0.0
  0
LINE
  5
10E34
  8
0
 10
214.495549266615086
 20
105.1119173536331033
 30
0.0
 11
214.4955492582170962
 21
105.6688840450768936
 31
0.0
  0
LINE
  5
10E35
  8
0
 10
217.9955492291101109
 20
105.1119173709477934
 30
0.0
 11
217.6955492291102985
 21
105.032556757666697
 31
0.0
  0
LINE
  5
10E37
  8
0
 10
217.9955492291101109
 20
106.0693099750218948
 30
0.0
 11
217.9955492291101109
 21
104.7993099749485992
 31
0.0
  0
LINE
  5
10E38
  8
0
 10
212.8955492291102018
 20
104.7993099749411954
 30
0.0
 11
216.0955492291101905
 21
104.7993099749411954
 31
0.0
  0
LINE
  5
10E3A
  8
0
 10
217.6955492291102985
 20
104.7993099749410959
 30
0.0
 11
217.9955492291101109
 21
104.7993099749485992
 31
0.0
  0
LINE
  5
10E3C
  8
0
 10
210.9955492713291108
 20
104.7993099749485992
 30
0.0
 11
211.2955492291102075
 21
104.7993099749411954
 31
0.0
  0
LINE
  5
10E3E
  8
0
 10
218.995549229113692
 20
103.4820631851850976
 30
0.0
 11
217.6955492291137944
 21
103.4820631851851971
 31
0.0
  0
LINE
  5
10E3F
  8
0
 10
216.0955492291138
 20
103.4820631851852966
 30
0.0
 11
212.8955492291138114
 21
103.4820631851852966
 31
0.0
  0
LINE
  5
10E40
  8
0
 10
211.2955492291137887
 20
103.4820631851852966
 30
0.0
 11
209.995549229113692
 21
103.4820631851851971
 31
0.0
  0
POLYLINE
  5
10E47
  8
0
 66
     1
 10
0.0
 20
0.0
 30
0.0
 70
   128
  0
VERTEX
  5
1362B
  8
0
 10
214.7455492291101109
 20
112.1153488198103929
 30
0.0
  0
VERTEX
  5
1362C
  8
0
 10
215.3140486430216924
 20
112.121042030930596
 30
0.0
  0
VERTEX
  5
1362D
  8
0
 10
215.8770730968037128
 20
112.1380668355559038
 30
0.0
  0
VERTEX
  5
1362E
  8
0
 10
216.4292003571860903
 20
112.1662592755109955
 30
0.0
  0
VERTEX
  5
1362F
  8
0
 10
216.9651131368277106
 20
112.2053478421876065
 30
0.0
  0
VERTEX
  5
13630
  8
0
 10
217.4796503027010033
 20
112.2549560913206932
 30
0.0
  0
VERTEX
  5
13631
  8
0
 10
217.9678565806239021
 20
112.3146062683524065
 30
0.0
  0
VERTEX
  5
13632
  8
0
 10
218.4250302772593102
 20
112.3837239094697935
 30
0.0
  0
VERTEX
  5
13633
  8
0
 10
218.8467685599921992
 20
112.4616433740055044
 30
0.0
  0
VERTEX
  5
13634
  8
0
 10
219.2290098586140914
 20
112.5476142549208021
 30
0.0
  0
VERTEX
  5
13635
  8
0
 10
219.56807298046499
 20
112.6408086056360958
 30
0.0
  0
VERTEX
  5
13636
  8
0
 10
219.860692562330712
 20
112.7403289136087068
 30
0.0
  0
VERTEX
  5
13637
  8
0
 10
220.1040505176756881
 20
112.8452167438695994
 30
0.0
  0
VERTEX
  5
13638
  8
0
 10
220.2958031763571114
 20
112.9544619692756982
 30
0.0
  0
VERTEX
  5
13639
  8
0
 10
220.4341038554489955
 20
113.0670124985870046
 30
0.0
  0
VERTEX
  5
1363A
  8
0
 10
220.5176206438090105
 20
113.1817844086798033
 30
0.0
  0
VERTEX
  5
1363B
  8
0
 10
220.5455492291102075
 20
113.2976723833192949
 30
0.0
  0
SEQEND
  5
1363C
  8
0
  0
POLYLINE
  5
10E4B
  8
0
 66
     1
 10
0.0
 20
0.0
 30
0.0
 70
   128
  0
VERTEX
  5
1363D
  8
0
 10
208.4455492291102132
 20
113.2976723833193944
 30
0.0
  0
VERTEX
  5
1363E
  8
0
 10
208.4734778144114955
 20
113.1817844086799028
 30
0.0
  0
VERTEX
  5
1363F
  8
0
 10
208.5569946027713968
 20
113.0670124985871041
 30
0.0
  0
VERTEX
  5
13640
  8
0
 10
208.6952952818633946
 20
112.9544619692757976
 30
0.0
  0
VERTEX
  5
13641
  8
0
 10
208.8870479405447043
 20
112.8452167438695994
 30
0.0
  0
VERTEX
  5
13642
  8
0
 10
209.1304058958897087
 20
112.7403289136087068
 30
0.0
  0
VERTEX
  5
13643
  8
0
 10
209.4230254777554023
 20
112.6408086056360958
 30
0.0
  0
VERTEX
  5
13644
  8
0
 10
209.7620885996063009
 20
112.5476142549209015
 30
0.0
  0
VERTEX
  5
13645
  8
0
 10
210.1443298982281931
 20
112.4616433740055044
 30
0.0
  0
VERTEX
  5
13646
  8
0
 10
210.5660681809609969
 20
112.383723909469893
 30
0.0
  0
VERTEX
  5
13647
  8
0
 10
211.0232418775964902
 20
112.3146062683524065
 30
0.0
  0
VERTEX
  5
13648
  8
0
 10
211.511448155519389
 20
112.2549560913206932
 30
0.0
  0
VERTEX
  5
13649
  8
0
 10
212.0259853213927101
 20
112.205347842187706
 30
0.0
  0
VERTEX
  5
1364A
  8
0
 10
212.561898101034302
 20
112.1662592755109955
 30
0.0
  0
VERTEX
  5
1364B
  8
0
 10
213.1140253614165943
 20
112.1380668355559038
 30
0.0
  0
VERTEX
  5
1364C
  8
0
 10
213.6770498151986999
 20
112.121042030930596
 30
0.0
  0
VERTEX
  5
1364D
  8
0
 10
214.2455492291101962
 20
112.1153488198102934
 30
0.0
  0
SEQEND
  5
1364E
  8
0
  0
LINE
  5
10E4E
  8
0
 10
214.2455492291101962
 20
112.1153488198102934
 30
0.0
 11
214.7455492291101109
 21
112.1153488198103929
 31
0.0
  0
LINE
  5
10E5F
  8
0
 10
208.9478959810749075
 20
115.0287761240855957
 30
0.0
 11
210.5413516113758021
 21
115.1619876765145989
 31
0.0
  0
LINE
  5
10E60
  8
0
 10
218.4497468468447039
 20
115.1619876765144994
 30
0.0
 11
210.5413516113758021
 21
115.1619876765145989
 31
0.0
  0
LINE
  5
10E61
  8
0
 10
218.4497468468447039
 20
115.1619876765144994
 30
0.0
 11
220.043202477145087
 21
115.0287761240854962
 31
0.0
  0
LINE
  5
10E6A
  8
0
 10
208.4455492291102132
 20
111.4758834459643992
 30
0.0
 11
208.4455492298324089
 21
114.431613839536297
 31
0.0
  0
LINE
  5
10E6C
  8
0
 10
220.5455492291102075
 20
111.4758834459642998
 30
0.0
 11
220.5455492283878982
 21
114.4316138395342932
 31
0.0
  0
LINE
  5
10E6D
  8
0
 10
212.8955492291102018
 20
116.4918837131679936
 30
0.0
 11
216.0955492291101905
 21
116.4918837131678941
 31
0.0
  0
LINE
  5
10E6E
  8
0
 10
216.0955492291101905
 20
116.4918837131678941
 30
0.0
 11
216.0955492291101905
 21
116.4886695194227002
 31
0.0
  0
LINE
  5
10E6F
  8
0
 10
212.8955492291102018
 20
116.4886695194227002
 30
0.0
 11
212.8955492291102018
 21
116.4918837131679936
 31
0.0
  0
LINE
  5
10E71
  8
0
 10
217.6955492291102132
 20
115.8832786525280056
 30
0.0
 11
217.6955492291102132
 21
117.6193099719441051
 31
0.0
  0
LINE
  5
10E72
  8
0
 10
211.2955492291102928
 20
117.6193099719441051
 30
0.0
 11
211.2955492291102928
 21
115.8924885247587042
 31
0.0
  0
ARC
  5
10E81
  8
0
 10
218.4321492291101947
 20
102.8186631852232011
 30
0.0
 40
0.7366000000000404
 50
180.0
 51
270.0000000000007958
  0
LINE
  5
10E82
  8
0
 10
226.3455492291101905
 20
102.082063185223106
 30
0.0
 11
218.4321492291101947
 21
102.082063185223106
 31
0.0
  0
LINE
  5
10E83
  8
0
 10
223.1705492291102075
 20
102.082063185223106
 30
0.0
 11
223.1705492291102075
 21
100.4820631852230974
 31
0.0
  0
ARC
  5
10E85
  8
0
 10
218.4321492291101947
 20
102.8186631852232011
 30
0.0
 40
2.3366000000000149
 50
179.9999999999996021
 51
269.9999999999992042
  0
LINE
  5
10E86
  8
0
 10
226.3455492291101905
 20
102.082063185223106
 30
0.0
 11
226.3455492291101905
 21
100.4820631852230974
 31
0.0
  0
LINE
  5
10E88
  8
0
 10
218.4321492291101947
 20
100.4820631852230974
 30
0.0
 11
226.3455492291101905
 21
100.4820631852230974
 31
0.0
  0
LINE
  5
10E89
  8
0
 10
202.6455492291102018
 20
102.0820631852997025
 30
0.0
 11
202.6455492291102018
 21
100.4820631852995945
 31
0.0
  0
LINE
  5
10E8B
  8
0
 10
205.8205492291102132
 20
102.0820631853272005
 30
0.0
 11
205.8205492291102132
 21
100.4820631853272062
 31
0.0
  0
LINE
  5
10E8C
  8
0
 10
202.6455492291102018
 20
100.4820631852995945
 30
0.0
 11
210.5589492291101976
 21
100.4820631852230974
 31
0.0
  0
ARC
  5
10E8D
  8
0
 10
210.5589492291101976
 20
102.8186631853270967
 30
0.0
 40
0.73660000000001
 50
270.0000000000007958
 51
0.0
  0
ARC
  5
10E8F
  8
0
 10
210.5589492291101976
 20
102.8186631853270967
 30
0.0
 40
2.3366000000000242
 50
270.0000000000007958
 51
0.0
  0
LINE
  5
10E90
  8
0
 10
210.5589492291101976
 20
102.0820631853272005
 30
0.0
 11
202.6455492291102018
 21
102.0820631853272005
 31
0.0
  0
LINE
  5
10E98
  8
0
 10
211.2955492291102075
 20
109.1117004929902947
 30
0.0
 11
211.2955492291102075
 21
102.8186631853270967
 31
0.0
  0
LINE
  5
10E99
  8
0
 10
212.8955492291102018
 20
102.8186631853270967
 30
0.0
 11
212.8955492291102018
 21
109.1117004929902947
 31
0.0
  0
LINE
  5
10E9A
  8
0
 10
217.6955492291102132
 20
102.8186631852232011
 30
0.0
 11
217.6955492291102132
 21
109.1117004929902947
 31
0.0
  0
LINE
  5
10E9B
  8
0
 10
216.0955492291101905
 20
102.8186631852232011
 30
0.0
 11
216.0955492291101905
 21
109.1117004929903942
 31
0.0
  0
LINE
  5
10EA0
  8
0
 10
212.4755086463005114
 20
101.4820631851852966
 30
0.0
 11
216.5155898118474056
 21
101.4820631851852966
 31
0.0
  0
ARC
  5
10EA3
  8
0
 10
216.1063464215615113
 20
114.086027122728197
 30
0.0
 40
2.4026666572287492
 50
27.3008184657484207
 51
90.2574787635958415
  0
ARC
  5
10EA4
  8
0
 10
212.8877827600607873
 20
114.0809390683784983
 30
0.0
 40
2.407742976924105
 50
89.8151851446874616
 51
152.6254430146545076
  0
LINE
  5
10EAD
  8
0
 10
216.0955492291101905
 20
117.9785491002133
 30
0.0
 11
216.0955492291101905
 21
116.4918837131685052
 31
0.0
  0
LINE
  5
10EAE
  8
0
 10
212.8955492291102018
 20
116.4918837131686047
 30
0.0
 11
212.8955492291102018
 21
117.9785491002133
 31
0.0
  0
LINE
  5
10EB7
  8
1
 10
206.6455492291102018
 20
104.0820631852929949
 30
0.0
 11
206.6455492291102018
 21
98.482063185292958
 31
0.0
  0
LINE
  5
10EB8
  8
1
 10
222.3455492291101905
 20
104.082063185223106
 30
0.0
 11
222.3455492291101905
 21
98.4820631852231543
 31
0.0
  0
LINE
  5
10EB9
  8
1
 10
214.4955492291101962
 20
96.5672989719676735
 30
0.0
 11
214.4955492291101962
 21
126.0507687970707025
 31
0.0
  0
LINE
  5
11040
  8
1
 10
146.6047104890936055
 20
170.5687433983601977
 30
0.0
 11
146.6047104890936055
 21
177.8689055021065997
 31
0.0
  0
LINE
  5
11041
  8
1
 10
150.2547915377203935
 20
174.2188244502333987
 30
0.0
 11
140.5547915377202912
 21
174.2188244502333987
 31
0.0
  0
LINE
  5
11042
  8
1
 10
144.2047104858608861
 20
170.5688245569226922
 30
0.0
 11
144.2047104858608861
 21
177.8688244701235988
 31
0.0
  0
LINE
  5
11043
  8
1
 10
133.0047104890936112
 20
170.5687434616500013
 30
0.0
 11
133.0047104890934975
 21
177.8689055653964033
 31
0.0
  0
LINE
  5
11044
  8
1
 10
136.654791537720314
 20
174.2188245135232023
 30
0.0
 11
126.9547915377202969
 21
174.2188245135232023
 31
0.0
  0
LINE
  5
11045
  8
1
 10
130.6047104858608918
 20
170.5688246202126095
 30
0.0
 11
130.6047104858608918
 21
177.8688245334134024
 31
0.0
  0
LINE
  5
11046
  8
1
 10
133.0047104858469993
 20
154.8687434616500127
 30
0.0
 11
133.0047104858469993
 21
162.1689055653963862
 31
0.0
  0
LINE
  5
11047
  8
1
 10
136.6547915344737874
 20
158.5188245135232137
 30
0.0
 11
126.9547915344736992
 21
158.5188245135232137
 31
0.0
  0
LINE
  5
11048
  8
1
 10
130.6047104858608918
 20
154.8688245569227888
 30
0.0
 11
130.6047104858608918
 21
162.1688244701236101
 31
0.0
  0
LINE
  5
11049
  8
1
 10
146.6047104858471073
 20
154.8687434616500127
 30
0.0
 11
146.6047104858469936
 21
162.1689055653963862
 31
0.0
  0
LINE
  5
1104A
  8
1
 10
150.2547915344738101
 20
158.5188245135232137
 30
0.0
 11
140.554791534473793
 21
158.5188245135232137
 31
0.0
  0
LINE
  5
1104B
  8
1
 10
144.2047104858608861
 20
154.8688246202125924
 30
0.0
 11
144.2047104858608861
 21
162.1688245334134137
 31
0.0
  0
LINE
  5
1105E
  8
0
 10
172.5850364830232877
 20
112.1153488198103929
 30
0.0
 11
172.3404178147110883
 21
110.9405459822612983
 31
0.0
  0
LINE
  5
11DC0
  8
0
 10
147.6984604879972949
 20
56.9925490279027613
 30
0.0
 11
147.6984604879972949
 21
60.1925490279027571
 31
0.0
  0
LINE
  5
11DC1
  8
0
 10
136.5273006044164106
 20
60.1925490279027215
 30
0.0
 11
136.5273006044164106
 21
56.99254902790274
 31
0.0
  0
LINE
  5
11DC6
  8
0
 10
172.606034118399009
 20
58.3425490279028196
 30
0.0
 11
172.606034118399009
 21
58.8425490279028125
 31
0.0
  0
CIRCLE
  5
11DC9
  8
0
 10
112.1339899448922068
 20
58.5925490279027983
 30
0.0
 40
4.5
  0
LINE
  5
11DCD
  8
0
 10
135.2109604868867052
 20
60.1925490279028992
 30
0.0
 11
135.2109604868867052
 21
56.9925490279029106
 31
0.0
  0
LINE
  5
11DCF
  8
0
 10
117.1364443617239033
 20
62.5925490279028978
 30
0.0
 11
114.1955427577008066
 21
62.5925490279028978
 31
0.0
  0
LINE
  5
11DD0
  8
0
 10
110.0724371320834933
 20
62.5925490279028907
 30
0.0
 11
107.1315355280598993
 21
62.5925490279028978
 31
0.0
  0
ARC
  5
11DD1
  8
0
 10
117.1364443617239033
 20
60.2559490279029006
 30
0.0
 40
2.336600000000018
 50
62.0000000000003482
 51
90.0
  0
LINE
  5
11DD2
  8
0
 10
122.0706099437446994
 20
60.278769831003018
 30
0.0
 11
118.2334116153295014
 21
62.3190443733770678
 31
0.0
  0
ARC
  5
11DD3
  8
0
 10
122.4164226968927949
 20
60.929149027902902
 30
0.0
 40
0.73660000000001
 50
242.0000000000003979
 51
270.0
  0
ARC
  5
11DD4
  8
0
 10
122.4164226968927949
 20
56.2559490279029006
 30
0.0
 40
0.73660000000001
 50
90.0
 51
117.9999999999996021
  0
LINE
  5
11DD5
  8
0
 10
122.0706099437446994
 20
56.9063282248027917
 30
0.0
 11
118.2334116153295014
 21
54.8660536824287419
 31
0.0
  0
ARC
  5
11DD6
  8
0
 10
117.1364443617239033
 20
56.9291490279028878
 30
0.0
 40
2.336600000000006
 50
270.0
 51
298.0000000000031832
  0
LINE
  5
11DD7
  8
0
 10
117.1364443617239033
 20
54.592549027902912
 30
0.0
 11
114.1955427577012046
 21
54.5925490279028907
 31
0.0
  0
LINE
  5
11DD8
  8
0
 10
110.0724371320830954
 20
54.592549027902912
 30
0.0
 11
107.1315355280598993
 21
54.592549027902912
 31
0.0
  0
ARC
  5
11DD9
  8
0
 10
107.1315355280598993
 20
58.0925490279028907
 30
0.0
 40
3.5
 50
180.0
 51
270.0
  0
LINE
  5
11DDA
  8
0
 10
103.6315355280598993
 20
59.0925490279028907
 30
0.0
 11
103.6315355280598993
 21
58.0925490279028978
 31
0.0
  0
ARC
  5
11DDB
  8
0
 10
107.1315355280598993
 20
59.092549027902912
 30
0.0
 40
3.5
 50
90.0
 51
180.0000000000007958
  0
ARC
  5
11DDC
  8
0
 10
107.1315355280598993
 20
58.0925490279028907
 30
0.0
 40
1.900000000000005
 50
179.9999999999992042
 51
270.0
  0
LINE
  5
11DDD
  8
0
 10
117.1364443617239033
 20
56.1925490279028992
 30
0.0
 11
115.9405632070270968
 21
56.1925490279028992
 31
0.0
  0
LINE
  5
11DDE
  8
0
 10
108.3274166827573026
 20
56.1925490279028921
 30
0.0
 11
107.1315355280598993
 21
56.1925490279028992
 31
0.0
  0
ARC
  5
11DDF
  8
0
 10
117.1364443617239033
 20
56.9291490279028878
 30
0.0
 40
0.7365999999999963
 50
270.0
 51
298.0000000000031832
  0
LINE
  5
11DE0
  8
0
 10
121.3194554432872962
 20
58.3190443733770678
 30
0.0
 11
117.4822571148719987
 21
56.278769831003018
 31
0.0
  0
ARC
  5
11DE1
  8
0
 10
122.4164226968927949
 20
56.2559490279029006
 30
0.0
 40
2.336600000000018
 50
90.0
 51
117.9999999999996021
  0
ARC
  5
11DE2
  8
0
 10
122.4164226968927949
 20
60.929149027902902
 30
0.0
 40
2.336600000000018
 50
242.0000000000003979
 51
270.0
  0
LINE
  5
11DE3
  8
0
 10
117.4822571148719987
 20
60.9063282248027917
 30
0.0
 11
121.3194554432872962
 21
58.8660536824287419
 31
0.0
  0
ARC
  5
11DE4
  8
0
 10
117.1364443617239033
 20
60.2559490279029006
 30
0.0
 40
0.73660000000001
 50
62.0000000000004121
 51
90.0
  0
LINE
  5
11DE5
  8
0
 10
107.1315355280598993
 20
60.9925490279029106
 30
0.0
 11
108.3274166827574021
 21
60.9925490279029034
 31
0.0
  0
LINE
  5
11DE6
  8
0
 10
115.9405632070269974
 20
60.9925490279029177
 30
0.0
 11
117.1364443617239033
 21
60.9925490279029106
 31
0.0
  0
ARC
  5
11DE7
  8
0
 10
107.1315355280598993
 20
59.092549027902912
 30
0.0
 40
1.900000000000005
 50
90.0
 51
180.0000000000015916
  0
LINE
  5
11DE8
  8
0
 10
105.2315355280598936
 20
58.0925490279028978
 30
0.0
 11
105.2315355280598936
 21
59.0925490279028907
 31
0.0
  0
LINE
  5
11DEF
  8
0
 10
147.9281279011823926
 20
57.7925490279027727
 30
0.0
 11
148.5334834016213108
 21
57.7925490279027727
 31
0.0
  0
LINE
  5
11DF0
  8
0
 10
147.9281279011823926
 20
59.3925490279027812
 30
0.0
 11
148.5334834016263983
 21
59.392549027902767
 31
0.0
  0
LINE
  5
11E0F
  8
0
 10
147.8374530843721004
 20
59.5925490279027699
 30
0.0
 11
147.8374530843721004
 21
60.1925490279027571
 31
0.0
  0
LINE
  5
11E12
  8
0
 10
147.8374530843722141
 20
56.9925490279027684
 30
0.0
 11
147.8374530843722141
 21
57.5925490279027912
 31
0.0
  0
ARC
  5
11E19
  8
0
 10
148.1133101441641884
 20
57.6404713093997998
 30
0.0
 40
0.2799886828087591
 50
147.1012138072246103
 51
189.8551499803035938
  0
LINE
  5
11E1A
  8
0
 10
147.8782228624241952
 20
57.7925490279027727
 30
0.0
 11
147.9281279011823926
 21
57.7925490279027727
 31
0.0
  0
LINE
  5
11E1B
  8
0
 10
147.8782228624241952
 20
59.3925490279027812
 30
0.0
 11
147.9281279011823926
 21
59.3925490279027812
 31
0.0
  0
ARC
  5
11E1C
  8
0
 10
148.113310144164501
 20
59.5446267464058394
 30
0.0
 40
0.2799886828090809
 50
170.1448500197201952
 51
212.8987861927570862
  0
LINE
  5
11E21
  8
0
 10
171.1575665598265914
 20
58.8425490279028267
 30
0.0
 11
171.1575665598265914
 21
58.3425490279028267
 31
0.0
  0
LINE
  5
11E23
  8
0
 10
163.5213481157580873
 20
54.1516574530917083
 30
0.0
 11
162.7222837739529098
 21
54.6343307761083423
 31
0.0
  0
LINE
  5
11E24
  8
0
 10
162.7222837739529098
 20
54.6343307761083423
 30
0.0
 11
162.7222837766099985
 21
62.568180807299683
 31
0.0
  0
LINE
  5
11E26
  8
0
 10
163.5213481157580873
 20
63.1726122661049416
 30
0.0
 11
163.5213481157580873
 21
63.6425490279028025
 31
0.0
  0
LINE
  5
11E27
  8
0
 10
163.5213481157580873
 20
63.6425490279028025
 30
0.0
 11
166.4583552096306107
 21
63.6425490279028025
 31
0.0
  0
LINE
  5
11E28
  8
0
 10
166.4583552096306107
 20
53.5425490279027869
 30
0.0
 11
163.5213481157580873
 21
53.5425490279027869
 31
0.0
  0
LINE
  5
11E29
  8
0
 10
163.5213481157580873
 20
53.5425490279027869
 30
0.0
 11
163.5213481157580873
 21
54.1516574530917083
 31
0.0
  0
LINE
  5
11E3D
  8
0
 10
159.3781640681631018
 20
64.6425490279027741
 30
0.0
 11
167.1883271140154932
 21
64.6425490279028025
 31
0.0
  0
LINE
  5
11E3E
  8
0
 10
159.378164068163386
 20
52.5425490279027514
 30
0.0
 11
166.8539899596308942
 21
52.5425490279027869
 31
0.0
  0
LINE
  5
11E46
  8
0
 10
148.5334834016213108
 20
59.3925490279027599
 30
0.0
 11
148.5334834016213108
 21
57.7925490279027514
 31
0.0
  0
LINE
  5
11E47
  8
0
 10
122.4164226968927949
 20
60.1925490279027926
 30
0.0
 11
150.554710485846698
 21
60.1925490279027926
 31
0.0
  0
LINE
  5
11E4B
  8
0
 10
150.554710485846698
 20
60.1925490279027926
 30
0.0
 11
150.5547104858898138
 21
67.2675490278835184
 31
0.0
  0
ARC
  5
11E4D
  8
0
 10
129.8297104858608861
 20
67.267549027902831
 30
0.0
 40
3.1750000000000109
 50
90.0
 51
180.0000000000015916
  0
LINE
  5
11E4E
  8
0
 10
129.8297104858609998
 20
70.4425490279028139
 30
0.0
 11
147.3797104858608975
 21
70.4425490279028139
 31
0.0
  0
ARC
  5
11E4F
  8
0
 10
147.3797104858610112
 20
67.267549027902831
 30
0.0
 40
3.1750000000000109
 50
359.9999999996513793
 51
90.0
  0
ARC
  5
11E51
  8
0
 10
144.2047104858608861
 20
66.4425490279028423
 30
0.0
 40
2.150000000000019
 50
90.0
 51
270.0
  0
LINE
  5
11E52
  8
0
 10
144.2047104858608861
 20
64.2925490279028224
 30
0.0
 11
146.6047104858610055
 21
64.2925490279028224
 31
0.0
  0
ARC
  5
11E53
  8
0
 10
146.6047104858610055
 20
66.4425490279028423
 30
0.0
 40
2.150000000000019
 50
270.0
 51
90.0
  0
LINE
  5
11E54
  8
0
 10
146.6047104858610055
 20
68.5925490279028196
 30
0.0
 11
144.2047104858608861
 21
68.5925490279028196
 31
0.0
  0
ARC
  5
11E55
  8
0
 10
133.0047104858608975
 20
66.4425490279028423
 30
0.0
 40
2.150000000000019
 50
270.0
 51
90.0
  0
LINE
  5
11E56
  8
0
 10
133.0047104858608975
 20
68.5925490279028196
 30
0.0
 11
130.6047104858608918
 21
68.5925490279028196
 31
0.0
  0
ARC
  5
11E57
  8
0
 10
130.6047104858608918
 20
66.4425490279028423
 30
0.0
 40
2.150000000000019
 50
90.0
 51
270.0
  0
LINE
  5
11E58
  8
0
 10
130.6047104858608918
 20
64.2925490279028224
 30
0.0
 11
133.0047104858608975
 21
64.2925490279028224
 31
0.0
  0
LINE
  5
11E59
  8
0
 10
126.6547104858609032
 20
60.1925490279027926
 30
0.0
 11
126.6547104858610027
 21
67.2675490279028025
 31
0.0
  0
LINE
  5
11E5C
  8
0
 10
126.6547104890935032
 20
49.9175490279028224
 30
0.0
 11
126.6547104890935032
 21
56.9925490279027898
 31
0.0
  0
ARC
  5
11E5D
  8
0
 10
133.0047104890936112
 20
50.7425490279028111
 30
0.0
 40
2.149999999999991
 50
270.0
 51
90.0
  0
LINE
  5
11E5E
  8
0
 10
133.0047104890936112
 20
52.8925490279028025
 30
0.0
 11
130.6047104890934918
 21
52.8925490279028025
 31
0.0
  0
ARC
  5
11E5F
  8
0
 10
130.6047104890934918
 20
50.7425490279028111
 30
0.0
 40
2.149999999999991
 50
90.0
 51
270.0
  0
LINE
  5
11E60
  8
0
 10
130.6047104890934918
 20
48.5925490279028196
 30
0.0
 11
133.0047104890936112
 21
48.5925490279028196
 31
0.0
  0
ARC
  5
11E61
  8
0
 10
144.2047104890935998
 20
50.7425490279028111
 30
0.0
 40
2.149999999999991
 50
90.0
 51
270.0
  0
LINE
  5
11E62
  8
0
 10
144.2047104890935998
 20
48.5925490279028196
 30
0.0
 11
146.6047104890936055
 21
48.5925490279028196
 31
0.0
  0
ARC
  5
11E63
  8
0
 10
146.6047104890936055
 20
50.7425490279028111
 30
0.0
 40
2.149999999999991
 50
270.0
 51
90.0
  0
LINE
  5
11E64
  8
0
 10
146.6047104890936055
 20
52.8925490279028025
 30
0.0
 11
144.2047104890935998
 21
52.8925490279028025
 31
0.0
  0
LINE
  5
11E65
  8
0
 10
147.3797104890936112
 20
46.7425490279027969
 30
0.0
 11
129.8297104890934861
 21
46.7425490279027969
 31
0.0
  0
ARC
  5
11E66
  8
0
 10
147.3797104890936112
 20
49.9175490279028082
 30
0.0
 40
3.1750000000000109
 50
270.0
 51
0.0
  0
ARC
  5
11E67
  8
0
 10
129.8297104890934861
 20
49.9175490279028082
 30
0.0
 40
3.1750000000000109
 50
180.0
 51
270.0
  0
LINE
  5
11E68
  8
0
 10
150.5547104890935088
 20
56.9925490279027827
 30
0.0
 11
122.4164226968927949
 21
56.9925490279027969
 31
0.0
  0
LINE
  5
11E6D
  8
0
 10
150.5547104890935088
 20
49.9175490279028082
 30
0.0
 11
150.5547104890935088
 21
56.9925490279027827
 31
0.0
  0
LINE
  5
11E77
  8
1
 10
177.4673276488454121
 20
58.5925490279028196
 30
0.0
 11
97.9219342262666004
 21
58.5925490279028196
 31
0.0
  0
LINE
  5
11E78
  8
1
 10
146.6047104858610055
 20
62.7924679127398306
 30
0.0
 11
146.6047104858608918
 21
70.0926300164862397
 31
0.0
  0
LINE
  5
11E79
  8
1
 10
150.2547915344877083
 20
66.4425489646130387
 30
0.0
 11
140.5547915344876913
 21
66.4425489646130387
 31
0.0
  0
LINE
  5
11E7A
  8
1
 10
144.2047104858608861
 20
62.7925490713024601
 30
0.0
 11
144.2047104858608861
 21
70.0925489845033098
 31
0.0
  0
LINE
  5
11E7B
  8
1
 10
133.0047104858610112
 20
62.7924679127398306
 30
0.0
 11
133.0047104858608975
 21
70.0926300164862397
 31
0.0
  0
LINE
  5
11E7C
  8
1
 10
136.654791534487714
 20
66.4425489646130387
 30
0.0
 11
126.9547915344875975
 21
66.4425489646130387
 31
0.0
  0
LINE
  5
11E7E
  8
1
 10
133.0047104890936112
 20
47.0924679127397923
 30
0.0
 11
133.0047104890936112
 21
54.3926300164861871
 31
0.0
  0
LINE
  5
11E7F
  8
1
 10
136.6547915377203992
 20
50.7425489646129932
 30
0.0
 11
126.9547915377202969
 21
50.7425489646129932
 31
0.0
  0
LINE
  5
11E80
  8
1
 10
130.6047104890934918
 20
47.092549071302372
 30
0.0
 11
130.6047104890934918
 21
54.3925489845032217
 31
0.0
  0
LINE
  5
11E81
  8
1
 10
146.6047104890936055
 20
47.0924679127397923
 30
0.0
 11
146.6047104890934918
 21
54.3926300164861871
 31
0.0
  0
LINE
  5
11E82
  8
1
 10
150.2547915377203083
 20
50.7425489646129932
 30
0.0
 11
140.5547915377202912
 21
50.7425489646129932
 31
0.0
  0
LINE
  5
11EA6
  8
3
 10
110.5095335948681026
 20
124.3576076843885971
 30
0.0
 11
110.5095336321463009
 21
118.6893099750970038
 31
0.0
  0
LINE
  5
11EA7
  8
3
 10
113.7515335948804989
 20
124.3645203843394995
 30
0.0
 11
113.7515336321375941
 21
118.6893099750973022
 31
0.0
  0
LINE
  5
11EA8
  8
0
 10
135.2109604868865915
 20
111.2655023830762957
 30
0.0
 11
135.2109604868867052
 21
108.5325632264670048
 31
0.0
  0
ARC
  5
11EA9
  8
0
 10
132.1760124518241071
 20
108.708953642015004
 30
0.0
 40
3.0400695969381522
 50
341.0655587734282221
 51
356.6737256347694256
  0
LINE
  5
11EAD
  8
3
 10
60.1175644681389372
 20
124.3576076888871
 30
0.0
 11
60.1175645008648019
 21
118.6893099750949006
 31
0.0
  0
LINE
  5
11EAE
  8
3
 10
63.3595644681391477
 20
124.3645203798533032
 30
0.0
 11
63.3595645008564432
 21
118.6893099750950995
 31
0.0
  0
LINE
  5
11EAF
  8
0
 10
108.6339899448884978
 20
100.4820631849932937
 30
0.0
 11
115.6339899448885973
 21
100.4820631849932937
 31
0.0
  0
LINE
  5
11EB2
  8
0
 10
65.9420208136102559
 20
108.419309975021406
 30
0.0
 11
65.9420208136099433
 21
115.0693099750219943
 31
0.0
  0
LINE
  5
11EB3
  8
0
 10
57.5420208136099376
 20
108.4193099750216049
 30
0.0
 11
57.5420208136099021
 21
115.0693099750215964
 31
0.0
  0
ARC
  5
11EB4
  8
0
 10
67.0972214429056777
 20
114.3570065156271056
 30
0.0
 40
0.6987935441231911
 50
6.1289173578678184
 51
74.0137311012457104
  0
ARC
  5
11EB5
  8
0
 10
56.381409878780623
 20
114.361557613891307
 30
0.0
 40
0.6929395045257896
 50
105.659880387751798
 51
174.1974796541445869
  0
LINE
  5
11EB6
  8
0
 10
217.9955492291138057
 20
100.4820631851850976
 30
0.0
 11
210.995549229113692
 21
100.4820631851850976
 31
0.0
  0
LINE
  5
11EB8
  8
0
 10
218.6955492291102132
 20
106.569309975077303
 30
0.0
 11
218.6955492291102132
 21
109.2804391685835981
 31
0.0
  0
LINE
  5
11EB9
  8
0
 10
210.2955492291102075
 20
106.569309975077303
 30
0.0
 11
210.2955492291102075
 21
109.2901785488834037
 31
0.0
  0
LINE
  5
11EBA
  8
3
 10
212.8710928836391076
 20
124.3576076889376054
 30
0.0
 11
212.8710929163650007
 21
118.6893099750952985
 31
0.0
  0
LINE
  5
11EBB
  8
3
 10
216.1130928836394105
 20
124.3645203798027978
 30
0.0
 11
216.1130929163566066
 21
118.6893099750954974
 31
0.0
  0
LINE
  5
11EBD
  8
0
 10
210.2955492291104918
 20
116.9193099750225002
 30
0.0
 11
210.2955492291104918
 21
115.1414388037944008
 31
0.0
  0
LINE
  5
11EBE
  8
0
 10
218.6955492291104974
 20
116.9193099750224007
 30
0.0
 11
218.6955492291104974
 21
115.1414388037943013
 31
0.0
  0
LINE
  5
11EBF
  8
1
 10
112.1339899448920931
 20
172.8688240478232103
 30
0.0
 11
112.1339899448920931
 21
159.8688240478232103
 31
0.0
  0
CIRCLE
  5
11EC0
  8
3
 10
112.1339899448920931
 20
166.3688240478232103
 30
0.0
 40
1.620999999998588
  0
LINE
  5
11EC1
  8
1
 10
112.1339899448922068
 20
65.0925485622027935
 30
0.0
 11
112.1339899448922068
 21
52.0925485622028006
 31
0.0
  0
LINE
  5
11EC4
  8
1
 10
144.2047104858783086
 20
98.4820631852825557
 30
0.0
 11
144.2047104858295938
 21
104.0820631852824931
 31
0.0
  0
LINE
  5
11EC5
  8
1
 10
133.0047104891108916
 20
98.4820631852825557
 30
0.0
 11
133.0047104890622904
 21
104.0820631852824931
 31
0.0
  0
LINE
  5
11EC6
  8
1
 10
130.6047104858782859
 20
98.4820631852825557
 30
0.0
 11
130.6047104858297132
 21
104.0820631852824931
 31
0.0
  0
ARC
  5
11EDA
  8
0
 10
166.8495531075311931
 20
166.6624629777948883
 30
0.0
 40
5.756646414714452
 50
359.5656631319488952
 51
89.4299868807849663
  0
ARC
  5
11EDB
  8
0
 10
167.0593780104580048
 20
166.6683383989806941
 30
0.0
 40
4.7507630295339442
 50
359.4028352900458003
 51
89.381369554499372
  0
ARC
  5
11EDC
  8
0
 10
167.0593303313025899
 20
166.0693573060715948
 30
0.0
 40
4.7508102198416928
 50
270.6191993546210028
 51
0.5965958008337723
  0
ARC
  5
11EDD
  8
0
 10
166.8317220422111973
 20
166.0796068074446907
 30
0.0
 40
5.7744452531544201
 50
273.9422172309045891
 51
0.3891328459286572
  0
ARC
  5
11EDE
  8
0
 10
166.8367517364756907
 20
58.8838409290304909
 30
0.0
 40
5.7694301463931099
 50
359.589929715632195
 51
86.5063667206890443
  0
ARC
  5
11EDF
  8
0
 10
166.4070615616255111
 20
58.8920629133603128
 30
0.0
 40
4.7507630295339727
 50
359.402835290045175
 51
89.3813695545003952
  0
ARC
  5
11EE0
  8
0
 10
166.4070138824698972
 20
58.2930818204513201
 30
0.0
 40
4.7508102198418642
 50
270.6191993546227081
 51
0.5965958008325442
  0
ARC
  5
11EE1
  8
0
 10
166.8564873838672042
 20
58.292314667164618
 30
0.0
 40
5.7497661816428494
 50
269.9751134448995913
 51
0.5005861774893684
  0
LINE
  5
11EF4
  8
0
 10
108.6339894791920955
 20
164.348098148965903
 30
0.0
 11
112.1339894791923939
 21
162.3273722068028917
 31
0.0
  0
LINE
  5
11EF5
  8
0
 10
112.1339894791923939
 20
162.3273722068028917
 30
0.0
 11
115.6339894936425026
 21
164.3480981140018002
 31
0.0
  0
LINE
  5
11EF6
  8
0
 10
115.6339894936425026
 20
164.3480981140018002
 30
0.0
 11
115.6339894791920955
 21
168.3895499466788976
 31
0.0
  0
LINE
  5
11EF7
  8
0
 10
115.6339894791920955
 20
168.3895499466788976
 30
0.0
 11
112.1339895166974969
 21
170.4102759104962104
 31
0.0
  0
LINE
  5
11EF8
  8
0
 10
112.1339895166974969
 20
170.4102759104962104
 30
0.0
 11
108.6339894647528013
 21
168.3895499816497079
 31
0.0
  0
LINE
  5
11EF9
  8
0
 10
108.6339894647528013
 20
168.3895499816497079
 30
0.0
 11
108.6339894647528013
 21
164.3480981573025019
 31
0.0
  0
CIRCLE
  5
11EFA
  8
0
 10
112.1339899448920931
 20
166.3688240478232103
 30
0.0
 40
3.5000004656871222
  0
CIRCLE
  5
11EFB
  8
0
 10
112.1339899448922068
 20
58.5925490279028196
 30
0.0
 40
3.5
  0
LINE
  5
11F15
  8
0
 10
122.4164226968924964
 20
166.3688245135230943
 30
0.0
 11
135.2109604868865063
 21
166.3688245135230943
 31
0.0
  0
LINE
  5
11F16
  8
0
 10
136.5273006044164106
 20
166.3688245135230943
 30
0.0
 11
140.7731930744315889
 21
166.3688245135230943
 31
0.0
  0
ARC
  5
11F2E
  8
0
 10
216.2079622894198963
 20
109.8539585054620034
 30
0.0
 40
5.0417569244789471
 50
250.1446861529755097
 51
268.7224041568271105
  0
ARC
  5
11F2F
  8
0
 10
212.7839407958906008
 20
109.8542629823786001
 30
0.0
 40
5.0417700879292591
 50
271.2684462910319212
 51
289.8455386886735141
  0
ARC
  5
11F3B
  8
0
 10
63.4211201755957106
 20
113.460859873934794
 30
0.0
 40
4.8768548347478964
 50
301.1252846383900987
 51
330.5111921650031945
  0
ARC
  5
11F3C
  8
0
 10
60.0764665479665894
 20
113.4631499503924061
 30
0.0
 40
4.8921399919116331
 50
209.4152103952405923
 51
238.7974657497975102
  0
ARC
  5
11F3D
  8
0
 10
64.700714655178885
 20
106.8223704420402953
 30
0.0
 40
2.0243553788581421
 50
272.0494507853666164
 51
297.6652039179739972
  0
ARC
  5
11F3F
  8
0
 10
64.8446956124552258
 20
106.8197551114681971
 30
0.0
 40
2.0217129095658888
 50
237.6449367249167892
 51
267.9708164055512043
  0
ARC
  5
11F40
  8
0
 10
61.742020843412071
 20
111.4867027857070951
 30
0.0
 40
6.6873928107594454
 50
252.4120463565965053
 51
287.5879531523540891
  0
ARC
  5
11F41
  8
0
 10
58.6385368583874182
 20
106.8223702684824019
 30
0.0
 40
2.0243552043514819
 50
272.0494501218996106
 51
302.3347983815688167
  0
ARC
  5
11F42
  8
0
 10
58.7825177859651404
 20
106.8197551114676003
 30
0.0
 40
2.0217129095660349
 50
242.3550632736767909
 51
267.9708164058778266
  0
ARC
  5
11F43
  8
0
 10
64.700714655178885
 20
116.6662495080025934
 30
0.0
 40
2.0243553788581421
 50
62.3347960820260028
 51
87.9505492146334547
  0
ARC
  5
11F44
  8
0
 10
64.8446956124552258
 20
116.6688648385747058
 30
0.0
 40
2.0217129095658888
 50
92.0291835944487531
 51
122.3550632750827987
  0
ARC
  5
11F45
  8
0
 10
61.742020843412071
 20
112.0019171643356941
 30
0.0
 40
6.6873928107594454
 50
72.4120468476459109
 51
107.5879536434036936
  0
ARC
  5
11F46
  8
0
 10
58.6385368583874182
 20
116.666249681560501
 30
0.0
 40
2.0243552043514819
 50
57.6652016184310128
 51
87.9505498781004462
  0
ARC
  5
11F47
  8
0
 10
58.7825177859651404
 20
116.6688648385753027
 30
0.0
 40
2.0217129095660349
 50
92.0291835941221876
 51
117.6449367263233938
  0
ARC
  5
11F48
  8
0
 10
163.5056729005596026
 20
190.425290641100986
 30
0.0
 40
75.3074078394094784
 50
259.038377845474372
 51
268.038974342733411
  0
ARC
  5
11F49
  8
0
 10
153.6168974054376122
 20
123.0556277995433021
 30
0.0
 40
13.9439248883180902
 50
258.2379462998483746
 51
297.187698556310977
  0
LINE
  5
11F4A
  8
0
 10
150.7744601782447091
 20
109.4044889495965975
 30
0.0
 11
147.8374530843722141
 21
110.0160356203769965
 31
0.0
  0
ARC
  5
11F4B
  8
0
 10
146.813860315661401
 20
208.371409541765189
 30
0.0
 40
38.0847751601359406
 50
276.1367302327188895
 51
289.2629234298877918
  0
ARC
  5
11F4C
  8
0
 10
146.8155174106572076
 20
124.3720260956655039
 30
0.0
 40
38.0787658352453207
 50
70.7365579097834001
 51
83.876893596383681
  0
ARC
  5
11F4D
  8
0
 10
149.0955040665199931
 20
133.8542385870096041
 30
0.0
 40
30.9147179732645085
 50
67.4947367844314954
 51
89.8325369486714038
  0
ARC
  5
11F4E
  8
0
 10
149.0950944545469952
 20
198.8847548417271014
 30
0.0
 40
30.91611677798209
 50
270.1989877376946083
 51
292.505010844086712
  0
ARC
  5
11F4F
  8
0
 10
161.5402670467294115
 20
170.4716618835404915
 30
0.0
 40
1.9487842833094611
 50
47.8502505631077071
 51
87.6624286525437242
  0
ARC
  5
11F51
  8
0
 10
161.1812391788485002
 20
159.9991216997468939
 30
0.0
 40
12.0333535146455493
 50
71.6232794355170483
 51
82.0380762617257346
  0
ARC
  5
11F52
  8
0
 10
161.1258784935529036
 20
172.975128572249389
 30
0.0
 40
12.2753620995409705
 50
278.0648627652249729
 51
288.273781537495779
  0
LINE
  5
11F56
  8
0
 10
130.2109604868863926
 20
162.1688245135231909
 30
0.0
 11
134.3109604868861879
 21
162.1688245135231909
 31
0.0
  0
LINE
  5
11F57
  8
0
 10
137.227300604417195
 20
162.1688245135231057
 30
0.0
 11
141.227300604417195
 21
162.1688245135231057
 31
0.0
  0
LINE
  5
11F59
  8
0
 10
142.9984604879979031
 20
162.1688245135231057
 30
0.0
 11
146.9984604879979031
 21
162.1688245135231057
 31
0.0
  0
ARC
  5
11F5C
  8
0
 10
148.609686572184188
 20
170.0907216104185125
 30
0.0
 40
0.2913609864644292
 50
17.3509421102356782
 51
72.6490578897643218
  0
ARC
  5
11F65
  8
0
 10
145.1940502815187983
 20
168.7866441910167055
 30
0.0
 40
3.9469610634490482
 50
4.3081872603762577
 51
20.6350966267141409
  0
ARC
  5
11F66
  8
0
 10
138.6456946798720082
 20
167.9976778547710126
 30
0.0
 40
10.5402057199534092
 50
359.8431551729631224
 51
5.910997493806982
  0
ARC
  5
11F6F
  8
0
 10
148.6124628443054974
 20
169.3267916299313924
 30
0.0
 40
0.2647995775308042
 50
15.5699126042759808
 51
66.0673478957836124
  0
ARC
  5
11F70
  8
0
 10
146.4654033615954916
 20
168.5557862960395994
 30
0.0
 40
2.5454638972555998
 50
5.1259494978033944
 51
19.3183362233258009
  0
ARC
  5
11F71
  8
0
 10
142.2932168809940094
 20
168.0011907773404971
 30
0.0
 40
6.7529041770816676
 50
359.7253837212941221
 51
6.6500663926001229
  0
ARC
  5
11F73
  8
0
 10
148.609686572184188
 20
162.6469274166279888
 30
0.0
 40
0.2913609864644292
 50
287.3509421102359056
 51
342.6490578897651176
  0
ARC
  5
11F74
  8
0
 10
145.1940502815187983
 20
163.9510048360297958
 30
0.0
 40
3.9469610634490482
 50
339.3649033732845055
 51
355.6918127396231171
  0
ARC
  5
11F75
  8
0
 10
138.6456946798720082
 20
164.7399711722754034
 30
0.0
 40
10.5402057199534092
 50
354.0890025061921165
 51
0.1568448270376046
  0
ARC
  5
11F76
  8
0
 10
148.6124628443054974
 20
163.4108573971151088
 30
0.0
 40
0.2647995775308042
 50
293.9326521042161744
 51
344.4300873957228077
  0
ARC
  5
11F77
  8
0
 10
146.4654033615954916
 20
164.1818627310069019
 30
0.0
 40
2.5454638972555998
 50
340.6816637766738154
 51
354.8740505021950185
  0
ARC
  5
11F78
  8
0
 10
142.2932168809940094
 20
164.7364582497058905
 30
0.0
 40
6.7529041770816676
 50
353.3499336073992936
 51
0.2746162787057693
  0
LINE
  5
11F79
  8
0
 10
122.4164226968927949
 20
58.5925490279028196
 30
0.0
 11
135.2109604868867052
 21
58.5925490279028978
 31
0.0
  0
LINE
  5
11F7A
  8
0
 10
136.5273006044164106
 20
58.5925490279027272
 30
0.0
 11
147.6984604879972949
 21
58.5925490279028196
 31
0.0
  0
LINE
  5
11F7C
  8
3
 10
110.5095336006261988
 20
104.7993099749503045
 30
0.0
 11
110.5095336092892069
 21
103.4820631849932937
 31
0.0
  0
LINE
  5
11F7D
  8
3
 10
113.7515336006736959
 20
104.799309974950603
 30
0.0
 11
113.7515336093212994
 21
103.4820631849932937
 31
0.0
  0
LINE
  5
11F80
  8
3
 10
60.117564448235747
 20
104.799309974947505
 30
0.0
 11
60.1175644568987479
 21
103.4820631849904942
 31
0.0
  0
LINE
  5
11F81
  8
3
 10
63.3595644482832085
 20
104.7993099749478034
 30
0.0
 11
63.3595644569308192
 21
103.4820631849904942
 31
0.0
  0
LINE
  5
11F82
  8
1
 10
61.7420208136103383
 20
96.567298971967702
 30
0.0
 11
61.7420208136103383
 21
126.0507687970707025
 31
0.0
  0
ARC
  5
11F83
  8
0
 10
146.8835293328527882
 20
100.3518632845968028
 30
0.0
 40
37.8321427076521175
 50
275.568669756381496
 51
289.2848641044673741
  0
ARC
  5
11F84
  8
0
 10
146.8835289880495907
 20
16.8332332071608306
 30
0.0
 40
37.8321442978150273
 50
70.7151361849401638
 51
84.4313299488304949
  0
ARC
  5
11F85
  8
0
 10
148.4545528851568861
 20
23.9861049841261398
 30
0.0
 40
33.8065361862381266
 50
65.0365135795510128
 51
89.866227360531667
  0
ARC
  5
11F86
  8
0
 10
148.4893150723632971
 20
92.8756634545788131
 30
0.0
 40
33.4831435583816202
 50
270.0755801074694205
 51
295.1556403702790021
  0
ARC
  5
11F87
  8
0
 10
159.0444968360957034
 20
68.2606525413098524
 30
0.0
 40
6.7771934620698193
 50
302.8656570730798876
 51
311.3438158564266018
  0
ARC
  5
11F8C
  8
0
 10
216.2455491941178138
 20
113.634689391114506
 30
0.0
 40
5.0546205839809248
 50
69.7438422534445266
 51
110.2561571796559008
  0
ARC
  5
11F8D
  8
0
 10
212.7455492103572965
 20
113.634689510164705
 30
0.0
 40
5.0546204649308217
 50
69.743842579309316
 51
110.2561574207206974
  0
LINE
  5
12FDE
  8
1
 10
144.2047104890935998
 20
47.092549071302372
 30
0.0
 11
144.2047104890935998
 21
54.3925489845032217
 31
0.0
  0
LINE
  5
12FDF
  8
1
 10
130.6047104858608918
 20
62.7925490713024104
 30
0.0
 11
130.6047104858608918
 21
70.092548984503253
 31
0.0
  0
ARC
  5
12FFF
  8
0
 10
113.883989909899995
 20
113.6346893911121043
 30
0.0
 40
5.0546205839852867
 50
69.7438422533363536
 51
110.2561571796471043
  0
ARC
  5
13000
  8
0
 10
110.3839898954462058
 20
113.634689422270398
 30
0.0
 40
5.0546205839852867
 50
69.7438422533363536
 51
110.2561571796471043
  0
ARC
  5
1300B
  8
0
 10
113.8839899099005066
 20
109.8539305612445958
 30
0.0
 40
5.0546205839852867
 50
249.7438428203523131
 51
290.2561577466631775
  0
ARC
  5
1300C
  8
0
 10
110.3839898954467031
 20
109.853930530086302
 30
0.0
 40
5.0546205839852867
 50
249.7438428203523131
 51
290.2561577466631775
  0
LINE
  5
1301B
  8
0
 10
114.1339899448880999
 20
123.9820640344083955
 30
0.0
 11
113.6339907941880938
 21
124.4820631850083998
 31
0.0
  0
LINE
  5
1301C
  8
0
 10
110.1339899922786998
 20
123.9820640817370929
 30
0.0
 11
110.1339899448880004
 21
123.9820640344083955
 31
0.0
  0
LINE
  5
1301D
  8
0
 10
114.1339899448880999
 20
123.9820640344083955
 30
0.0
 11
110.1339899448880999
 21
123.9820640344083955
 31
0.0
  0
LINE
  5
1301E
  8
0
 10
113.6339907941880938
 20
124.4820631850083998
 30
0.0
 11
110.6339890954878058
 21
124.4820631850083998
 31
0.0
  0
LINE
  5
13024
  8
0
 10
110.1339899448880004
 20
123.982064034408495
 30
0.0
 11
110.6339890954878058
 21
124.4820631850083998
 31
0.0
  0
LINE
  5
13027
  8
0
 10
63.7420208136605382
 20
123.9820640344083955
 30
0.0
 11
63.2420216629604468
 21
124.4820631850083998
 31
0.0
  0
LINE
  5
13028
  8
0
 10
59.7420208610511025
 20
123.9820640817370929
 30
0.0
 11
59.7420208136604387
 21
123.9820640344083955
 31
0.0
  0
LINE
  5
13029
  8
0
 10
63.7420208136605382
 20
123.9820640344083955
 30
0.0
 11
59.7420208136605311
 21
123.9820640344083955
 31
0.0
  0
LINE
  5
1302A
  8
0
 10
63.2420216629604468
 20
124.4820631850083998
 30
0.0
 11
60.2420199642602228
 21
124.4820631850083998
 31
0.0
  0
LINE
  5
1302B
  8
0
 10
59.7420208136603677
 20
123.982064034408495
 30
0.0
 11
60.242019964260237
 21
124.4820631850083998
 31
0.0
  0
LINE
  5
1302D
  8
0
 10
216.4955492291101962
 20
123.9820640344083955
 30
0.0
 11
215.9955500784101901
 21
124.4820631850083998
 31
0.0
  0
LINE
  5
1302E
  8
0
 10
212.4955492765008103
 20
123.9820640817370929
 30
0.0
 11
212.4955492291101962
 21
123.9820640344083955
 31
0.0
  0
LINE
  5
1302F
  8
0
 10
216.4955492291101962
 20
123.9820640344083955
 30
0.0
 11
212.4955492291101962
 21
123.9820640344083955
 31
0.0
  0
LINE
  5
13030
  8
0
 10
215.9955500784101901
 20
124.4820631850083998
 30
0.0
 11
212.9955483797099021
 21
124.4820631850083998
 31
0.0
  0
LINE
  5
13031
  8
0
 10
212.4955492291101109
 20
123.982064034408495
 30
0.0
 11
212.9955483797099021
 21
124.4820631850083998
 31
0.0
  0
POLYLINE
  5
13042
  8
0
 66
     1
 10
0.0
 20
0.0
 30
0.0
  0
VERTEX
  5
1364F
  8
0
 10
67.6661875833724196
 20
111.0602108403116972
 30
0.0
  0
VERTEX
  5
13650
  8
0
 10
67.680125411579624
 20
111.0822743301586968
 30
0.0
  0
VERTEX
  5
13651
  8
0
 10
67.6941008357215139
 20
111.1042314671229008
 30
0.0
  0
VERTEX
  5
13652
  8
0
 10
67.7074123389562743
 20
111.1264399704518979
 30
0.0
  0
VERTEX
  5
13653
  8
0
 10
67.7197279608303262
 20
111.1490255233280067
 30
0.0
  0
VERTEX
  5
13654
  8
0
 10
67.7307519824271651
 20
111.1721000875651981
 30
0.0
  0
VERTEX
  5
13655
  8
0
 10
67.7404654071721808
 20
111.1956708554356936
 30
0.0
  0
VERTEX
  5
13656
  8
0
 10
67.7489768261398524
 20
111.2196967133920964
 30
0.0
  0
VERTEX
  5
13657
  8
0
 10
67.7563955125826851
 20
111.2441362896085053
 30
0.0
  0
VERTEX
  5
13658
  8
0
 10
67.7628307397531415
 20
111.2689482122588061
 30
0.0
  0
VERTEX
  5
13659
  8
0
 10
67.7683917809037268
 20
111.2940911095170975
 30
0.0
  0
VERTEX
  5
1365A
  8
0
 10
67.7731879092869178
 20
111.3195236095573932
 30
0.0
  0
VERTEX
  5
1365B
  8
0
 10
67.7773283981552055
 20
111.3452043405535932
 30
0.0
  0
VERTEX
  5
1365C
  8
0
 10
67.7809225207610666
 20
111.3710919306796967
 30
0.0
  0
VERTEX
  5
1365D
  8
0
 10
67.7840795503569922
 20
111.3971450081099022
 30
0.0
  0
VERTEX
  5
1365E
  8
0
 10
67.7869087601954448
 20
111.4233222010180953
 30
0.0
  0
VERTEX
  5
1365F
  8
0
 10
67.789519423528958
 20
111.4495821375782043
 30
0.0
  0
VERTEX
  5
13660
  8
0
 10
67.792020813609966
 20
111.4758834459643992
 30
0.0
  0
SEQEND
  5
13661
  8
0
  0
POLYLINE
  5
13043
  8
0
 66
     1
 10
0.0
 20
0.0
 30
0.0
  0
VERTEX
  5
13662
  8
0
 10
67.7920208136099518
 20
111.7223158697690053
 30
0.0
  0
VERTEX
  5
13663
  8
0
 10
67.7920208136099376
 20
111.7114321828852042
 30
0.0
  0
VERTEX
  5
13664
  8
0
 10
67.7920208136099376
 20
111.7005474388621025
 30
0.0
  0
VERTEX
  5
13665
  8
0
 10
67.7920208136099234
 20
111.6896610237229055
 30
0.0
  0
VERTEX
  5
13666
  8
0
 10
67.7920208136099234
 20
111.6787721019097006
 30
0.0
  0
VERTEX
  5
13667
  8
0
 10
67.7920208136099234
 20
111.6678798378646036
 30
0.0
  0
VERTEX
  5
13668
  8
0
 10
67.7920208136099234
 20
111.6569833960295028
 30
0.0
  0
VERTEX
  5
13669
  8
0
 10
67.7920208136099234
 20
111.6460819408464999
 30
0.0
  0
VERTEX
  5
1366A
  8
0
 10
67.7920208136099234
 20
111.635174636757597
 30
0.0
  0
VERTEX
  5
1366B
  8
0
 10
67.7920208136099234
 20
111.6242606482045971
 30
0.0
  0
VERTEX
  5
1366C
  8
0
 10
67.7920208136099234
 20
111.6133391396298009
 30
0.0
  0
VERTEX
  5
1366D
  8
0
 10
67.7920208136099234
 20
111.6024092754750967
 30
0.0
  0
VERTEX
  5
1366E
  8
0
 10
67.7920208136099234
 20
111.5914707289476979
 30
0.0
  0
VERTEX
  5
1366F
  8
0
 10
67.7920208136099234
 20
111.5805341667391986
 30
0.0
  0
VERTEX
  5
13670
  8
0
 10
67.7920208136099234
 20
111.569620869451299
 30
0.0
  0
VERTEX
  5
13671
  8
0
 10
67.7920208136099376
 20
111.558752550506
 30
0.0
  0
VERTEX
  5
13672
  8
0
 10
67.7920208136099376
 20
111.5479509233257005
 30
0.0
  0
VERTEX
  5
13673
  8
0
 10
67.7920208136099376
 20
111.5372377013326002
 30
0.0
  0
VERTEX
  5
13674
  8
0
 10
67.7920208136099376
 20
111.5266345979489984
 30
0.0
  0
VERTEX
  5
13675
  8
0
 10
67.7920208136099518
 20
111.5161633265970949
 30
0.0
  0
VERTEX
  5
13676
  8
0
 10
67.7920208136099518
 20
111.5058456006992031
 30
0.0
  0
VERTEX
  5
13677
  8
0
 10
67.7920208136099518
 20
111.4957031336775941
 30
0.0
  0
VERTEX
  5
13678
  8
0
 10
67.7920208136099518
 20
111.4857406933994071
 30
0.0
  0
VERTEX
  5
13679
  8
0
 10
67.792020813609966
 20
111.4758834459643992
 30
0.0
  0
SEQEND
  5
1367A
  8
0
  0
POLYLINE
  5
13044
  8
0
 66
     1
 10
0.0
 20
0.0
 30
0.0
  0
VERTEX
  5
1367B
  8
0
 10
55.6920208136099504
 20
111.7223158697689058
 30
0.0
  0
VERTEX
  5
1367C
  8
0
 10
55.6920208136099504
 20
111.7114322642861026
 30
0.0
  0
VERTEX
  5
1367D
  8
0
 10
55.6920208136099504
 20
111.7005475167382968
 30
0.0
  0
VERTEX
  5
1367E
  8
0
 10
55.6920208136099504
 20
111.6896610980643061
 30
0.0
  0
VERTEX
  5
1367F
  8
0
 10
55.6920208136099504
 20
111.6787721727010023
 30
0.0
  0
VERTEX
  5
13680
  8
0
 10
55.6920208136099504
 20
111.6678799050853996
 30
0.0
  0
VERTEX
  5
13681
  8
0
 10
55.6920208136099504
 20
111.6569834596542989
 30
0.0
  0
VERTEX
  5
13682
  8
0
 10
55.6920208136099504
 20
111.6460820008446007
 30
0.0
  0
VERTEX
  5
13683
  8
0
 10
55.6920208136099504
 20
111.6351746930934041
 30
0.0
  0
VERTEX
  5
13684
  8
0
 10
55.6920208136099504
 20
111.6242607008373966
 30
0.0
  0
VERTEX
  5
13685
  8
0
 10
55.6920208136099504
 20
111.6133391885137058
 30
0.0
  0
VERTEX
  5
13686
  8
0
 10
55.6920208136099504
 20
111.6024093205590049
 30
0.0
  0
VERTEX
  5
13687
  8
0
 10
55.6920208136099504
 20
111.5914707701761017
 30
0.0
  0
VERTEX
  5
13688
  8
0
 10
55.6920208136099504
 20
111.5805342040651027
 30
0.0
  0
VERTEX
  5
13689
  8
0
 10
55.6920208136099504
 20
111.5696209028487971
 30
0.0
  0
VERTEX
  5
1368A
  8
0
 10
55.6920208136099504
 20
111.5587525799716957
 30
0.0
  0
VERTEX
  5
1368B
  8
0
 10
55.6920208136099504
 20
111.5479509488783947
 30
0.0
  0
VERTEX
  5
1368C
  8
0
 10
55.6920208136099504
 20
111.5372377230134049
 30
0.0
  0
VERTEX
  5
1368D
  8
0
 10
55.6920208136099504
 20
111.5266346158208961
 30
0.0
  0
VERTEX
  5
1368E
  8
0
 10
55.6920208136099504
 20
111.5161633407456065
 30
0.0
  0
VERTEX
  5
1368F
  8
0
 10
55.6920208136099504
 20
111.505845611231905
 30
0.0
  0
VERTEX
  5
13690
  8
0
 10
55.6920208136099504
 20
111.4957031407243022
 30
0.0
  0
VERTEX
  5
13691
  8
0
 10
55.6920208136099504
 20
111.4857406969718028
 30
0.0
  0
VERTEX
  5
13692
  8
0
 10
55.6920208136099504
 20
111.4758834459642998
 30
0.0
  0
SEQEND
  5
13693
  8
0
  0
POLYLINE
  5
13045
  8
0
 66
     1
 10
0.0
 20
0.0
 30
0.0
  0
VERTEX
  5
13694
  8
0
 10
55.6920208136099504
 20
111.4758834459642998
 30
0.0
  0
VERTEX
  5
13695
  8
0
 10
55.6945010315547719
 20
111.4496792277766986
 30
0.0
  0
VERTEX
  5
13696
  8
0
 10
55.6970896771550414
 20
111.4235160630880017
 30
0.0
  0
VERTEX
  5
13697
  8
0
 10
55.6998951780661571
 20
111.397435005396801
 30
0.0
  0
VERTEX
  5
13698
  8
0
 10
55.7030259619435881
 20
111.3714771082021997
 30
0.0
  0
VERTEX
  5
13699
  8
0
 10
55.7065904564427328
 20
111.3456834250028038
 30
0.0
  0
VERTEX
  5
1369A
  8
0
 10
55.7106970892190319
 20
111.3200950092976029
 30
0.0
  0
VERTEX
  5
1369B
  8
0
 10
55.7154542879279333
 20
111.2947529145853025
 30
0.0
  0
VERTEX
  5
1369C
  8
0
 10
55.7209704802248424
 20
111.2696981943648069
 30
0.0
  0
VERTEX
  5
1369D
  8
0
 10
55.7273540937652214
 20
111.2449719021347931
 30
0.0
  0
VERTEX
  5
1369E
  8
0
 10
55.7347135562044684
 20
111.2206150913942935
 30
0.0
  0
VERTEX
  5
1369F
  8
0
 10
55.7431572951980385
 20
111.1966688156419991
 30
0.0
  0
VERTEX
  5
136A0
  8
0
 10
55.7527937384013512
 20
111.1731741283768002
 30
0.0
  0
VERTEX
  5
136A1
  8
0
 10
55.763731011543932
 20
111.1501719687804979
 30
0.0
  0
VERTEX
  5
136A2
  8
0
 10
55.7759632045401972
 20
111.1276600991428012
 30
0.0
  0
VERTEX
  5
136A3
  8
0
 10
55.7891994278719281
 20
111.1055283812112009
 30
0.0
  0
VERTEX
  5
136A4
  8
0
 10
55.8031050047606385
 20
111.0836500977501942
 30
0.0
  0
VERTEX
  5
136A5
  8
0
 10
55.8150043195639611
 20
111.0604486838261948
 30
0.0
  0
SEQEND
  5
136A6
  8
0
  0
POLYLINE
  5
1341E
  8
0
 66
     1
 10
0.0
 20
0.0
 30
0.0
  0
VERTEX
  5
136A7
  8
0
 10
218.0033552468098037
 20
109.1117004929902947
 30
0.0
  0
VERTEX
  5
136A8
  8
0
 10
218.2066080247170987
 20
109.1283185630118027
 30
0.0
  0
VERTEX
  5
136A9
  8
0
 10
218.4340453644929028
 20
109.1765540939561987
 30
0.0
  0
VERTEX
  5
136AA
  8
0
 10
218.6662417704723111
 20
109.2649478865667021
 30
0.0
  0
VERTEX
  5
136AB
  8
0
 10
218.8961485081296132
 20
109.3864715626602049
 30
0.0
  0
VERTEX
  5
136AC
  8
0
 10
219.1175888333881119
 20
109.5371282766162011
 30
0.0
  0
VERTEX
  5
136AD
  8
0
 10
219.3136259246419115
 20
109.6980998902593001
 30
0.0
  0
VERTEX
  5
136AE
  8
0
 10
219.4920844462496916
 20
109.8665499376365062
 30
0.0
  0
VERTEX
  5
136AF
  8
0
 10
219.6694215760898032
 20
110.0534750917121016
 30
0.0
  0
VERTEX
  5
136B0
  8
0
 10
219.8473505815368014
 20
110.2603045650387941
 30
0.0
  0
VERTEX
  5
136B1
  8
0
 10
220.0263443842951858
 20
110.4862975625718065
 30
0.0
  0
VERTEX
  5
136B2
  8
0
 10
220.2060665272881863
 20
110.7338259678689951
 30
0.0
  0
VERTEX
  5
136B3
  8
0
 10
220.3860514626821043
 20
111.0043081592850029
 30
0.0
  0
SEQEND
  5
136B4
  8
0
  0
POLYLINE
  5
1341F
  8
0
 66
     1
 10
0.0
 20
0.0
 30
0.0
  0
VERTEX
  5
136B5
  8
0
 10
220.5455492291102075
 20
111.4758834459642998
 30
0.0
  0
VERTEX
  5
136B6
  8
0
 10
220.5376036547251033
 20
111.4116761264053963
 30
0.0
  0
VERTEX
  5
136B7
  8
0
 10
220.5332251988482142
 20
111.3797121685902027
 30
0.0
  0
VERTEX
  5
136B8
  8
0
 10
220.5283599405499899
 20
111.3479158531323066
 30
0.0
  0
VERTEX
  5
136B9
  8
0
 10
220.52284561235669
 20
111.316343060817303
 30
0.0
  0
VERTEX
  5
136BA
  8
0
 10
220.5165199467946877
 20
111.2850496724311
 30
0.0
  0
VERTEX
  5
136BB
  8
0
 10
220.5092206763901004
 20
111.2540915687591934
 30
0.0
  0
VERTEX
  5
136BC
  8
0
 10
220.5007855336691875
 20
111.2235246305875052
 30
0.0
  0
VERTEX
  5
136BD
  8
0
 10
220.491052251158294
 20
111.1934047387017017
 30
0.0
  0
VERTEX
  5
136BE
  8
0
 10
220.4856480988960072
 20
111.1785298978615941
 30
0.0
  0
VERTEX
  5
136BF
  8
0
 10
220.4798585613835087
 20
111.1637877738875062
 30
0.0
  0
VERTEX
  5
136C0
  8
0
 10
220.4736636347705883
 20
111.1491854377243982
 30
0.0
  0
VERTEX
  5
136C1
  8
0
 10
220.4670620831977885
 20
111.1347357230463047
 30
0.0
  0
VERTEX
  5
136C2
  8
0
 10
220.4600829689734951
 20
111.1204607666086019
 30
0.0
  0
VERTEX
  5
136C3
  8
0
 10
220.4527581071587861
 20
111.1063835504021995
 30
0.0
  0
VERTEX
  5
136C4
  8
0
 10
220.4371984010033998
 20
111.0789142666466063
 30
0.0
  0
VERTEX
  5
136C5
  8
0
 10
220.4206374852221018
 20
111.0525117277060048
 30
0.0
  0
VERTEX
  5
136C6
  8
0
 10
220.4033298803051082
 20
111.0273597895072015
 30
0.0
  0
VERTEX
  5
136C7
  8
0
 10
220.3944756070740993
 20
111.0153102506630063
 30
0.0
  0
VERTEX
  5
136C8
  8
0
 10
220.3900122718546868
 20
111.0094271434257962
 30
0.0
  0
VERTEX
  5
136C9
  8
0
 10
220.3877732944802119
 20
111.0065222621808942
 30
0.0
  0
VERTEX
  5
136CA
  8
0
 10
220.386663922438089
 20
111.0050941234187007
 30
0.0
  0
VERTEX
  5
136CB
  8
0
 10
220.3862286730027051
 20
111.0045354230893935
 30
0.0
  0
VERTEX
  5
136CC
  8
0
 10
220.3860514626821043
 20
111.0043081592850029
 30
0.0
  0
SEQEND
  5
136CD
  8
0
  0
POLYLINE
  5
13420
  8
0
 66
     1
 10
0.0
 20
0.0
 30
0.0
  0
VERTEX
  5
136CE
  8
0
 10
208.6220667647664868
 20
110.9828815060711946
 30
0.0
  0
VERTEX
  5
136CF
  8
0
 10
208.964232145831005
 20
110.4893185794544053
 30
0.0
  0
VERTEX
  5
136D0
  8
0
 10
209.4047445507463863
 20
109.9705509573067985
 30
0.0
  0
VERTEX
  5
136D1
  8
0
 10
209.8323977388506023
 20
109.5795500629479022
 30
0.0
  0
VERTEX
  5
136D2
  8
0
 10
210.2461236555197956
 20
109.3094292294916983
 30
0.0
  0
VERTEX
  5
136D3
  8
0
 10
210.6401630465680057
 20
109.1559555130905039
 30
0.0
  0
VERTEX
  5
136D4
  8
0
 10
210.9836611926866965
 20
109.1117004929902947
 30
0.0
  0
SEQEND
  5
136D5
  8
0
  0
POLYLINE
  5
13421
  8
0
 66
     1
 10
0.0
 20
0.0
 30
0.0
  0
VERTEX
  5
136D6
  8
0
 10
208.6220667647664868
 20
110.9828815060711946
 30
0.0
  0
VERTEX
  5
136D7
  8
0
 10
208.5154120672046929
 20
111.1538308266663932
 30
0.0
  0
VERTEX
  5
136D8
  8
0
 10
208.4715675488388911
 20
111.2993537312244001
 30
0.0
  0
VERTEX
  5
136D9
  8
0
 10
208.4455492291102132
 20
111.4758834459643992
 30
0.0
  0
SEQEND
  5
136DA
  8
0
  0
POLYLINE
  5
13422
  8
0
 66
     1
 10
0.0
 20
0.0
 30
0.0
  0
VERTEX
  5
136DB
  8
0
 10
212.9899640759213924
 20
109.1117004929902947
 30
0.0
  0
VERTEX
  5
136DC
  8
0
 10
212.8875592375705139
 20
109.123250438264904
 30
0.0
  0
VERTEX
  5
136DD
  8
0
 10
212.7742867702172873
 20
109.1602121191756964
 30
0.0
  0
VERTEX
  5
136DE
  8
0
 10
212.6533018541441038
 20
109.2206509002916022
 30
0.0
  0
VERTEX
  5
136DF
  8
0
 10
212.5248022140009994
 20
109.3051465287594937
 30
0.0
  0
VERTEX
  5
136E0
  8
0
 10
212.3893072189605959
 20
109.4131392503847024
 30
0.0
  0
VERTEX
  5
136E1
  8
0
 10
212.2474441397606029
 20
109.5442504891118034
 30
0.0
  0
VERTEX
  5
136E2
  8
0
 10
212.1000761372336001
 20
109.6982546309241968
 30
0.0
  0
VERTEX
  5
136E3
  8
0
 10
211.9479331506589119
 20
109.8748401542918032
 30
0.0
  0
VERTEX
  5
136E4
  8
0
 10
211.7917502433791981
 20
110.0720433743512956
 30
0.0
  0
VERTEX
  5
136E5
  8
0
 10
211.631255116554712
 20
110.2951258856464989
 30
0.0
  0
SEQEND
  5
136E6
  8
0
  0
POLYLINE
  5
13423
  8
0
 66
     1
 10
0.0
 20
0.0
 30
0.0
  0
VERTEX
  5
136E7
  8
0
 10
212.9899640759213924
 20
109.1117004929902947
 30
0.0
  0
VERTEX
  5
136E8
  8
0
 10
213.203549839355702
 20
109.1529147060036991
 30
0.0
  0
VERTEX
  5
136E9
  8
0
 10
213.386555975189907
 20
109.276276276386298
 30
0.0
  0
VERTEX
  5
136EA
  8
0
 10
213.5234152724578109
 20
109.4779546161772998
 30
0.0
  0
VERTEX
  5
136EB
  8
0
 10
213.6457163296520889
 20
109.7009591718290977
 30
0.0
  0
VERTEX
  5
136EC
  8
0
 10
213.7679543842619978
 20
109.9240560088322951
 30
0.0
  0
VERTEX
  5
136ED
  8
0
 10
213.8907573821471999
 20
110.1481839245628009
 30
0.0
  0
SEQEND
  5
136EE
  8
0
  0
POLYLINE
  5
13424
  8
0
 66
     1
 10
0.0
 20
0.0
 30
0.0
  0
VERTEX
  5
136EF
  8
0
 10
208.4455492292485985
 20
112.0423251792495023
 30
0.0
  0
VERTEX
  5
136F0
  8
0
 10
208.4623087124616063
 20
111.9173240107515994
 30
0.0
  0
VERTEX
  5
136F1
  8
0
 10
208.4839085444278908
 20
111.8177763033662018
 30
0.0
  0
VERTEX
  5
136F2
  8
0
 10
208.5143702022290029
 20
111.7215433205332999
 30
0.0
  0
VERTEX
  5
136F3
  8
0
 10
208.5936508464419035
 20
111.5422744716649959
 30
0.0
  0
VERTEX
  5
136F4
  8
0
 10
208.6939028052181015
 20
111.3840568597219942
 30
0.0
  0
VERTEX
  5
136F5
  8
0
 10
208.8082100234634879
 20
111.247993337420894
 30
0.0
  0
VERTEX
  5
136F6
  8
0
 10
208.9307552666552965
 20
111.1322878187110064
 30
0.0
  0
VERTEX
  5
136F7
  8
0
 10
209.0584639644692118
 20
111.0336115823287031
 30
0.0
  0
VERTEX
  5
136F8
  8
0
 10
209.1901037002770067
 20
110.9482311641085062
 30
0.0
  0
VERTEX
  5
136F9
  8
0
 10
209.466501028613493
 20
110.8055483362403066
 30
0.0
  0
VERTEX
  5
136FA
  8
0
 10
209.7657018853751083
 20
110.6871594320090963
 30
0.0
  0
VERTEX
  5
136FB
  8
0
 10
210.0934155087697945
 20
110.5845523041701028
 30
0.0
  0
VERTEX
  5
136FC
  8
0
 10
210.4526076665729875
 20
110.4939669473276069
 30
0.0
  0
VERTEX
  5
136FD
  8
0
 10
210.8438123040438086
 20
110.4138775230551062
 30
0.0
  0
VERTEX
  5
136FE
  8
0
 10
211.2657579454593986
 20
110.3438272597213938
 30
0.0
  0
VERTEX
  5
136FF
  8
0
 10
211.7158748529203933
 20
110.2838505659975965
 30
0.0
  0
VERTEX
  5
13700
  8
0
 10
212.1906519595337102
 20
110.234190196718103
 30
0.0
  0
VERTEX
  5
13701
  8
0
 10
212.6858778267074115
 20
110.195157347361004
 30
0.0
  0
VERTEX
  5
13702
  8
0
 10
213.1968601360439948
 20
110.1670384086133936
 30
0.0
  0
VERTEX
  5
13703
  8
0
 10
213.7184553253331103
 20
110.1500240498804004
 30
0.0
  0
VERTEX
  5
13704
  8
0
 10
214.2455492291101109
 20
110.1443948725216018
 30
0.0
  0
SEQEND
  5
13705
  8
0
  0
POLYLINE
  5
13425
  8
0
 66
     1
 10
0.0
 20
0.0
 30
0.0
  0
VERTEX
  5
13706
  8
0
 10
214.7455492291101109
 20
110.1443948725216018
 30
0.0
  0
VERTEX
  5
13707
  8
0
 10
215.2727399370145065
 20
110.1500588976332011
 30
0.0
  0
VERTEX
  5
13708
  8
0
 10
215.7943907034972142
 20
110.167044019456597
 30
0.0
  0
VERTEX
  5
13709
  8
0
 10
216.3053793363563102
 20
110.1951679389097052
 30
0.0
  0
VERTEX
  5
1370A
  8
0
 10
216.8006280950461928
 20
110.2342070919111023
 30
0.0
  0
VERTEX
  5
1370B
  8
0
 10
217.2754191647744904
 20
110.2838735523057068
 30
0.0
  0
VERTEX
  5
1370C
  8
0
 10
217.5038047918692996
 20
110.3125941186551984
 30
0.0
  0
VERTEX
  5
1370D
  8
0
 10
217.7255473521915121
 20
110.3438580415524939
 30
0.0
  0
VERTEX
  5
1370E
  8
0
 10
217.9402329565835998
 20
110.3776377565095004
 30
0.0
  0
VERTEX
  5
1370F
  8
0
 10
218.1475018677867865
 20
110.41391726194
 30
0.0
  0
VERTEX
  5
13710
  8
0
 10
218.3470642837083062
 20
110.4526993757972946
 30
0.0
  0
VERTEX
  5
13711
  8
0
 10
218.5387135240922021
 20
110.4940176638217935
 30
0.0
  0
VERTEX
  5
13712
  8
0
 10
218.7223292151068108
 20
110.5379443916386037
 30
0.0
  0
VERTEX
  5
13713
  8
0
 10
218.8979102449497987
 20
110.5846168337658071
 30
0.0
  0
VERTEX
  5
13714
  8
0
 10
219.0655861483959086
 20
110.6342654470329023
 30
0.0
  0
VERTEX
  5
13715
  8
0
 10
219.2256291591430966
 20
110.687239938401305
 30
0.0
  0
VERTEX
  5
13716
  8
0
 10
219.3785043513578898
 20
110.744102825725605
 30
0.0
  0
VERTEX
  5
13717
  8
0
 10
219.5248406334158062
 20
110.8056768300031933
 30
0.0
  0
VERTEX
  5
13718
  8
0
 10
219.6654543830377122
 20
110.8731724303568029
 30
0.0
  0
VERTEX
  5
13719
  8
0
 10
219.8012116304556116
 20
110.9484016905731067
 30
0.0
  0
VERTEX
  5
1371A
  8
0
 10
219.9328845603729974
 20
111.0337616412398063
 30
0.0
  0
VERTEX
  5
1371B
  8
0
 10
220.0605756701866085
 20
111.1325026337981967
 30
0.0
  0
VERTEX
  5
1371C
  8
0
 10
220.1831361782774934
 20
111.2482293049675945
 30
0.0
  0
VERTEX
  5
1371D
  8
0
 10
220.2973407729899122
 20
111.3843574507832983
 30
0.0
  0
VERTEX
  5
1371E
  8
0
 10
220.3497709598464951
 20
111.4607246211904936
 30
0.0
  0
VERTEX
  5
1371F
  8
0
 10
220.3978673506094879
 20
111.5426579077225
 30
0.0
  0
VERTEX
  5
13720
  8
0
 10
220.4403233959997976
 20
111.6298756801894996
 30
0.0
  0
VERTEX
  5
13721
  8
0
 10
220.4763340234453892
 20
111.7219621090491017
 30
0.0
  0
VERTEX
  5
13722
  8
0
 10
220.5062699678599074
 20
111.8182247661085995
 30
0.0
  0
VERTEX
  5
13723
  8
0
 10
220.5297603085462868
 20
111.9178534645466954
 30
0.0
  0
VERTEX
  5
13724
  8
0
 10
220.5423952141931068
 20
112.0196825907643046
 30
0.0
  0
VERTEX
  5
13725
  8
0
 10
220.5455492289717938
 20
112.0423251792495023
 30
0.0
  0
SEQEND
  5
13726
  8
0
  0
POLYLINE
  5
13426
  8
0
 66
     1
 10
0.0
 20
0.0
 30
0.0
  0
VERTEX
  5
13727
  8
0
 10
215.0991948973122874
 20
110.148194366547699
 30
0.0
  0
VERTEX
  5
13728
  8
0
 10
215.2222840541238895
 20
109.9242874069030051
 30
0.0
  0
VERTEX
  5
13729
  8
0
 10
215.3448353548581053
 20
109.7013588414739047
 30
0.0
  0
VERTEX
  5
1372A
  8
0
 10
215.4674468825924976
 20
109.4785190543176014
 30
0.0
  0
VERTEX
  5
1372B
  8
0
 10
215.604422428029892
 20
109.276854887292302
 30
0.0
  0
VERTEX
  5
1372C
  8
0
 10
215.7873068382185977
 20
109.1532589524270946
 30
0.0
  0
VERTEX
  5
1372D
  8
0
 10
216.0015213066415924
 20
109.1117004929902947
 30
0.0
  0
SEQEND
  5
1372E
  8
0
  0
POLYLINE
  5
13427
  8
0
 66
     1
 10
0.0
 20
0.0
 30
0.0
  0
VERTEX
  5
1372F
  8
0
 10
217.3586274046091944
 20
110.2943373796638014
 30
0.0
  0
VERTEX
  5
13730
  8
0
 10
217.181055028343593
 20
110.0480150935100028
 30
0.0
  0
VERTEX
  5
13731
  8
0
 10
217.0081056017926926
 20
109.8326636040050062
 30
0.0
  0
VERTEX
  5
13732
  8
0
 10
216.8403300709981067
 20
109.6432907369834027
 30
0.0
  0
VERTEX
  5
13733
  8
0
 10
216.678761798474909
 20
109.482126099415197
 30
0.0
  0
VERTEX
  5
13734
  8
0
 10
216.5244681936472944
 20
109.3493087833733028
 30
0.0
  0
VERTEX
  5
13735
  8
0
 10
216.3786234853407962
 20
109.2456286294256955
 30
0.0
  0
VERTEX
  5
13736
  8
0
 10
216.2413370277990907
 20
109.1700530224830032
 30
0.0
  0
VERTEX
  5
13737
  8
0
 10
216.1148372117978056
 20
109.1272131610426044
 30
0.0
  0
VERTEX
  5
13738
  8
0
 10
216.0015213066415924
 20
109.1117004929902947
 30
0.0
  0
SEQEND
  5
13739
  8
0
  0
POLYLINE
  5
13434
  8
0
 66
     1
 10
0.0
 20
0.0
 30
0.0
  0
VERTEX
  5
1373A
  8
0
 10
210.5413516113758021
 20
115.1619876765145989
 30
0.0
  0
VERTEX
  5
1373B
  8
0
 10
211.2492347775591952
 20
115.250494580508601
 30
0.0
  0
VERTEX
  5
1373C
  8
0
 10
211.8356852382256932
 20
115.3898612039726004
 30
0.0
  0
VERTEX
  5
1373D
  8
0
 10
212.2963175160739979
 20
115.5824454922592963
 30
0.0
  0
VERTEX
  5
1373E
  8
0
 10
212.6284387162450003
 20
115.8296024381758969
 30
0.0
  0
VERTEX
  5
1373F
  8
0
 10
212.8288164927461992
 20
116.1318130453852007
 30
0.0
  0
VERTEX
  5
13740
  8
0
 10
212.8955492291102018
 20
116.4886695194227002
 30
0.0
  0
SEQEND
  5
13741
  8
0
  0
POLYLINE
  5
13435
  8
0
 66
     1
 10
0.0
 20
0.0
 30
0.0
  0
VERTEX
  5
13742
  8
0
 10
216.0955492291101905
 20
116.4886695194227002
 30
0.0
  0
VERTEX
  5
13743
  8
0
 10
216.1622832949873896
 20
116.1318130117311966
 30
0.0
  0
VERTEX
  5
13744
  8
0
 10
216.3626626186679971
 20
115.8296024764163974
 30
0.0
  0
VERTEX
  5
13745
  8
0
 10
216.6947809690736051
 20
115.5824454615946024
 30
0.0
  0
VERTEX
  5
13746
  8
0
 10
217.1554105117475046
 20
115.3898611170304065
 30
0.0
  0
VERTEX
  5
13747
  8
0
 10
217.7418624786357952
 20
115.2504945938928955
 30
0.0
  0
VERTEX
  5
13748
  8
0
 10
218.4497468468447039
 20
115.1619876765144994
 30
0.0
  0
SEQEND
  5
13749
  8
0
  0
ARC
  5
13438
  8
0
 10
216.1060882897629085
 20
116.3003346818333057
 30
0.0
 40
1.5895302253866721
 50
0.5349678472195663
 51
90.3799191922045253
  0
ARC
  5
13439
  8
0
 10
212.881143432011811
 20
116.3042636525545959
 30
0.0
 40
1.5856317516725491
 50
89.479448828318823
 51
179.6056923671540062
  0
ARC
  5
1343C
  8
0
 10
209.137326185394187
 20
114.3595490406729027
 30
0.0
 40
0.6955204464870139
 50
105.8045996339002954
 51
174.0527519069842128
  0
ARC
  5
1343D
  8
0
 10
219.8706005405979909
 20
114.3737033261870977
 30
0.0
 40
0.6774284897356622
 50
4.9039605828218988
 51
75.2388639577512635
  0
LINE
  5
13448
  8
0
 10
146.6047104858469936
 20
156.368824513523208
 30
0.0
 11
144.2047104858469879
 21
156.368824513523208
 31
0.0
  0
ARC
  5
13449
  8
0
 10
146.6047104858469936
 20
158.5188245135232137
 30
0.0
 40
2.1500000000000048
 50
270.0000000000007958
 51
90.0
  0
LINE
  5
1344A
  8
0
 10
144.2047104858469879
 20
160.6688245135231909
 30
0.0
 11
146.6047104858469936
 21
160.6688245135231909
 31
0.0
  0
ARC
  5
1344B
  8
0
 10
144.2047104858469879
 20
158.5188245135232137
 30
0.0
 40
2.1500000000000048
 50
90.0
 51
270.0000000000007958
  0
LINE
  5
1344C
  8
0
 10
146.6047104858469936
 20
172.068824450233393
 30
0.0
 11
144.2047104858469879
 21
172.068824450233393
 31
0.0
  0
ARC
  5
1344D
  8
0
 10
146.6047104858469936
 20
174.2188244502333987
 30
0.0
 40
2.1500000000000048
 50
270.0000000000007958
 51
90.0
  0
LINE
  5
1344E
  8
0
 10
144.2047104858469879
 20
176.3688244502334044
 30
0.0
 11
146.6047104858469936
 21
176.3688244502334044
 31
0.0
  0
ARC
  5
1344F
  8
0
 10
144.2047104858469879
 20
174.2188244502333987
 30
0.0
 40
2.1500000000000048
 50
90.0
 51
270.0000000000007958
  0
LINE
  5
13450
  8
0
 10
133.004710485847113
 20
172.068824450233393
 30
0.0
 11
130.6047104858471073
 21
172.068824450233393
 31
0.0
  0
ARC
  5
13451
  8
0
 10
133.004710485847113
 20
174.2188244502333987
 30
0.0
 40
2.1500000000000048
 50
270.0000000000007958
 51
90.0
  0
LINE
  5
13452
  8
0
 10
130.6047104858471073
 20
176.3688244502332907
 30
0.0
 11
133.004710485847113
 21
176.3688244502332907
 31
0.0
  0
ARC
  5
13453
  8
0
 10
130.6047104858471073
 20
174.2188244502333987
 30
0.0
 40
2.1500000000000048
 50
90.0
 51
270.0000000000007958
  0
ARC
  5
13454
  8
0
 10
130.3109604868861879
 20
170.0688245135227987
 30
0.0
 40
0.5
 50
89.9999999999995453
 51
180.0
  0
ARC
  5
13455
  8
0
 10
134.3109604868861879
 20
170.0688245135227987
 30
0.0
 40
0.5
 50
0.0
 51
89.9999999999995453
  0
LINE
  5
13456
  8
0
 10
134.8109604868861879
 20
170.0688245135227987
 30
0.0
 11
134.8109604868861879
 21
169.5688245135227987
 31
0.0
  0
LINE
  5
13457
  8
0
 10
129.8109604868861879
 20
169.5688245135227987
 30
0.0
 11
129.8109604868861879
 21
170.0688245135227135
 31
0.0
  0
ARC
  5
13458
  8
0
 10
137.2273006044171098
 20
170.0688245135231114
 30
0.0
 40
0.5000000000000285
 50
89.9999999999995453
 51
180.0000000000032117
  0
ARC
  5
13459
  8
0
 10
141.2273006044171098
 20
170.0688245135231966
 30
0.0
 40
0.5
 50
359.9999999999968168
 51
89.9999999999995453
  0
LINE
  5
1345A
  8
0
 10
141.7273006044171098
 20
170.0688245135231114
 30
0.0
 11
141.7273006044171098
 21
169.5688245135231114
 31
0.0
  0
LINE
  5
1345B
  8
0
 10
136.7273006044171098
 20
169.5688245135231114
 30
0.0
 11
136.7273006044171098
 21
170.0688245135231114
 31
0.0
  0
ARC
  5
1345C
  8
0
 10
142.9984604879977894
 20
170.0688245135231114
 30
0.0
 40
0.5
 50
89.9999999999995453
 51
180.0
  0
ARC
  5
1345D
  8
0
 10
146.9984604879979031
 20
170.0688245135231114
 30
0.0
 40
0.5
 50
0.0
 51
89.9999999999995453
  0
ARC
  5
1345E
  8
0
 10
130.2109604868863926
 20
170.0688245135229977
 30
0.0
 40
0.5
 50
89.9999999999995453
 51
180.0
  0
LINE
  5
1345F
  8
0
 10
147.4984604879979031
 20
170.0688245135231114
 30
0.0
 11
147.4984604879979031
 21
169.5688245135231114
 31
0.0
  0
LINE
  5
13460
  8
0
 10
142.4984604879979031
 20
169.5688245135231114
 30
0.0
 11
142.4984604879979031
 21
170.0688245135231114
 31
0.0
  0
LINE
  5
13461
  8
0
 10
129.7109604868863073
 20
169.5688245135229977
 30
0.0
 11
129.7109604868863073
 21
170.0688245135229977
 31
0.0
  0
LINE
  5
13462
  8
0
 10
130.2109604868863926
 20
170.5688245135231114
 30
0.0
 11
134.3109604868861879
 21
170.5688245135231114
 31
0.0
  0
LINE
  5
13463
  8
0
 10
137.2273006044171098
 20
170.5688245135231966
 30
0.0
 11
141.2273006044171098
 21
170.5688245135231966
 31
0.0
  0
LINE
  5
13464
  8
0
 10
142.9984604879977894
 20
170.5688245135231966
 30
0.0
 11
146.9984604879979031
 21
170.5688245135231966
 31
0.0
  0
ARC
  5
135AF
  8
0
 10
138.6065637983203942
 20
168.2912383526347924
 30
0.0
 40
2.5152552193755189
 50
352.6353706291064896
 51
30.5263787900004004
  0
ARC
  5
135B0
  8
0
 10
138.6065637983203942
 20
164.4464113018347859
 30
0.0
 40
2.5152552193755189
 50
329.4736212100037847
 51
7.3646293708934598
  0
ARC
  5
135B2
  8
0
 10
161.5384223064662024
 20
162.2710817313231928
 30
0.0
 40
1.9538004049369
 50
272.2773795643662993
 51
312.089598844208183
  0
ENDSEC
  0
EOF
