  0
SECTION
  2
HEADER
  9
$ACADVER
  1
AC1009
  9
$INSBASE
 10
0.0
 20
0.0
 30
0.0
  9
$EXTMIN
 10
0.0
 20
-2.960436562073669
 30
0.0
  9
$EXTMAX
 10
329.50297026688293
 20
245.11531641940019
 30
0.0
  9
$LIMMIN
 10
0.0
 20
0.0
  9
$LIMMAX
 10
420.0
 20
297.0
  9
$ORTHOMODE
 70
     1
  9
$REGENMODE
 70
     1
  9
$FILLMODE
 70
     1
  9
$QTEXTMODE
 70
     0
  9
$MIRRTEXT
 70
     0
  9
$DRAGMODE
 70
     2
  9
$LTSCALE
 40
10.0
  9
$OSMODE
 70
    37
  9
$ATTMODE
 70
     1
  9
$TEXTSIZE
 40
2.5
  9
$TRACEWID
 40
1.0
  9
$TEXTSTYLE
  7
STANDARD
  9
$CLAYER
  8
0
  9
$CELTYPE
  6
BYLAYER
  9
$CECOLOR
 62
   256
  9
$DIMSCALE
 40
1.0
  9
$DIMASZ
 40
2.5
  9
$DIMEXO
 40
0.625
  9
$DIMDLI
 40
3.75
  9
$DIMRND
 40
0.0
  9
$DIMDLE
 40
0.0
  9
$DIMEXE
 40
1.25
  9
$DIMTP
 40
0.0
  9
$DIMTM
 40
0.0
  9
$DIMTXT
 40
2.5
  9
$DIMCEN
 40
2.5
  9
$DIMTSZ
 40
0.0
  9
$DIMTOL
 70
     0
  9
$DIMLIM
 70
     0
  9
$DIMTIH
 70
     0
  9
$DIMTOH
 70
     0
  9
$DIMSE1
 70
     0
  9
$DIMSE2
 70
     0
  9
$DIMTAD
 70
     1
  9
$DIMZIN
 70
     8
  9
$DIMBLK
  1

  9
$DIMASO
 70
     1
  9
$DIMSHO
 70
     1
  9
$DIMPOST
  1

  9
$DIMAPOST
  1

  9
$DIMALT
 70
     0
  9
$DIMALTD
 70
     3
  9
$DIMALTF
 40
0.03937007874016
  9
$DIMLFAC
 40
1.0
  9
$DIMTOFL
 70
     1
  9
$DIMTVP
 40
0.0
  9
$DIMTIX
 70
     0
  9
$DIMSOXD
 70
     0
  9
$DIMSAH
 70
     0
  9
$DIMBLK1
  1

  9
$DIMBLK2
  1

  9
$DIMSTYLE
  2
ISO-25
  9
$DIMCLRD
 70
     0
  9
$DIMCLRE
 70
     0
  9
$DIMCLRT
 70
     0
  9
$DIMTFAC
 40
1.0
  9
$DIMGAP
 40
0.625
  9
$LUNITS
 70
     2
  9
$LUPREC
 70
     2
  9
$SKETCHINC
 40
1.0
  9
$FILLETRAD
 40
0.0
  9
$AUNITS
 70
     0
  9
$AUPREC
 70
     2
  9
$MENU
  1
.
  9
$ELEVATION
 40
0.0
  9
$PELEVATION
 40
0.0
  9
$THICKNESS
 40
0.0
  9
$LIMCHECK
 70
     0
  9
$BLIPMODE
 70
     0
  9
$CHAMFERA
 40
0.0
  9
$CHAMFERB
 40
0.0
  9
$SKPOLY
 70
     0
  9
$TDCREATE
 40
2454083.4444627082
  9
$TDUPDATE
 40
2459306.4070935068
  9
$TDINDWG
 40
3.0741861689999999
  9
$TDUSRTIMER
 40
3.0741861689999999
  9
$USRTIMER
 70
     1
  9
$ANGBASE
 50
0.0
  9
$ANGDIR
 70
     0
  9
$PDMODE
 70
     0
  9
$PDSIZE
 40
0.0
  9
$PLINEWID
 40
0.0
  9
$COORDS
 70
     1
  9
$SPLFRAME
 70
     0
  9
$SPLINETYPE
 70
     6
  9
$SPLINESEGS
 70
     8
  9
$ATTDIA
 70
     0
  9
$ATTREQ
 70
     1
  9
$HANDLING
 70
     1
  9
$HANDSEED
  5
1DD59
  9
$SURFTAB1
 70
     6
  9
$SURFTAB2
 70
     6
  9
$SURFTYPE
 70
     6
  9
$SURFU
 70
     6
  9
$SURFV
 70
     6
  9
$UCSNAME
  2

  9
$UCSORG
 10
0.0
 20
0.0
 30
0.0
  9
$UCSXDIR
 10
1.0
 20
0.0
 30
0.0
  9
$UCSYDIR
 10
0.0
 20
1.0
 30
0.0
  9
$PUCSNAME
  2

  9
$PUCSORG
 10
0.0
 20
0.0
 30
0.0
  9
$PUCSXDIR
 10
1.0
 20
0.0
 30
0.0
  9
$PUCSYDIR
 10
0.0
 20
1.0
 30
0.0
  9
$USERI1
 70
     0
  9
$USERI2
 70
     0
  9
$USERI3
 70
     0
  9
$USERI4
 70
     0
  9
$USERI5
 70
     0
  9
$USERR1
 40
0.0
  9
$USERR2
 40
0.0
  9
$USERR3
 40
0.0
  9
$USERR4
 40
0.0
  9
$USERR5
 40
0.0
  9
$WORLDVIEW
 70
     1
  9
$SHADEDGE
 70
     3
  9
$SHADEDIF
 70
    70
  9
$TILEMODE
 70
     1
  9
$MAXACTVP
 70
    64
  9
$PLIMCHECK
 70
     0
  9
$PEXTMIN
 10
0.0
 20
0.0
 30
0.0
  9
$PEXTMAX
 10
0.0
 20
0.0
 30
0.0
  9
$PLIMMIN
 10
0.0
 20
0.0
  9
$PLIMMAX
 10
12.0
 20
9.0
  9
$UNITMODE
 70
     0
  9
$VISRETAIN
 70
     1
  9
$PLINEGEN
 70
     0
  9
$PSLTSCALE
 70
     1
  0
ENDSEC
  0
SECTION
  2
TABLES
  0
TABLE
  2
VPORT
 70
     1
  0
VPORT
  2
*ACTIVE
 70
     0
 10
0.0
 20
0.0
 11
1.0
 21
1.0
 12
291.27973216974112
 22
121.0774399286633
 13
0.0
 23
0.0
 14
10.0
 24
10.0
 15
10.0
 25
10.0
 16
0.0
 26
0.0
 36
1.0
 17
0.0
 27
0.0
 37
0.0
 40
250.22981161807141
 41
2.415644171779141
 42
50.0
 43
0.0
 44
0.0
 50
0.0
 51
0.0
 71
     0
 72
  1000
 73
     1
 74
     3
 75
     0
 76
     0
 77
     0
 78
     0
  0
ENDTAB
  0
TABLE
  2
LTYPE
 70
     2
  0
LTYPE
  2
CONTINUOUS
 70
     0
  3
Solid line
 72
    65
 73
     0
 40
0.0
  0
LTYPE
  2
CENTER
 70
     0
  3
____ _ ____ _ ____ _ ____ _ ____ _ ____ _ ____
 72
    65
 73
     4
 40
2.0
 49
1.25
 49
-0.25
 49
0.25
 49
-0.25
  0
ENDTAB
  0
TABLE
  2
LAYER
 70
     4
  0
LAYER
  2
0
 70
     0
 62
     7
  6
CONTINUOUS
  0
LAYER
  2
DEFPOINTS
 70
     0
 62
     7
  6
CONTINUOUS
  0
LAYER
  2
1
 70
     0
 62
     1
  6
CENTER
  0
LAYER
  2
3
 70
     0
 62
     3
  6
CONTINUOUS
  0
ENDTAB
  0
TABLE
  2
STYLE
 70
     2
  0
STYLE
  2
STANDARD
 70
     0
 40
0.0
 41
1.0
 50
0.0
 71
     0
 42
2.5
  3
txt
  4

  0
STYLE
  2
STANDARD1
 70
     0
 40
0.0
 41
1.0
 50
0.0
 71
     0
 42
3.0
  3
txt
  4

  0
ENDTAB
  0
TABLE
  2
VIEW
 70
     4
  0
VIEW
  2
OLE1
 70
     0
 40
17.336203194614189
 10
1078.262703908531
 20
377.67444865954309
 41
31.074911629702001
 11
0.0
 21
0.0
 31
1.0
 12
0.0
 22
0.0
 32
0.0
 42
50.0
 43
0.0
 44
0.0
 50
0.0
 71
     0
  0
VIEW
  2
OLE2
 70
     0
 40
50.523198253338478
 10
1031.767738941523
 20
579.92835671582054
 41
90.562155008667546
 11
0.0
 21
0.0
 31
1.0
 12
0.0
 22
0.0
 32
0.0
 42
50.0
 43
0.0
 44
0.0
 50
0.0
 71
     0
  0
VIEW
  2
OLE3
 70
     0
 40
95.502301876216066
 10
202.0430959360805
 20
425.55992261598641
 41
146.70534324358491
 11
0.0
 21
0.0
 31
1.0
 12
0.0
 22
0.0
 32
0.0
 42
50.0
 43
0.0
 44
0.0
 50
0.0
 71
     0
  0
VIEW
  2
OLE4
 70
     0
 40
1.514979042141817
 10
182.21676900169319
 20
680.91984443132458
 41
1.8928111647000769
 11
0.0
 21
0.0
 31
1.0
 12
0.0
 22
0.0
 32
0.0
 42
50.0
 43
0.0
 44
0.0
 50
0.0
 71
     0
  0
ENDTAB
  0
TABLE
  2
UCS
 70
     0
  0
ENDTAB
  0
TABLE
  2
APPID
 70
    42
  0
APPID
  2
ACAD
 70
     0
  0
APPID
  2
_FTCNV
 70
     0
  0
APPID
  2
DCO15
 70
     0
  0
APPID
  2
GENIUS_GENOREF_13
 70
     0
  0
APPID
  2
GENIUS_GENOENT_13
 70
     0
  0
APPID
  2
GENIUS_GENBH_13
 70
     0
  0
APPID
  2
GENIUS_GENOBJ_13
 70
     0
  0
APPID
  2
GENIUS_GENODEF_13
 70
     0
  0
APPID
  2
GENIUS_GENOLIS_13
 70
     0
  0
APPID
  2
GENIUS_GENOBJ-NBEHI-BHF_13
 70
     0
  0
APPID
  2
GENIUS_GENOBJ-NBEHI-BHB_13
 70
     0
  0
APPID
  2
GENIUS_GENOBJ-F-PART_13
 70
     0
  0
APPID
  2
GENIUS_GEFSTDP_13
 70
     0
  0
APPID
  2
GENIUS_GENOBJ-N-RSSYM_13
 70
     0
  0
APPID
  2
GENIUS_GENSYMENT_13
 70
     0
  0
APPID
  2
GENIUS_GENOBJ-N-TIT_13
 70
     0
  0
APPID
  2
GENIUS_GENTITLE_13
 70
     0
  0
APPID
  2
GENIUS_GENZVEED_13
 70
     0
  0
APPID
  2
GENIUS_GENOBJ-N-LEADER_13
 70
     0
  0
APPID
  2
GENIUS_GENOBJ-N-FIL_13
 70
     0
  0
APPID
  2
GENIUS_GENOBJ-N-SEC_13
 70
     0
  0
APPID
  2
GENIUS_GENOBJ-N-CRS_13
 70
     0
  0
APPID
  2
GENIUS_GENOBJ-N-ZOO_13
 70
     0
  0
APPID
  2
GENIUS_GENZOO_13
 70
     0
  0
APPID
  2
GENIUS_GENOBJ-F-TOL_13
 70
     0
  0
APPID
  2
GENIUS_GENFIL_13
 70
     0
  0
APPID
  2
GENIUS_GENOBJ-N-CHA_13
 70
     0
  0
APPID
  2
_CALL_MAC$
 70
     0
  0
APPID
  2
ASM_BASE
 70
     0
  0
APPID
  2
ASM_EXPLO_VER_2_00
 70
     0
  0
APPID
  2
ASM_CADM_VER_12_00
 70
     0
  0
APPID
  2
ASM_BASEFORO
 70
     0
  0
APPID
  2
ASM_BASETRAVI
 70
     0
  0
APPID
  2
ASM_BASETRAVI1
 70
     0
  0
APPID
  2
ASM_GRUPPI
 70
     0
  0
APPID
  2
ASM_CADM_ALBERO
 70
     0
  0
APPID
  2
ASM_GOLE
 70
     0
  0
APPID
  2
ACAD_MLEADERVER
 70
     0
  0
APPID
  2
ACAD_EXEMPT_FROM_CAD_STANDARDS
 70
     0
  0
APPID
  2
ACAD_DSTYLE_DIMJAG
 70
     0
  0
APPID
  2
ACAD_DSTYLE_DIMTALN
 70
     0
  0
APPID
  2
ACAD_NAV_VCDISPLAY
 70
     0
  0
ENDTAB
  0
TABLE
  2
DIMSTYLE
 70
     2
  0
DIMSTYLE
  2
ISO-25
 70
     0
  3

  4

  5

  6

  7

 40
1.0
 41
2.5
 42
0.625
 43
3.75
 44
1.25
 45
0.0
 46
0.0
 47
0.0
 48
0.0
140
2.5
141
2.5
142
0.0
143
0.03937007874016
144
1.0
145
0.0
146
1.0
147
0.625
 71
     0
 72
     0
 73
     0
 74
     0
 75
     0
 76
     0
 77
     1
 78
     8
170
     0
171
     3
172
     1
173
     0
174
     0
175
     0
176
     0
177
     0
178
     0
  0
DIMSTYLE
  2
STANDARD
 70
     0
  3

  4

  5

  6

  7

 40
1.0
 41
0.18
 42
0.0625
 43
0.38
 44
0.18
 45
0.0
 46
0.0
 47
0.0
 48
0.0
140
0.18
141
0.09
142
0.0
143
25.399999999999999
144
1.0
145
0.0
146
1.0
147
0.09
 71
     0
 72
     0
 73
     1
 74
     1
 75
     0
 76
     0
 77
     0
 78
     0
170
     0
171
     2
172
     0
173
     0
174
     0
175
     0
176
     0
177
     0
178
     0
  0
ENDTAB
  0
ENDSEC
  0
SECTION
  2
BLOCKS
  0
BLOCK
  8
0
  2
$MODEL_SPACE
 70
     0
 10
0.0
 20
0.0
 30
0.0
  3
$MODEL_SPACE
  1

  0
ENDBLK
  5
21
  8
0
  0
BLOCK
 67
     1
  8
0
  2
$PAPER_SPACE
 70
     0
 10
0.0
 20
0.0
 30
0.0
  3
$PAPER_SPACE
  1

  0
ENDBLK
  5
53
 67
     1
  8
0
  0
ENDSEC
  0
SECTION
  2
ENTITIES
  0
TEXT
  5
C317
  8
0
 62
     3
 10
0.0
 20
0.0
 30
0.0
 40
10.0
  1
ST-H213U
  7
STANDARD1
  0
POLYLINE
  5
1B8FC
  8
0
 66
     1
 10
0.0
 20
0.0
 30
0.0
 70
   128
  0
VERTEX
  5
1D4D4
  8
0
 10
236.20736023409989
 20
139.66097949999991
 30
0.0
  0
VERTEX
  5
1D4D5
  8
0
 10
236.3263758084999
 20
139.67204431069999
 30
0.0
  0
VERTEX
  5
1D4D6
  8
0
 10
236.39322241769989
 20
139.76164592430001
 30
0.0
  0
SEQEND
  5
1D4D7
  8
0
  0
ARC
  5
1B8FD
  8
0
 10
216.03595736247581
 20
153.38341578578769
 30
0.0
 40
0.1362336459048614
 50
94.25020249938413
 51
154.94603101746591
  0
LINE
  5
1B901
  8
0
 10
165.6362019293999
 20
148.26167851689999
 30
0.0
 11
165.6361479126997
 21
149.5116782561
 31
0.0
  0
LINE
  5
1B902
  8
0
 10
148.63614885149971
 20
149.51095322149999
 30
0.0
 11
148.63620100549969
 21
148.26095301660001
 31
0.0
  0
LINE
  5
1B903
  8
0
 10
165.6362550072997
 20
159.01169395104671
 30
0.0
 11
165.63620099059969
 21
160.26169462164671
 31
0.0
  0
LINE
  5
1B904
  8
0
 10
148.6362019293997
 20
160.26096819004661
 30
0.0
 11
148.63625408339971
 21
159.01096938204671
 31
0.0
  0
LINE
  5
1B90D
  8
0
 10
159.63622282829979
 20
166.61542205451019
 30
0.0
 11
159.13620132589989
 21
167.11540071601021
 31
0.0
  0
LINE
  5
1B90E
  8
0
 10
155.13620253289989
 20
167.11523121531019
 30
0.0
 11
154.63622387140001
 21
166.61520971301019
 31
0.0
  0
LINE
  5
1B90F
  8
0
 10
154.63622387140001
 20
166.61520971301019
 30
0.0
 11
154.63633563010009
 21
163.96120859621021
 31
0.0
  0
LINE
  5
1B910
  8
0
 10
154.63615914442491
 20
144.56120901269989
 30
0.0
 11
154.63624482612499
 21
142.615209067
 31
0.0
  0
LINE
  5
1B911
  8
0
 10
159.63624378302509
 20
142.61542239810001
 30
0.0
 11
159.6361599640249
 21
144.56142240200001
 31
0.0
  0
LINE
  5
1B912
  8
0
 10
159.63633644959981
 20
163.96142280041019
 30
0.0
 11
159.63622282829979
 21
166.61542205451019
 31
0.0
  0
ARC
  5
1B913
  8
0
 10
152.02797605977389
 20
140.05967350983281
 30
0.0
 40
0.4999899844712287
 50
150.75338059276319
 51
197.5743777032726
  0
ARC
  5
1B914
  8
0
 10
162.2439378937097
 20
140.0601054871041
 30
0.0
 40
0.5000027212110264
 50
342.4313989323087
 51
29.251206447916161
  0
LINE
  5
1B915
  8
0
 10
151.55132284380011
 20
139.90870432
 30
0.0
 11
153.2756665906999
 21
134.46420535440001
 31
0.0
  0
LINE
  5
1B916
  8
0
 10
160.9967349282999
 20
134.4645350426
 30
0.0
 11
162.72061860189999
 21
139.90918092429999
 31
0.0
  0
LINE
  5
1B917
  8
0
 10
162.68018243829991
 20
140.30442654149999
 30
0.0
 11
161.5290565601999
 21
142.35980488129999
 31
0.0
  0
LINE
  5
1B918
  8
0
 10
152.74267440659989
 20
142.3594299657
 30
0.0
 11
151.59172361710009
 21
140.30395342969999
 31
0.0
  0
ARC
  5
1B919
  8
0
 10
161.09281312247111
 20
142.11548310001211
 30
0.0
 40
0.5000014697709313
 50
29.251371482369301
 51
90.002398994759503
  0
ARC
  5
1B91A
  8
0
 10
153.178937078796
 20
142.1151481954667
 30
0.0
 40
0.4999987024183259
 50
90.002404350884404
 51
150.75370582936401
  0
ARC
  5
1B91B
  8
0
 10
160.5200254884723
 20
134.61548359958181
 30
0.0
 40
0.5000382588884643
 50
269.56188165889569
 51
342.42975248225349
  0
ARC
  5
1B91C
  8
0
 10
153.7523653476708
 20
134.61519473470679
 30
0.0
 40
0.5000380958244474
 50
197.5751308400757
 51
270.43961070060158
  0
ARC
  5
1B91D
  8
0
 10
217.59048615569989
 20
161.63622367830001
 30
0.0
 40
9.9999999999993712
 50
239.06881401250249
 51
260.04253112810051
  0
LINE
  5
1B91E
  8
0
 10
212.21577359360001
 20
143.76619946679989
 30
0.0
 11
215.6565969996
 21
143.67931766429999
 31
0.0
  0
LINE
  5
1B91F
  8
0
 10
206.57723752780001
 20
143.41505133309991
 30
0.0
 11
205.9772515855
 21
143.30258499359999
 31
0.0
  0
ARC
  5
1B920
  8
0
 10
201.54200528609999
 20
162.61175212180001
 30
0.0
 40
19.812000003538451
 50
266.55357251710092
 51
282.93624240820179
  0
LINE
  5
1B921
  8
0
 10
198.27196916560001
 20
142.96079126769999
 30
0.0
 11
200.35100245850001
 21
142.83558323849999
 31
0.0
  0
ARC
  5
1B922
  8
0
 10
198.58498907350011
 20
148.15837410969991
 30
0.0
 40
5.2070000023093614
 50
157.4873511271978
 51
266.55357251710092
  0
ARC
  5
1B923
  8
0
 10
186.50082632489989
 20
153.16692396409999
 30
0.0
 40
7.8739999968485206
 50
337.48735112719783
 51
36.495906463602282
  0
ARC
  5
1B924
  8
0
 10
195.1498931914
 20
161.57869353899989
 30
0.0
 40
4.3910000000012266
 50
50.450990353097829
 51
238.1185860878962
  0
ARC
  5
1B925
  8
0
 10
775.46403814909979
 20
864.33043861969998
 30
0.0
 40
906.99504446850233
 50
230.45099035309781
 51
231.18369323859909
  0
ARC
  5
1B926
  8
0
 10
190.8550578345
 20
125.9633939478
 30
0.0
 40
35.521766562042842
 50
61.235863358598351
 51
63.081920435503427
  0
LINE
  5
1B927
  8
0
 10
206.57723752780001
 20
143.41505133309991
 30
0.0
 11
207.6056560687
 21
143.53163231399989
 31
0.0
  0
LINE
  5
1B92A
  8
0
 10
210.20169353110009
 20
143.79812636880001
 30
0.0
 11
211.6634303890001
 21
143.78014625509999
 31
0.0
  0
LINE
  5
1B92B
  8
0
 10
208.6341863683999
 20
143.691419037
 30
0.0
 11
210.20169353110009
 21
143.79812636880001
 31
0.0
  0
LINE
  5
1B92C
  8
0
 10
207.88948034859999
 20
143.58954847090001
 30
0.0
 11
208.6341863683999
 21
143.691419037
 31
0.0
  0
LINE
  5
1B92D
  8
0
 10
207.88948034859999
 20
143.58954847090001
 30
0.0
 11
207.6056560687
 21
143.53163231399989
 31
0.0
  0
LINE
  5
1B92E
  8
0
 10
211.6634303890001
 20
143.78014625509999
 30
0.0
 11
211.93992702290001
 21
143.77316465370001
 31
0.0
  0
ARC
  5
1B92F
  8
0
 10
224.79820285060009
 20
161.1712799766
 30
0.0
 40
14.77455395767144
 50
211.38209367570281
 51
213.30622706460031
  0
POLYLINE
  5
1B930
  8
0
 66
     1
 10
0.0
 20
0.0
 30
0.0
 70
   128
  0
VERTEX
  5
1D4D8
  8
0
 10
212.21577359360001
 20
143.76619946679989
 30
0.0
  0
VERTEX
  5
1D4D9
  8
0
 10
212.18044480309999
 20
143.76709149920001
 30
0.0
  0
VERTEX
  5
1D4DA
  8
0
 10
212.14519610630009
 20
143.76798155249989
 30
0.0
  0
VERTEX
  5
1D4DB
  8
0
 10
212.11011132220011
 20
143.7688674730999
 30
0.0
  0
VERTEX
  5
1D4DC
  8
0
 10
212.0752686820999
 20
143.76974722369991
 30
0.0
  0
VERTEX
  5
1D4DD
  8
0
 10
212.04075014220001
 20
143.77061882519999
 30
0.0
  0
VERTEX
  5
1D4DE
  8
0
 10
212.00663579619999
 20
143.77148024039991
 30
0.0
  0
VERTEX
  5
1D4DF
  8
0
 10
211.9730020127999
 20
143.77232954839999
 30
0.0
  0
VERTEX
  5
1D4E0
  8
0
 10
211.93992702290001
 20
143.77316465370001
 30
0.0
  0
SEQEND
  5
1D4E1
  8
0
  0
POLYLINE
  5
1B931
  8
0
 66
     1
 10
0.0
 20
0.0
 30
0.0
 70
   128
  0
VERTEX
  5
1D4E2
  8
0
 10
246.20012735940011
 20
148.35902594029989
 30
0.0
  0
VERTEX
  5
1D4E3
  8
0
 10
245.97029184920009
 20
148.35625292729989
 30
0.0
  0
VERTEX
  5
1D4E4
  8
0
 10
245.7774037680999
 20
148.2758052833
 30
0.0
  0
VERTEX
  5
1D4E5
  8
0
 10
245.63770538189991
 20
148.15053028979989
 30
0.0
  0
VERTEX
  5
1D4E6
  8
0
 10
245.52541023119991
 20
147.96335354449999
 30
0.0
  0
VERTEX
  5
1D4E7
  8
0
 10
245.47475000840001
 20
147.73149147629991
 30
0.0
  0
VERTEX
  5
1D4E8
  8
0
 10
245.50384825090009
 20
147.49562518670001
 30
0.0
  0
VERTEX
  5
1D4E9
  8
0
 10
245.6117959879
 20
147.2861907631
 30
0.0
  0
VERTEX
  5
1D4EA
  8
0
 10
245.77126076440001
 20
147.13859196749999
 30
0.0
  0
VERTEX
  5
1D4EB
  8
0
 10
245.97557058550001
 20
147.04947696999989
 30
0.0
  0
VERTEX
  5
1D4EC
  8
0
 10
246.01527845480001
 20
147.0417120679999
 30
0.0
  0
VERTEX
  5
1D4ED
  8
0
 10
246.24617194749999
 20
147.04969909039991
 30
0.0
  0
VERTEX
  5
1D4EE
  8
0
 10
246.43518200140011
 20
147.12409313769999
 30
0.0
  0
VERTEX
  5
1D4EF
  8
0
 10
246.59931829199991
 20
147.2672909684
 30
0.0
  0
VERTEX
  5
1D4F0
  8
0
 10
246.69727852560001
 20
147.4440182745
 30
0.0
  0
VERTEX
  5
1D4F1
  8
0
 10
246.73988094550009
 20
147.65873935069999
 30
0.0
  0
VERTEX
  5
1D4F2
  8
0
 10
246.70965021469991
 20
147.89698703209999
 30
0.0
  0
VERTEX
  5
1D4F3
  8
0
 10
246.6030137799001
 20
148.11142032959989
 30
0.0
  0
VERTEX
  5
1D4F4
  8
0
 10
246.4316690527001
 20
148.27163156119991
 30
0.0
  0
VERTEX
  5
1D4F5
  8
0
 10
246.24152651050011
 20
148.35061144080001
 30
0.0
  0
VERTEX
  5
1D4F6
  8
0
 10
246.20012735940011
 20
148.35902594029989
 30
0.0
  0
SEQEND
  5
1D4F7
  8
0
  0
POLYLINE
  5
1B932
  8
0
 66
     1
 10
0.0
 20
0.0
 30
0.0
 70
   128
  0
VERTEX
  5
1D4F8
  8
0
 10
242.48651584609999
 20
152.29115087539989
 30
0.0
  0
VERTEX
  5
1D4F9
  8
0
 10
242.2578090987999
 20
152.2616065293
 30
0.0
  0
VERTEX
  5
1D4FA
  8
0
 10
242.0544641278
 20
152.1675103529999
 30
0.0
  0
VERTEX
  5
1D4FB
  8
0
 10
241.9054301642
 20
152.02804852279999
 30
0.0
  0
VERTEX
  5
1D4FC
  8
0
 10
241.813739594
 20
151.842783317
 30
0.0
  0
VERTEX
  5
1D4FD
  8
0
 10
241.80280214170011
 20
151.65586967019999
 30
0.0
  0
VERTEX
  5
1D4FE
  8
0
 10
241.85912108049999
 20
151.4745486155
 30
0.0
  0
VERTEX
  5
1D4FF
  8
0
 10
241.98702147230011
 20
151.30832802499989
 30
0.0
  0
VERTEX
  5
1D500
  8
0
 10
242.1578632854
 20
151.19892928749991
 30
0.0
  0
VERTEX
  5
1D501
  8
0
 10
242.3670495115
 20
151.14189136769991
 30
0.0
  0
VERTEX
  5
1D502
  8
0
 10
242.44154041629989
 20
151.13735303280001
 30
0.0
  0
VERTEX
  5
1D503
  8
0
 10
242.66985228279989
 20
151.17193024599999
 30
0.0
  0
VERTEX
  5
1D504
  8
0
 10
242.8714389167001
 20
151.27151563759989
 30
0.0
  0
VERTEX
  5
1D505
  8
0
 10
243.02865734319991
 20
151.43030799920001
 30
0.0
  0
VERTEX
  5
1D506
  8
0
 10
243.11318418010001
 20
151.6115796938
 30
0.0
  0
VERTEX
  5
1D507
  8
0
 10
243.1282306276
 20
151.81311510499989
 30
0.0
  0
VERTEX
  5
1D508
  8
0
 10
243.06554889299991
 20
151.98946662249989
 30
0.0
  0
VERTEX
  5
1D509
  8
0
 10
242.95015057549989
 20
152.12459966540001
 30
0.0
  0
VERTEX
  5
1D50A
  8
0
 10
242.77237972239999
 20
152.23386801780001
 30
0.0
  0
VERTEX
  5
1D50B
  8
0
 10
242.5532581471
 20
152.28762302550001
 30
0.0
  0
VERTEX
  5
1D50C
  8
0
 10
242.48651584609999
 20
152.29115087539989
 30
0.0
  0
SEQEND
  5
1D50D
  8
0
  0
POLYLINE
  5
1B933
  8
0
 66
     1
 10
0.0
 20
0.0
 30
0.0
 70
   128
  0
VERTEX
  5
1D50E
  8
0
 10
240.43769186360009
 20
150.54820908229999
 30
0.0
  0
VERTEX
  5
1D50F
  8
0
 10
240.20971899849999
 20
150.51245653999999
 30
0.0
  0
VERTEX
  5
1D510
  8
0
 10
240.00779336319991
 20
150.40587598459999
 30
0.0
  0
VERTEX
  5
1D511
  8
0
 10
239.8577572964
 20
150.2466542832
 30
0.0
  0
VERTEX
  5
1D512
  8
0
 10
239.7696169278999
 20
150.04089718680001
 30
0.0
  0
VERTEX
  5
1D513
  8
0
 10
239.76226693020001
 20
149.83671961349989
 30
0.0
  0
VERTEX
  5
1D514
  8
0
 10
239.8234846256
 20
149.63868271559991
 30
0.0
  0
VERTEX
  5
1D515
  8
0
 10
239.95584418990009
 20
149.46593495079989
 30
0.0
  0
VERTEX
  5
1D516
  8
0
 10
240.12362381439999
 20
149.3588654511
 30
0.0
  0
VERTEX
  5
1D517
  8
0
 10
240.32916298129999
 20
149.3046261556
 30
0.0
  0
VERTEX
  5
1D518
  8
0
 10
240.38832804180021
 20
149.30145779619991
 30
0.0
  0
VERTEX
  5
1D519
  8
0
 10
240.6163195334
 20
149.33899288999999
 30
0.0
  0
VERTEX
  5
1D51A
  8
0
 10
240.81305583939999
 20
149.4439557380999
 30
0.0
  0
VERTEX
  5
1D51B
  8
0
 10
240.96762185910009
 20
149.61252279579989
 30
0.0
  0
VERTEX
  5
1D51C
  8
0
 10
241.0509417019
 20
149.80871008709991
 30
0.0
  0
VERTEX
  5
1D51D
  8
0
 10
241.0637455246999
 20
150.02781443299989
 30
0.0
  0
VERTEX
  5
1D51E
  8
0
 10
240.99944701419989
 20
150.22253116589999
 30
0.0
  0
VERTEX
  5
1D51F
  8
0
 10
240.88014459230001
 20
150.37612302229999
 30
0.0
  0
VERTEX
  5
1D520
  8
0
 10
240.6994419358
 20
150.4952778295
 30
0.0
  0
VERTEX
  5
1D521
  8
0
 10
240.4942827484999
 20
150.5457778647
 30
0.0
  0
VERTEX
  5
1D522
  8
0
 10
240.43769186360009
 20
150.54820908229999
 30
0.0
  0
SEQEND
  5
1D523
  8
0
  0
POLYLINE
  5
1B934
  8
0
 66
     1
 10
0.0
 20
0.0
 30
0.0
 70
   128
  0
VERTEX
  5
1D524
  8
0
 10
242.31497740369991
 20
148.63593002779999
 30
0.0
  0
VERTEX
  5
1D525
  8
0
 10
242.08646809679999
 20
148.60335608939999
 30
0.0
  0
VERTEX
  5
1D526
  8
0
 10
241.88708310940001
 20
148.49768031389991
 30
0.0
  0
VERTEX
  5
1D527
  8
0
 10
241.7390773259001
 20
148.33899831399989
 30
0.0
  0
VERTEX
  5
1D528
  8
0
 10
241.64648523549999
 20
148.13018973920001
 30
0.0
  0
VERTEX
  5
1D529
  8
0
 10
241.6311929188
 20
147.9097643122
 30
0.0
  0
VERTEX
  5
1D52A
  8
0
 10
241.6894192062
 20
147.69631123169989
 30
0.0
  0
VERTEX
  5
1D52B
  8
0
 10
241.81933498010011
 20
147.51717133449989
 30
0.0
  0
VERTEX
  5
1D52C
  8
0
 10
241.98339676480009
 20
147.40642171350001
 30
0.0
  0
VERTEX
  5
1D52D
  8
0
 10
242.1873303315999
 20
147.3490000889
 30
0.0
  0
VERTEX
  5
1D52E
  8
0
 10
242.22758581860009
 20
147.3462005332
 30
0.0
  0
VERTEX
  5
1D52F
  8
0
 10
242.4563819728001
 20
147.38114329050001
 30
0.0
  0
VERTEX
  5
1D530
  8
0
 10
242.6427768728999
 20
147.47958594929989
 30
0.0
  0
VERTEX
  5
1D531
  8
0
 10
242.80091544609991
 20
147.6463262177999
 30
0.0
  0
VERTEX
  5
1D532
  8
0
 10
242.89246818049989
 20
147.8504507056999
 30
0.0
  0
VERTEX
  5
1D533
  8
0
 10
242.91127344590001
 20
148.07907875629999
 30
0.0
  0
VERTEX
  5
1D534
  8
0
 10
242.8518587909
 20
148.2867501861999
 30
0.0
  0
VERTEX
  5
1D535
  8
0
 10
242.73177033289991
 20
148.45717057580001
 30
0.0
  0
VERTEX
  5
1D536
  8
0
 10
242.55190586670011
 20
148.58333498239989
 30
0.0
  0
VERTEX
  5
1D537
  8
0
 10
242.3600273393001
 20
148.633169122
 30
0.0
  0
VERTEX
  5
1D538
  8
0
 10
242.31497740369991
 20
148.63593002779999
 30
0.0
  0
SEQEND
  5
1D539
  8
0
  0
POLYLINE
  5
1B935
  8
0
 66
     1
 10
0.0
 20
0.0
 30
0.0
 70
   128
  0
VERTEX
  5
1D53A
  8
0
 10
248.2523376307999
 20
149.85072204839989
 30
0.0
  0
VERTEX
  5
1D53B
  8
0
 10
248.0506988428001
 20
149.87780909979989
 30
0.0
  0
VERTEX
  5
1D53C
  8
0
 10
247.8778826258999
 20
149.825796131
 30
0.0
  0
VERTEX
  5
1D53D
  8
0
 10
247.7492669783
 20
149.72089428449999
 30
0.0
  0
VERTEX
  5
1D53E
  8
0
 10
247.64864316209989
 20
149.5502708665999
 30
0.0
  0
VERTEX
  5
1D53F
  8
0
 10
247.61171808459989
 20
149.34232097119991
 30
0.0
  0
VERTEX
  5
1D540
  8
0
 10
247.64054065569979
 20
149.12913657719989
 30
0.0
  0
VERTEX
  5
1D541
  8
0
 10
247.73634022100009
 20
148.91520619389999
 30
0.0
  0
VERTEX
  5
1D542
  8
0
 10
247.88629060609989
 20
148.74120859429999
 30
0.0
  0
VERTEX
  5
1D543
  8
0
 10
248.07694723830019
 20
148.6228039673999
 30
0.0
  0
VERTEX
  5
1D544
  8
0
 10
248.12442978839999
 20
148.60644249239999
 30
0.0
  0
VERTEX
  5
1D545
  8
0
 10
248.32888862110011
 20
148.58873385929999
 30
0.0
  0
VERTEX
  5
1D546
  8
0
 10
248.49432503799989
 20
148.63803062589989
 30
0.0
  0
VERTEX
  5
1D547
  8
0
 10
248.6419843696001
 20
148.7574787996999
 30
0.0
  0
VERTEX
  5
1D548
  8
0
 10
248.73235618690001
 20
148.92464421689999
 30
0.0
  0
VERTEX
  5
1D549
  8
0
 10
248.7640546821001
 20
149.1337792203
 30
0.0
  0
VERTEX
  5
1D54A
  8
0
 10
248.72693588950011
 20
149.3497152068
 30
0.0
  0
VERTEX
  5
1D54B
  8
0
 10
248.6344965360999
 20
149.54333437610001
 30
0.0
  0
VERTEX
  5
1D54C
  8
0
 10
248.48518690090009
 20
149.71674989909999
 30
0.0
  0
VERTEX
  5
1D54D
  8
0
 10
248.30153381449989
 20
149.83219385149991
 30
0.0
  0
VERTEX
  5
1D54E
  8
0
 10
248.2523376307999
 20
149.85072204839989
 30
0.0
  0
SEQEND
  5
1D54F
  8
0
  0
POLYLINE
  5
1B936
  8
0
 66
     1
 10
0.0
 20
0.0
 30
0.0
 70
   128
  0
VERTEX
  5
1D550
  8
0
 10
244.47030371049999
 20
153.73892907049989
 30
0.0
  0
VERTEX
  5
1D551
  8
0
 10
244.24270337440001
 20
153.7261978908999
 30
0.0
  0
VERTEX
  5
1D552
  8
0
 10
244.0509552322001
 20
153.66106864060001
 30
0.0
  0
VERTEX
  5
1D553
  8
0
 10
243.91870742659989
 20
153.56268372389991
 30
0.0
  0
VERTEX
  5
1D554
  8
0
 10
243.8330108486
 20
153.42242747540001
 30
0.0
  0
VERTEX
  5
1D555
  8
0
 10
243.82357468829991
 20
153.26833270489999
 30
0.0
  0
VERTEX
  5
1D556
  8
0
 10
243.8836487196001
 20
153.1188163160999
 30
0.0
  0
VERTEX
  5
1D557
  8
0
 10
244.0155724249
 20
152.97767903649989
 30
0.0
  0
VERTEX
  5
1D558
  8
0
 10
244.19944902879999
 20
152.87654671819999
 30
0.0
  0
VERTEX
  5
1D559
  8
0
 10
244.42158063869991
 20
152.82213605940001
 30
0.0
  0
VERTEX
  5
1D55A
  8
0
 10
244.49300562959999
 20
152.8170137852
 30
0.0
  0
VERTEX
  5
1D55B
  8
0
 10
244.7207028231999
 20
152.83857669679989
 30
0.0
  0
VERTEX
  5
1D55C
  8
0
 10
244.9163401685
 20
152.9090601206
 30
0.0
  0
VERTEX
  5
1D55D
  8
0
 10
245.0650239549
 20
153.02543725819999
 30
0.0
  0
VERTEX
  5
1D55E
  8
0
 10
245.1362924836001
 20
153.15492369229989
 30
0.0
  0
VERTEX
  5
1D55F
  8
0
 10
245.1456764899001
 20
153.30391108989991
 30
0.0
  0
VERTEX
  5
1D560
  8
0
 10
245.0788298807999
 20
153.4553115441999
 30
0.0
  0
VERTEX
  5
1D561
  8
0
 10
244.95081773019999
 20
153.57906848190001
 30
0.0
  0
VERTEX
  5
1D562
  8
0
 10
244.76232921699989
 20
153.6782627179999
 30
0.0
  0
VERTEX
  5
1D563
  8
0
 10
244.5365207456
 20
153.73286243529989
 30
0.0
  0
VERTEX
  5
1D564
  8
0
 10
244.47030371049999
 20
153.73892907049989
 30
0.0
  0
SEQEND
  5
1D565
  8
0
  0
POLYLINE
  5
1B937
  8
0
 66
     1
 10
0.0
 20
0.0
 30
0.0
 70
   128
  0
VERTEX
  5
1D566
  8
0
 10
246.4969882928001
 20
152.06232957540001
 30
0.0
  0
VERTEX
  5
1D567
  8
0
 10
246.2782206199999
 20
152.07119856029999
 30
0.0
  0
VERTEX
  5
1D568
  8
0
 10
246.0821660421
 20
152.0096819103
 30
0.0
  0
VERTEX
  5
1D569
  8
0
 10
245.93828042969989
 20
151.8941969796999
 30
0.0
  0
VERTEX
  5
1D56A
  8
0
 10
245.84515189749999
 20
151.7228038236
 30
0.0
  0
VERTEX
  5
1D56B
  8
0
 10
245.8295131288001
 20
151.53361681849989
 30
0.0
  0
VERTEX
  5
1D56C
  8
0
 10
245.88196521619989
 20
151.34224399919989
 30
0.0
  0
VERTEX
  5
1D56D
  8
0
 10
246.0066953860001
 20
151.15554455669999
 30
0.0
  0
VERTEX
  5
1D56E
  8
0
 10
246.17910554630001
 20
151.01720310749999
 30
0.0
  0
VERTEX
  5
1D56F
  8
0
 10
246.39025872569999
 20
150.9275921807
 30
0.0
  0
VERTEX
  5
1D570
  8
0
 10
246.4586103521001
 20
150.91290894889991
 30
0.0
  0
VERTEX
  5
1D571
  8
0
 10
246.67949026449989
 20
150.9100022911999
 30
0.0
  0
VERTEX
  5
1D572
  8
0
 10
246.87361886719989
 20
150.97007725389989
 30
0.0
  0
VERTEX
  5
1D573
  8
0
 10
247.0272796413999
 20
151.0933499038
 30
0.0
  0
VERTEX
  5
1D574
  8
0
 10
247.1093030832001
 20
151.25018183139991
 30
0.0
  0
VERTEX
  5
1D575
  8
0
 10
247.12661450729999
 20
151.44274488089999
 30
0.0
  0
VERTEX
  5
1D576
  8
0
 10
247.06765806300001
 20
151.63832448420001
 30
0.0
  0
VERTEX
  5
1D577
  8
0
 10
246.95038219910001
 20
151.80753927679999
 30
0.0
  0
VERTEX
  5
1D578
  8
0
 10
246.77306583149991
 20
151.95483911779999
 30
0.0
  0
VERTEX
  5
1D579
  8
0
 10
246.56354432920011
 20
152.0467047766
 30
0.0
  0
VERTEX
  5
1D57A
  8
0
 10
246.4969882928001
 20
152.06232957540001
 30
0.0
  0
SEQEND
  5
1D57B
  8
0
  0
POLYLINE
  5
1B938
  8
0
 66
     1
 10
0.0
 20
0.0
 30
0.0
 70
   128
  0
VERTEX
  5
1D57C
  8
0
 10
244.42049285389999
 20
150.47723997380001
 30
0.0
  0
VERTEX
  5
1D57D
  8
0
 10
244.2006560227999
 20
150.45402908700001
 30
0.0
  0
VERTEX
  5
1D57E
  8
0
 10
243.99076944210009
 20
150.35806979980001
 30
0.0
  0
VERTEX
  5
1D57F
  8
0
 10
243.8316213153
 20
150.20726352930001
 30
0.0
  0
VERTEX
  5
1D580
  8
0
 10
243.72841587290009
 20
150.00441169359999
 30
0.0
  0
VERTEX
  5
1D581
  8
0
 10
243.70593747120009
 20
149.7926540858999
 30
0.0
  0
VERTEX
  5
1D582
  8
0
 10
243.75461583949999
 20
149.58629069849999
 30
0.0
  0
VERTEX
  5
1D583
  8
0
 10
243.87752434239999
 20
149.39926296469989
 30
0.0
  0
VERTEX
  5
1D584
  8
0
 10
244.04347112400001
 20
149.2762804217999
 30
0.0
  0
VERTEX
  5
1D585
  8
0
 10
244.24925243480021
 20
149.20790225269999
 30
0.0
  0
VERTEX
  5
1D586
  8
0
 10
244.31754818179999
 20
149.2007389851
 30
0.0
  0
VERTEX
  5
1D587
  8
0
 10
244.53748932109991
 20
149.22585675490001
 30
0.0
  0
VERTEX
  5
1D588
  8
0
 10
244.73899772390001
 20
149.31869704269999
 30
0.0
  0
VERTEX
  5
1D589
  8
0
 10
244.90626325829999
 20
149.4796477443999
 30
0.0
  0
VERTEX
  5
1D58A
  8
0
 10
245.00329589470019
 20
149.6728794835
 30
0.0
  0
VERTEX
  5
1D58B
  8
0
 10
245.0322078726999
 20
149.89398524159989
 30
0.0
  0
VERTEX
  5
1D58C
  8
0
 10
244.98119002199999
 20
150.103150513
 30
0.0
  0
VERTEX
  5
1D58D
  8
0
 10
244.86914446569989
 20
150.27233643459991
 30
0.0
  0
VERTEX
  5
1D58E
  8
0
 10
244.69371309499999
 20
150.40653629229999
 30
0.0
  0
VERTEX
  5
1D58F
  8
0
 10
244.4894069991999
 20
150.47073189170001
 30
0.0
  0
VERTEX
  5
1D590
  8
0
 10
244.42049285389999
 20
150.47723997380001
 30
0.0
  0
SEQEND
  5
1D591
  8
0
  0
POLYLINE
  5
1B939
  8
0
 66
     1
 10
0.0
 20
0.0
 30
0.0
 70
   128
  0
VERTEX
  5
1D592
  8
0
 10
228.7057096325
 20
150.4887101427
 30
0.0
  0
VERTEX
  5
1D593
  8
0
 10
228.47815772519991
 20
150.44934686269991
 30
0.0
  0
VERTEX
  5
1D594
  8
0
 10
228.2864319347
 20
150.3427178785
 30
0.0
  0
VERTEX
  5
1D595
  8
0
 10
228.14886068920009
 20
150.19107341770001
 30
0.0
  0
VERTEX
  5
1D596
  8
0
 10
228.06470265610011
 20
149.99036176129991
 30
0.0
  0
VERTEX
  5
1D597
  8
0
 10
228.05852612480001
 20
149.78409895669989
 30
0.0
  0
VERTEX
  5
1D598
  8
0
 10
228.12216898419999
 20
149.58595821630001
 30
0.0
  0
VERTEX
  5
1D599
  8
0
 10
228.25668549160019
 20
149.41206678750001
 30
0.0
  0
VERTEX
  5
1D59A
  8
0
 10
228.43195294959989
 20
149.30053252729999
 30
0.0
  0
VERTEX
  5
1D59B
  8
0
 10
228.64352708679991
 20
149.24763293940001
 30
0.0
  0
VERTEX
  5
1D59C
  8
0
 10
228.69672050700001
 20
149.2458541131999
 30
0.0
  0
VERTEX
  5
1D59D
  8
0
 10
228.92405634740001
 20
149.2892323248
 30
0.0
  0
VERTEX
  5
1D59E
  8
0
 10
229.11010479550009
 20
149.39490530640001
 30
0.0
  0
VERTEX
  5
1D59F
  8
0
 10
229.25743630149989
 20
149.56287492070001
 30
0.0
  0
VERTEX
  5
1D5A0
  8
0
 10
229.33345457539991
 20
149.75392876189991
 30
0.0
  0
VERTEX
  5
1D5A1
  8
0
 10
229.34290191159999
 20
149.96783073989999
 30
0.0
  0
VERTEX
  5
1D5A2
  8
0
 10
229.2763794027
 20
150.16686368730001
 30
0.0
  0
VERTEX
  5
1D5A3
  8
0
 10
229.15080731730021
 20
150.32491145649999
 30
0.0
  0
VERTEX
  5
1D5A4
  8
0
 10
228.96558588369999
 20
150.44133236629989
 30
0.0
  0
VERTEX
  5
1D5A5
  8
0
 10
228.76008024440009
 20
150.4872507602
 30
0.0
  0
VERTEX
  5
1D5A6
  8
0
 10
228.7057096325
 20
150.4887101427
 30
0.0
  0
SEQEND
  5
1D5A7
  8
0
  0
POLYLINE
  5
1B93A
  8
0
 66
     1
 10
0.0
 20
0.0
 30
0.0
 70
   128
  0
VERTEX
  5
1D5A8
  8
0
 10
230.6866439245
 20
152.20870740709989
 30
0.0
  0
VERTEX
  5
1D5A9
  8
0
 10
230.45861145479989
 20
152.1738517284
 30
0.0
  0
VERTEX
  5
1D5AA
  8
0
 10
230.26537319639991
 20
152.08085451269989
 30
0.0
  0
VERTEX
  5
1D5AB
  8
0
 10
230.12606969100011
 20
151.9486411661
 30
0.0
  0
VERTEX
  5
1D5AC
  8
0
 10
230.03883084280011
 20
151.7717560008
 30
0.0
  0
VERTEX
  5
1D5AD
  8
0
 10
230.0294095836
 20
151.58771269019999
 30
0.0
  0
VERTEX
  5
1D5AE
  8
0
 10
230.09013554079999
 20
151.40923496329989
 30
0.0
  0
VERTEX
  5
1D5AF
  8
0
 10
230.2219959162
 20
151.25191222870001
 30
0.0
  0
VERTEX
  5
1D5B0
  8
0
 10
230.394476857
 20
151.1511692032
 30
0.0
  0
VERTEX
  5
1D5B1
  8
0
 10
230.6039424799001
 20
151.10272925349989
 30
0.0
  0
VERTEX
  5
1D5B2
  8
0
 10
230.66205700859999
 20
151.10090292989989
 30
0.0
  0
VERTEX
  5
1D5B3
  8
0
 10
230.88981380679999
 20
151.14066109059999
 30
0.0
  0
VERTEX
  5
1D5B4
  8
0
 10
231.07964714990001
 20
151.23869117349989
 30
0.0
  0
VERTEX
  5
1D5B5
  8
0
 10
231.2283607386
 20
151.39203902329999
 30
0.0
  0
VERTEX
  5
1D5B6
  8
0
 10
231.30582442499991
 20
151.5639183298
 30
0.0
  0
VERTEX
  5
1D5B7
  8
0
 10
231.3179353438
 20
151.75475936379999
 30
0.0
  0
VERTEX
  5
1D5B8
  8
0
 10
231.25424778089999
 20
151.93058654660001
 30
0.0
  0
VERTEX
  5
1D5B9
  8
0
 10
231.13136162980001
 20
152.06805255259999
 30
0.0
  0
VERTEX
  5
1D5BA
  8
0
 10
230.9483977221
 20
152.1683224663
 30
0.0
  0
VERTEX
  5
1D5BB
  8
0
 10
230.74265366419991
 20
152.2076177596999
 30
0.0
  0
VERTEX
  5
1D5BC
  8
0
 10
230.6866439245
 20
152.20870740709989
 30
0.0
  0
SEQEND
  5
1D5BD
  8
0
  0
CIRCLE
  5
1B93B
  8
0
 10
234.53687325040011
 20
148.0020584735
 30
0.0
 40
0.6460284946315474
  0
POLYLINE
  5
1B93C
  8
0
 66
     1
 10
0.0
 20
0.0
 30
0.0
 70
   128
  0
VERTEX
  5
1D5BE
  8
0
 10
232.60074278339991
 20
150.51828941330001
 30
0.0
  0
VERTEX
  5
1D5BF
  8
0
 10
232.3731983266
 20
150.47894662239989
 30
0.0
  0
VERTEX
  5
1D5C0
  8
0
 10
232.18058964229999
 20
150.37181798369991
 30
0.0
  0
VERTEX
  5
1D5C1
  8
0
 10
232.04185983159999
 20
150.21887246520001
 30
0.0
  0
VERTEX
  5
1D5C2
  8
0
 10
231.95783218369999
 20
150.01753728839989
 30
0.0
  0
VERTEX
  5
1D5C3
  8
0
 10
231.9519238732
 20
149.81166191400001
 30
0.0
  0
VERTEX
  5
1D5C4
  8
0
 10
232.0155071280999
 20
149.61392071099999
 30
0.0
  0
VERTEX
  5
1D5C5
  8
0
 10
232.1497963926999
 20
149.4405764341
 30
0.0
  0
VERTEX
  5
1D5C6
  8
0
 10
232.32409527520011
 20
149.32991342619991
 30
0.0
  0
VERTEX
  5
1D5C7
  8
0
 10
232.5346971116999
 20
149.27710417660001
 30
0.0
  0
VERTEX
  5
1D5C8
  8
0
 10
232.5891422294001
 20
149.27521917969989
 30
0.0
  0
VERTEX
  5
1D5C9
  8
0
 10
232.81649669629999
 20
149.3182970396999
 30
0.0
  0
VERTEX
  5
1D5CA
  8
0
 10
233.00340941170001
 20
149.4241842255
 30
0.0
  0
VERTEX
  5
1D5CB
  8
0
 10
233.15139656880001
 20
149.59260180589999
 30
0.0
  0
VERTEX
  5
1D5CC
  8
0
 10
233.2282493077
 20
149.78512899949999
 30
0.0
  0
VERTEX
  5
1D5CD
  8
0
 10
233.23749547820009
 20
150.00027336179991
 30
0.0
  0
VERTEX
  5
1D5CE
  8
0
 10
233.1705669127
 20
150.19785623999999
 30
0.0
  0
VERTEX
  5
1D5CF
  8
0
 10
233.0460416338999
 20
150.35387931389991
 30
0.0
  0
VERTEX
  5
1D5D0
  8
0
 10
232.86164721470001
 20
150.47019498419999
 30
0.0
  0
VERTEX
  5
1D5D1
  8
0
 10
232.6553555390999
 20
150.51677694540001
 30
0.0
  0
VERTEX
  5
1D5D2
  8
0
 10
232.60074278339991
 20
150.51828941330001
 30
0.0
  0
SEQEND
  5
1D5D3
  8
0
  0
POLYLINE
  5
1B93D
  8
0
 66
     1
 10
0.0
 20
0.0
 30
0.0
 70
   128
  0
VERTEX
  5
1D5D4
  8
0
 10
238.5120446048002
 20
152.28846866639989
 30
0.0
  0
VERTEX
  5
1D5D5
  8
0
 10
238.2836805842
 20
152.2552539781
 30
0.0
  0
VERTEX
  5
1D5D6
  8
0
 10
238.08690330009989
 20
152.1601435915
 30
0.0
  0
VERTEX
  5
1D5D7
  8
0
 10
237.9440086148
 20
152.02296163889989
 30
0.0
  0
VERTEX
  5
1D5D8
  8
0
 10
237.8555031679
 20
151.84047736229999
 30
0.0
  0
VERTEX
  5
1D5D9
  8
0
 10
237.84590309480001
 20
151.6542482376
 30
0.0
  0
VERTEX
  5
1D5DA
  8
0
 10
237.90437152609999
 20
151.47453371429989
 30
0.0
  0
VERTEX
  5
1D5DB
  8
0
 10
238.0335869454
 20
151.3129781186
 30
0.0
  0
VERTEX
  5
1D5DC
  8
0
 10
238.2041493617001
 20
151.20813168579991
 30
0.0
  0
VERTEX
  5
1D5DD
  8
0
 10
238.41236328700009
 20
151.15536294879999
 30
0.0
  0
VERTEX
  5
1D5DE
  8
0
 10
238.48000710829999
 20
151.15226071329991
 30
0.0
  0
VERTEX
  5
1D5DF
  8
0
 10
238.7079650722001
 20
151.1901841685
 30
0.0
  0
VERTEX
  5
1D5E0
  8
0
 10
238.90301754689989
 20
151.29033487289999
 30
0.0
  0
VERTEX
  5
1D5E1
  8
0
 10
239.05487528070009
 20
151.44785784179999
 30
0.0
  0
VERTEX
  5
1D5E2
  8
0
 10
239.1353303753001
 20
151.6265777125999
 30
0.0
  0
VERTEX
  5
1D5E3
  8
0
 10
239.14766108609999
 20
151.82458061720001
 30
0.0
  0
VERTEX
  5
1D5E4
  8
0
 10
239.08377608280011
 20
151.99925296009999
 30
0.0
  0
VERTEX
  5
1D5E5
  8
0
 10
238.9660084806001
 20
152.13389798999989
 30
0.0
  0
VERTEX
  5
1D5E6
  8
0
 10
238.7866543792
 20
152.2391057758999
 30
0.0
  0
VERTEX
  5
1D5E7
  8
0
 10
238.5724390112
 20
152.2863471135
 30
0.0
  0
VERTEX
  5
1D5E8
  8
0
 10
238.5120446048002
 20
152.28846866639989
 30
0.0
  0
SEQEND
  5
1D5E9
  8
0
  0
POLYLINE
  5
1B93E
  8
0
 66
     1
 10
0.0
 20
0.0
 30
0.0
 70
   128
  0
VERTEX
  5
1D5EA
  8
0
 10
236.50600930670001
 20
150.5434649250999
 30
0.0
  0
VERTEX
  5
1D5EB
  8
0
 10
236.27840524540011
 20
150.5047335475999
 30
0.0
  0
VERTEX
  5
1D5EC
  8
0
 10
236.08323356129989
 20
150.39720071479999
 30
0.0
  0
VERTEX
  5
1D5ED
  8
0
 10
235.94118451700001
 20
150.24152409280001
 30
0.0
  0
VERTEX
  5
1D5EE
  8
0
 10
235.85633357980009
 20
150.03827784209989
 30
0.0
  0
VERTEX
  5
1D5EF
  8
0
 10
235.85035076359989
 20
149.83246393499999
 30
0.0
  0
VERTEX
  5
1D5F0
  8
0
 10
235.91362854459999
 20
149.6345164439999
 30
0.0
  0
VERTEX
  5
1D5F1
  8
0
 10
236.04777252299999
 20
149.46172909809991
 30
0.0
  0
VERTEX
  5
1D5F2
  8
0
 10
236.21953820809989
 20
149.35313362630001
 30
0.0
  0
VERTEX
  5
1D5F3
  8
0
 10
236.4281395636001
 20
149.3004631437
 30
0.0
  0
VERTEX
  5
1D5F4
  8
0
 10
236.48280447350001
 20
149.29836114869991
 30
0.0
  0
VERTEX
  5
1D5F5
  8
0
 10
236.71031912789999
 20
149.34023108330001
 30
0.0
  0
VERTEX
  5
1D5F6
  8
0
 10
236.89898272970001
 20
149.4458039477
 30
0.0
  0
VERTEX
  5
1D5F7
  8
0
 10
237.04910447820001
 20
149.61467182259989
 30
0.0
  0
VERTEX
  5
1D5F8
  8
0
 10
237.128561195
 20
149.81004234400001
 30
0.0
  0
VERTEX
  5
1D5F9
  8
0
 10
237.13845929129999
 20
150.02769662069991
 30
0.0
  0
VERTEX
  5
1D5FA
  8
0
 10
237.07171699029999
 20
150.2236780897
 30
0.0
  0
VERTEX
  5
1D5FB
  8
0
 10
236.9489202462
 20
150.3779507427999
 30
0.0
  0
VERTEX
  5
1D5FC
  8
0
 10
236.76582967860011
 20
150.49458026880001
 30
0.0
  0
VERTEX
  5
1D5FD
  8
0
 10
236.5603948198
 20
150.54180577400001
 30
0.0
  0
VERTEX
  5
1D5FE
  8
0
 10
236.50600930670001
 20
150.5434649250999
 30
0.0
  0
SEQEND
  5
1D5FF
  8
0
  0
POLYLINE
  5
1B93F
  8
0
 66
     1
 10
0.0
 20
0.0
 30
0.0
 70
   128
  0
VERTEX
  5
1D600
  8
0
 10
238.41586505989989
 20
148.66772677750001
 30
0.0
  0
VERTEX
  5
1D601
  8
0
 10
238.18843981250009
 20
148.62773206080001
 30
0.0
  0
VERTEX
  5
1D602
  8
0
 10
237.99515312529999
 20
148.51610234009999
 30
0.0
  0
VERTEX
  5
1D603
  8
0
 10
237.8550263308
 20
148.3548252098
 30
0.0
  0
VERTEX
  5
1D604
  8
0
 10
237.7706969343001
 20
148.14411673689989
 30
0.0
  0
VERTEX
  5
1D605
  8
0
 10
237.7643043361
 20
147.92718470099999
 30
0.0
  0
VERTEX
  5
1D606
  8
0
 10
237.82910576090009
 20
147.71965762599999
 30
0.0
  0
VERTEX
  5
1D607
  8
0
 10
237.9645833932
 20
147.54303369669989
 30
0.0
  0
VERTEX
  5
1D608
  8
0
 10
238.13527991990011
 20
147.43388688190001
 30
0.0
  0
VERTEX
  5
1D609
  8
0
 10
238.34305798630001
 20
147.3814236186
 30
0.0
  0
VERTEX
  5
1D60A
  8
0
 10
238.38971352199999
 20
147.3797095194
 30
0.0
  0
VERTEX
  5
1D60B
  8
0
 10
238.61704936250001
 20
147.42302486669999
 30
0.0
  0
VERTEX
  5
1D60C
  8
0
 10
238.80042677740019
 20
147.52883475269991
 30
0.0
  0
VERTEX
  5
1D60D
  8
0
 10
238.95069381220009
 20
147.70089427010001
 30
0.0
  0
VERTEX
  5
1D60E
  8
0
 10
239.0323223732
 20
147.90540525689991
 30
0.0
  0
VERTEX
  5
1D60F
  8
0
 10
239.04176225879999
 20
148.13247520479999
 30
0.0
  0
VERTEX
  5
1D610
  8
0
 10
238.97401040419999
 20
148.3360753581
 30
0.0
  0
VERTEX
  5
1D611
  8
0
 10
238.84963413700009
 20
148.49802490319999
 30
0.0
  0
VERTEX
  5
1D612
  8
0
 10
238.66561224680001
 20
148.6190688982
 30
0.0
  0
VERTEX
  5
1D613
  8
0
 10
238.46475204449979
 20
148.6661495827
 30
0.0
  0
VERTEX
  5
1D614
  8
0
 10
238.41586505989989
 20
148.66772677750001
 30
0.0
  0
SEQEND
  5
1D615
  8
0
  0
POLYLINE
  5
1B940
  8
0
 66
     1
 10
0.0
 20
0.0
 30
0.0
 70
   128
  0
VERTEX
  5
1D616
  8
0
 10
234.58907550199999
 20
152.254650481
 30
0.0
  0
VERTEX
  5
1D617
  8
0
 10
234.3609797023
 20
152.21964858469991
 30
0.0
  0
VERTEX
  5
1D618
  8
0
 10
234.16653072460011
 20
152.1251044421999
 30
0.0
  0
VERTEX
  5
1D619
  8
0
 10
234.02574455360011
 20
151.99011389159989
 30
0.0
  0
VERTEX
  5
1D61A
  8
0
 10
233.9382300339
 20
151.8103285878999
 30
0.0
  0
VERTEX
  5
1D61B
  8
0
 10
233.9292111060999
 20
151.62565197789991
 30
0.0
  0
VERTEX
  5
1D61C
  8
0
 10
233.98915475230001
 20
151.4471491054
 30
0.0
  0
VERTEX
  5
1D61D
  8
0
 10
234.12008380509999
 20
151.28795813769989
 30
0.0
  0
VERTEX
  5
1D61E
  8
0
 10
234.29256102070011
 20
151.1850674822999
 30
0.0
  0
VERTEX
  5
1D61F
  8
0
 10
234.5020638965
 20
151.13510575139989
 30
0.0
  0
VERTEX
  5
1D620
  8
0
 10
234.56195538860021
 20
151.1329711601
 30
0.0
  0
VERTEX
  5
1D621
  8
0
 10
234.78978669269989
 20
151.17231022569999
 30
0.0
  0
VERTEX
  5
1D622
  8
0
 10
234.98102074490001
 20
151.27132937309989
 30
0.0
  0
VERTEX
  5
1D623
  8
0
 10
235.13055762270011
 20
151.4266600087
 30
0.0
  0
VERTEX
  5
1D624
  8
0
 10
235.208583828
 20
151.60112373530001
 30
0.0
  0
VERTEX
  5
1D625
  8
0
 10
235.2207655273001
 20
151.79472148420001
 30
0.0
  0
VERTEX
  5
1D626
  8
0
 10
235.15728285530011
 20
151.97150327259999
 30
0.0
  0
VERTEX
  5
1D627
  8
0
 10
235.03607308490001
 20
152.1093269065
 30
0.0
  0
VERTEX
  5
1D628
  8
0
 10
234.8543422483001
 20
152.21177425229999
 30
0.0
  0
VERTEX
  5
1D629
  8
0
 10
234.6465381047999
 20
152.25334290410001
 30
0.0
  0
VERTEX
  5
1D62A
  8
0
 10
234.58907550199999
 20
152.254650481
 30
0.0
  0
SEQEND
  5
1D62B
  8
0
  0
POLYLINE
  5
1B941
  8
0
 66
     1
 10
0.0
 20
0.0
 30
0.0
 70
   128
  0
VERTEX
  5
1D62C
  8
0
 10
249.8434128426
 20
149.6995097212
 30
0.0
  0
VERTEX
  5
1D62D
  8
0
 10
249.99456649640001
 20
149.6289089508
 30
0.0
  0
VERTEX
  5
1D62E
  8
0
 10
250.12430345640001
 20
149.63099883870001
 30
0.0
  0
VERTEX
  5
1D62F
  8
0
 10
250.21550973870009
 20
149.6971003896999
 30
0.0
  0
VERTEX
  5
1D630
  8
0
 10
250.26875531300021
 20
149.82814120130001
 30
0.0
  0
VERTEX
  5
1D631
  8
0
 10
250.2700740656999
 20
149.99772805719991
 30
0.0
  0
VERTEX
  5
1D632
  8
0
 10
250.22632053119989
 20
150.19112091509999
 30
0.0
  0
VERTEX
  5
1D633
  8
0
 10
250.1369731687
 20
150.39790758859999
 30
0.0
  0
VERTEX
  5
1D634
  8
0
 10
250.02379512409999
 20
150.5702427775
 30
0.0
  0
VERTEX
  5
1D635
  8
0
 10
249.88648837429989
 20
150.71458101269999
 30
0.0
  0
VERTEX
  5
1D636
  8
0
 10
249.84158745030001
 20
150.74941247699999
 30
0.0
  0
VERTEX
  5
1D637
  8
0
 10
249.6947290562
 20
150.82181163129999
 30
0.0
  0
VERTEX
  5
1D638
  8
0
 10
249.56367706879999
 20
150.82360535859991
 30
0.0
  0
VERTEX
  5
1D639
  8
0
 10
249.4652437232001
 20
150.75056079769999
 30
0.0
  0
VERTEX
  5
1D63A
  8
0
 10
249.4153434596999
 20
150.62755590299989
 30
0.0
  0
VERTEX
  5
1D63B
  8
0
 10
249.40676039079989
 20
150.45199554409999
 30
0.0
  0
VERTEX
  5
1D63C
  8
0
 10
249.4496608339
 20
150.25043871249991
 30
0.0
  0
VERTEX
  5
1D63D
  8
0
 10
249.53272735699991
 20
150.05848381669989
 30
0.0
  0
VERTEX
  5
1D63E
  8
0
 10
249.65717812999989
 20
149.8714770377
 30
0.0
  0
VERTEX
  5
1D63F
  8
0
 10
249.80150705200009
 20
149.729684107
 30
0.0
  0
VERTEX
  5
1D640
  8
0
 10
249.8434128426
 20
149.6995097212
 30
0.0
  0
SEQEND
  5
1D641
  8
0
  0
POLYLINE
  5
1B942
  8
0
 66
     1
 10
0.0
 20
0.0
 30
0.0
 70
   128
  0
VERTEX
  5
1D642
  8
0
 10
228.80236228919989
 20
153.49271718409989
 30
0.0
  0
VERTEX
  5
1D643
  8
0
 10
228.57368906959999
 20
153.4671020879999
 30
0.0
  0
VERTEX
  5
1D644
  8
0
 10
228.37853973730009
 20
153.40335585179989
 30
0.0
  0
VERTEX
  5
1D645
  8
0
 10
228.23600267989991
 20
153.31181149929989
 30
0.0
  0
VERTEX
  5
1D646
  8
0
 10
228.14516147600011
 20
153.18633347749989
 30
0.0
  0
VERTEX
  5
1D647
  8
0
 10
228.1325662695001
 20
153.05307053029989
 30
0.0
  0
VERTEX
  5
1D648
  8
0
 10
228.1890565715
 20
152.92043156919999
 30
0.0
  0
VERTEX
  5
1D649
  8
0
 10
228.3167483471
 20
152.79896009710001
 30
0.0
  0
VERTEX
  5
1D64A
  8
0
 10
228.48867421969999
 20
152.71837182339991
 30
0.0
  0
VERTEX
  5
1D64B
  8
0
 10
228.6989519558999
 20
152.6799966767
 30
0.0
  0
VERTEX
  5
1D64C
  8
0
 10
228.7565114163001
 20
152.67889771610001
 30
0.0
  0
VERTEX
  5
1D64D
  8
0
 10
228.98485308510001
 20
152.71281927819999
 30
0.0
  0
VERTEX
  5
1D64E
  8
0
 10
229.17320003730021
 20
152.7912589908
 30
0.0
  0
VERTEX
  5
1D64F
  8
0
 10
229.32524031019989
 20
152.91226107630001
 30
0.0
  0
VERTEX
  5
1D650
  8
0
 10
229.40753942349991
 20
153.0456190184
 30
0.0
  0
VERTEX
  5
1D651
  8
0
 10
229.42383384329989
 20
153.1874380260999
 30
0.0
  0
VERTEX
  5
1D652
  8
0
 10
229.36428507789989
 20
153.3116038144
 30
0.0
  0
VERTEX
  5
1D653
  8
0
 10
229.24592142920011
 20
153.40408973389989
 30
0.0
  0
VERTEX
  5
1D654
  8
0
 10
229.06656360249991
 20
153.46900384869991
 30
0.0
  0
VERTEX
  5
1D655
  8
0
 10
228.86137088760009
 20
153.49268179389989
 30
0.0
  0
VERTEX
  5
1D656
  8
0
 10
228.80236228919989
 20
153.49271718409989
 30
0.0
  0
SEQEND
  5
1D657
  8
0
  0
POLYLINE
  5
1B943
  8
0
 66
     1
 10
0.0
 20
0.0
 30
0.0
 70
   128
  0
VERTEX
  5
1D658
  8
0
 10
226.7906161211001
 20
152.16402906920001
 30
0.0
  0
VERTEX
  5
1D659
  8
0
 10
226.5625799261
 20
152.12977223099989
 30
0.0
  0
VERTEX
  5
1D65A
  8
0
 10
226.36982968069989
 20
152.0383703709
 30
0.0
  0
VERTEX
  5
1D65B
  8
0
 10
226.23096203430009
 20
151.90830651669989
 30
0.0
  0
VERTEX
  5
1D65C
  8
0
 10
226.14386102179989
 20
151.73373941329999
 30
0.0
  0
VERTEX
  5
1D65D
  8
0
 10
226.13455897190011
 20
151.5515941381
 30
0.0
  0
VERTEX
  5
1D65E
  8
0
 10
226.19541531429991
 20
151.37470804150001
 30
0.0
  0
VERTEX
  5
1D65F
  8
0
 10
226.3274805806
 20
151.2179999798
 30
0.0
  0
VERTEX
  5
1D660
  8
0
 10
226.5013957582
 20
151.11659105870001
 30
0.0
  0
VERTEX
  5
1D661
  8
0
 10
226.71237012369991
 20
151.0682619362999
 30
0.0
  0
VERTEX
  5
1D662
  8
0
 10
226.76719894629991
 20
151.06663864099991
 30
0.0
  0
VERTEX
  5
1D663
  8
0
 10
226.99497064569999
 20
151.10674045979991
 30
0.0
  0
VERTEX
  5
1D664
  8
0
 10
227.18189826230011
 20
151.20307739820001
 30
0.0
  0
VERTEX
  5
1D665
  8
0
 10
227.33099555589999
 20
151.35485410689989
 30
0.0
  0
VERTEX
  5
1D666
  8
0
 10
227.40968486289989
 20
151.5265443548
 30
0.0
  0
VERTEX
  5
1D667
  8
0
 10
227.4219820462001
 20
151.7158868908999
 30
0.0
  0
VERTEX
  5
1D668
  8
0
 10
227.35816409809991
 20
151.88977506009999
 30
0.0
  0
VERTEX
  5
1D669
  8
0
 10
227.23500600080001
 20
152.02557586130001
 30
0.0
  0
VERTEX
  5
1D66A
  8
0
 10
227.05165838819991
 20
152.12442830200001
 30
0.0
  0
VERTEX
  5
1D66B
  8
0
 10
226.846257057
 20
152.1629571169
 30
0.0
  0
VERTEX
  5
1D66C
  8
0
 10
226.7906161211001
 20
152.16402906920001
 30
0.0
  0
SEQEND
  5
1D66D
  8
0
  0
POLYLINE
  5
1B944
  8
0
 66
     1
 10
0.0
 20
0.0
 30
0.0
 70
   128
  0
VERTEX
  5
1D66E
  8
0
 10
240.52057212220009
 20
153.71302340179989
 30
0.0
  0
VERTEX
  5
1D66F
  8
0
 10
240.29166420920001
 20
153.68749678130001
 30
0.0
  0
VERTEX
  5
1D670
  8
0
 10
240.0964366458
 20
153.6174482852
 30
0.0
  0
VERTEX
  5
1D671
  8
0
 10
239.95541205629999
 20
153.5167695209
 30
0.0
  0
VERTEX
  5
1D672
  8
0
 10
239.86606469370011
 20
153.3789375051999
 30
0.0
  0
VERTEX
  5
1D673
  8
0
 10
239.85546251759999
 20
153.2360959053
 30
0.0
  0
VERTEX
  5
1D674
  8
0
 10
239.9101907573002
 20
153.09621032329991
 30
0.0
  0
VERTEX
  5
1D675
  8
0
 10
240.03606831650001
 20
152.9615233838
 30
0.0
  0
VERTEX
  5
1D676
  8
0
 10
240.21129479629991
 20
152.86819647999991
 30
0.0
  0
VERTEX
  5
1D677
  8
0
 10
240.42410200459989
 20
152.8216396645
 30
0.0
  0
VERTEX
  5
1D678
  8
0
 10
240.49728160719999
 20
152.81879819930001
 30
0.0
  0
VERTEX
  5
1D679
  8
0
 10
240.72570150710001
 20
152.85074349489989
 30
0.0
  0
VERTEX
  5
1D67A
  8
0
 10
240.92589860780001
 20
152.93650899080001
 30
0.0
  0
VERTEX
  5
1D67B
  8
0
 10
241.07359146700011
 20
153.06579425929999
 30
0.0
  0
VERTEX
  5
1D67C
  8
0
 10
241.1465959809
 20
153.20160344239989
 30
0.0
  0
VERTEX
  5
1D67D
  8
0
 10
241.16061424829991
 20
153.3521657064
 30
0.0
  0
VERTEX
  5
1D67E
  8
0
 10
241.10099470240019
 20
153.4922645613
 30
0.0
  0
VERTEX
  5
1D67F
  8
0
 10
240.98239636050019
 20
153.5989121719999
 30
0.0
  0
VERTEX
  5
1D680
  8
0
 10
240.80304970959989
 20
153.67735281590001
 30
0.0
  0
VERTEX
  5
1D681
  8
0
 10
240.58694189409991
 20
153.71163759379991
 30
0.0
  0
VERTEX
  5
1D682
  8
0
 10
240.52057212220009
 20
153.71302340179989
 30
0.0
  0
SEQEND
  5
1D683
  8
0
  0
POLYLINE
  5
1B945
  8
0
 66
     1
 10
0.0
 20
0.0
 30
0.0
 70
   128
  0
VERTEX
  5
1D684
  8
0
 10
236.60404404619999
 20
153.65814056249999
 30
0.0
  0
VERTEX
  5
1D685
  8
0
 10
236.37520691380001
 20
153.63113127650001
 30
0.0
  0
VERTEX
  5
1D686
  8
0
 10
236.1796776019001
 20
153.56213983149999
 30
0.0
  0
VERTEX
  5
1D687
  8
0
 10
236.03775149209989
 20
153.4639421105
 30
0.0
  0
VERTEX
  5
1D688
  8
0
 10
235.94641109930009
 20
153.3296658843999
 30
0.0
  0
VERTEX
  5
1D689
  8
0
 10
235.93291064720009
 20
153.1879362835999
 30
0.0
  0
VERTEX
  5
1D68A
  8
0
 10
235.9879108332
 20
153.04752543570001
 30
0.0
  0
VERTEX
  5
1D68B
  8
0
 10
236.11433973530001
 20
152.91836123909999
 30
0.0
  0
VERTEX
  5
1D68C
  8
0
 10
236.28525232889999
 20
152.83295150839999
 30
0.0
  0
VERTEX
  5
1D68D
  8
0
 10
236.4943007192999
 20
152.79128227379991
 30
0.0
  0
VERTEX
  5
1D68E
  8
0
 10
236.5623766741999
 20
152.78947737070001
 30
0.0
  0
VERTEX
  5
1D68F
  8
0
 10
236.7907071672
 20
152.82340824600001
 30
0.0
  0
VERTEX
  5
1D690
  8
0
 10
236.9870970212001
 20
152.90799189360001
 30
0.0
  0
VERTEX
  5
1D691
  8
0
 10
237.13711818680011
 20
153.0358140543
 30
0.0
  0
VERTEX
  5
1D692
  8
0
 10
237.21439560869999
 20
153.17191101610001
 30
0.0
  0
VERTEX
  5
1D693
  8
0
 10
237.23050748930001
 20
153.32091797139989
 30
0.0
  0
VERTEX
  5
1D694
  8
0
 10
237.1722513995999
 20
153.45553785559991
 30
0.0
  0
VERTEX
  5
1D695
  8
0
 10
237.05410381780001
 20
153.55727832759999
 30
0.0
  0
VERTEX
  5
1D696
  8
0
 10
236.8752973339999
 20
153.62954057749999
 30
0.0
  0
VERTEX
  5
1D697
  8
0
 10
236.66589131580011
 20
153.65774568169999
 30
0.0
  0
VERTEX
  5
1D698
  8
0
 10
236.60404404619999
 20
153.65814056249999
 30
0.0
  0
SEQEND
  5
1D699
  8
0
  0
POLYLINE
  5
1B946
  8
0
 66
     1
 10
0.0
 20
0.0
 30
0.0
 70
   128
  0
VERTEX
  5
1D69A
  8
0
 10
232.6992953382001
 20
153.57588987799991
 30
0.0
  0
VERTEX
  5
1D69B
  8
0
 10
232.4705699644999
 20
153.54921493680001
 30
0.0
  0
VERTEX
  5
1D69C
  8
0
 10
232.27511888370009
 20
153.48254714160001
 30
0.0
  0
VERTEX
  5
1D69D
  8
0
 10
232.13261535390009
 20
153.38730171319989
 30
0.0
  0
VERTEX
  5
1D69E
  8
0
 10
232.04153573139999
 20
153.2572155073
 30
0.0
  0
VERTEX
  5
1D69F
  8
0
 10
232.0285121165
 20
153.11976067719991
 30
0.0
  0
VERTEX
  5
1D6A0
  8
0
 10
232.0843616686
 20
152.98310305919989
 30
0.0
  0
VERTEX
  5
1D6A1
  8
0
 10
232.211639937
 20
152.85786345599999
 30
0.0
  0
VERTEX
  5
1D6A2
  8
0
 10
232.38351365550011
 20
152.77495339509991
 30
0.0
  0
VERTEX
  5
1D6A3
  8
0
 10
232.59360885240019
 20
152.73543551559999
 30
0.0
  0
VERTEX
  5
1D6A4
  8
0
 10
232.65407031400011
 20
152.73422852159999
 30
0.0
  0
VERTEX
  5
1D6A5
  8
0
 10
232.8823821805002
 20
152.76890072969991
 30
0.0
  0
VERTEX
  5
1D6A6
  8
0
 10
233.0727147124
 20
152.85013068469991
 30
0.0
  0
VERTEX
  5
1D6A7
  8
0
 10
233.2243675551999
 20
152.97471277409991
 30
0.0
  0
VERTEX
  5
1D6A8
  8
0
 10
233.30560868599991
 20
153.11091125009989
 30
0.0
  0
VERTEX
  5
1D6A9
  8
0
 10
233.32214524969999
 20
153.25704228129999
 30
0.0
  0
VERTEX
  5
1D6AA
  8
0
 10
233.26305096969989
 20
153.38608633729999
 30
0.0
  0
VERTEX
  5
1D6AB
  8
0
 10
233.14508220180011
 20
153.4823813662
 30
0.0
  0
VERTEX
  5
1D6AC
  8
0
 10
232.96616395929999
 20
153.55040423569989
 30
0.0
  0
VERTEX
  5
1D6AD
  8
0
 10
232.7595705352
 20
153.57578556979999
 30
0.0
  0
VERTEX
  5
1D6AE
  8
0
 10
232.6992953382001
 20
153.57588987799991
 30
0.0
  0
SEQEND
  5
1D6AF
  8
0
  0
POLYLINE
  5
1B947
  8
0
 66
     1
 10
0.0
 20
0.0
 30
0.0
 70
   128
  0
VERTEX
  5
1D6B0
  8
0
 10
248.12446704129999
 20
152.90752064439991
 30
0.0
  0
VERTEX
  5
1D6B1
  8
0
 10
247.94716184960001
 20
152.96539675439999
 30
0.0
  0
VERTEX
  5
1D6B2
  8
0
 10
247.80352210620001
 20
152.96427916729999
 30
0.0
  0
VERTEX
  5
1D6B3
  8
0
 10
247.7112503907999
 20
152.9091262444999
 30
0.0
  0
VERTEX
  5
1D6B4
  8
0
 10
247.66926264390011
 20
152.79896102839999
 30
0.0
  0
VERTEX
  5
1D6B5
  8
0
 10
247.6913498901001
 20
152.65306655320001
 30
0.0
  0
VERTEX
  5
1D6B6
  8
0
 10
247.77227064590011
 20
152.4857404828
 30
0.0
  0
VERTEX
  5
1D6B7
  8
0
 10
247.90859764440009
 20
152.31630776079999
 30
0.0
  0
VERTEX
  5
1D6B8
  8
0
 10
248.06532060719999
 20
152.18270115550001
 30
0.0
  0
VERTEX
  5
1D6B9
  8
0
 10
248.24755063280011
 20
152.07311335950001
 30
0.0
  0
VERTEX
  5
1D6BA
  8
0
 10
248.3022192679
 20
152.04884774979999
 30
0.0
  0
VERTEX
  5
1D6BB
  8
0
 10
248.48470261319989
 20
151.9988310709
 30
0.0
  0
VERTEX
  5
1D6BC
  8
0
 10
248.6314790509
 20
152.00365718450001
 30
0.0
  0
VERTEX
  5
1D6BD
  8
0
 10
248.73357808209991
 20
152.06506580109999
 30
0.0
  0
VERTEX
  5
1D6BE
  8
0
 10
248.76972084859989
 20
152.16831967229999
 30
0.0
  0
VERTEX
  5
1D6BF
  8
0
 10
248.74340912320011
 20
152.31096196920001
 30
0.0
  0
VERTEX
  5
1D6C0
  8
0
 10
248.6544976196999
 20
152.47084677219999
 30
0.0
  0
VERTEX
  5
1D6C1
  8
0
 10
248.52402305230001
 20
152.62434642759999
 30
0.0
  0
VERTEX
  5
1D6C2
  8
0
 10
248.35061823950011
 20
152.77406211940001
 30
0.0
  0
VERTEX
  5
1D6C3
  8
0
 10
248.17247858269999
 20
152.8844573721
 30
0.0
  0
VERTEX
  5
1D6C4
  8
0
 10
248.12446704129999
 20
152.90752064439991
 30
0.0
  0
SEQEND
  5
1D6C5
  8
0
  0
ARC
  5
1B948
  8
0
 10
211.17804643880001
 20
147.78483843789991
 30
0.0
 40
6.645312563715227
 50
313.67294121100178
 51
43.502017989600922
  0
LINE
  5
1B94A
  8
0
 10
216.02586081250001
 20
153.5192747786999
 30
0.0
 11
217.27825498210001
 21
153.57676066459999
 31
0.0
  0
ARC
  5
1B94C
  8
0
 10
243.11241559289991
 20
146.53635794819999
 30
0.0
 40
8.3865107012493141
 50
298.95479094950241
 51
1.549795039899911
  0
LINE
  5
1B951
  8
0
 10
236.20736023409989
 20
139.66097949999991
 30
0.0
 11
234.2462221346
 21
140.40183589790001
 31
0.0
  0
LINE
  5
1B954
  8
0
 10
223.02212735629999
 20
141.72489288729989
 30
0.0
 11
215.7396560721001
 21
141.81422302030001
 31
0.0
  0
POLYLINE
  5
1B966
  8
0
 66
     1
 10
0.0
 20
0.0
 30
0.0
 70
   128
  0
VERTEX
  5
1D6C6
  8
0
 10
215.76690657060001
 20
142.97832783889999
 30
0.0
  0
VERTEX
  5
1D6C7
  8
0
 10
215.7145774178
 20
142.94652451179999
 30
0.0
  0
VERTEX
  5
1D6C8
  8
0
 10
215.6926913373002
 20
142.94381685149989
 30
0.0
  0
VERTEX
  5
1D6C9
  8
0
 10
215.67119641229991
 20
142.9507043456999
 30
0.0
  0
VERTEX
  5
1D6CA
  8
0
 10
215.6577946804
 20
142.96345822629999
 30
0.0
  0
VERTEX
  5
1D6CB
  8
0
 10
215.64817598090011
 20
142.9817775304999
 30
0.0
  0
VERTEX
  5
1D6CC
  8
0
 10
215.64149467269999
 20
143.01152438099999
 30
0.0
  0
VERTEX
  5
1D6CD
  8
0
 10
215.64043296499989
 20
143.0391464626999
 30
0.0
  0
SEQEND
  5
1D6CE
  8
0
  0
LINE
  5
1B967
  8
0
 10
215.61286767941129
 20
141.94746576951201
 30
0.0
 11
215.90186292261271
 21
153.39269339830281
 31
0.0
  0
POLYLINE
  5
1B968
  8
0
 66
     1
 10
0.0
 20
0.0
 30
0.0
 70
   128
  0
VERTEX
  5
1D6CF
  8
0
 10
215.87426757439999
 20
152.29982148849999
 30
0.0
  0
VERTEX
  5
1D6D0
  8
0
 10
215.8783747068999
 20
152.33600150789991
 30
0.0
  0
VERTEX
  5
1D6D1
  8
0
 10
215.88723530990001
 20
152.36176375299991
 30
0.0
  0
VERTEX
  5
1D6D2
  8
0
 10
215.89897742490001
 20
152.3785033449
 30
0.0
  0
VERTEX
  5
1D6D3
  8
0
 10
215.91395122930001
 20
152.38882984959989
 30
0.0
  0
VERTEX
  5
1D6D4
  8
0
 10
215.93444405119999
 20
152.3923437297
 30
0.0
  0
VERTEX
  5
1D6D5
  8
0
 10
215.9646598808001
 20
152.38355670120001
 30
0.0
  0
VERTEX
  5
1D6D6
  8
0
 10
215.9982228838
 20
152.35933952030001
 30
0.0
  0
SEQEND
  5
1D6D7
  8
0
  0
ARC
  5
1B969
  8
0
 10
236.40579876692249
 20
139.45157650684251
 30
0.0
 40
13.467613888312391
 50
144.3921108350379
 51
169.72906352596661
  0
POLYLINE
  5
1B96A
  8
0
 66
     1
 10
0.0
 20
0.0
 30
0.0
 70
   128
  0
VERTEX
  5
1D6D8
  8
0
 10
226.14288127050011
 20
147.63728680089989
 30
0.0
  0
VERTEX
  5
1D6D9
  8
0
 10
226.391905751
 20
147.5992231816
 30
0.0
  0
VERTEX
  5
1D6DA
  8
0
 10
226.62014683710001
 20
147.4791170284
 30
0.0
  0
VERTEX
  5
1D6DB
  8
0
 10
226.9841710291
 20
147.07388414069999
 30
0.0
  0
VERTEX
  5
1D6DC
  8
0
 10
227.24277695639989
 20
146.56705420459991
 30
0.0
  0
VERTEX
  5
1D6DD
  8
0
 10
227.43261402470009
 20
146.02512435049991
 30
0.0
  0
VERTEX
  5
1D6DE
  8
0
 10
227.68256610260011
 20
144.93982994000001
 30
0.0
  0
VERTEX
  5
1D6DF
  8
0
 10
227.83084755760001
 20
143.90576642010001
 30
0.0
  0
VERTEX
  5
1D6E0
  8
0
 10
227.9136719368
 20
142.99614735759999
 30
0.0
  0
VERTEX
  5
1D6E1
  8
0
 10
227.95476933939989
 20
142.2791512986
 30
0.0
  0
VERTEX
  5
1D6E2
  8
0
 10
227.96513309700009
 20
141.81798800819999
 30
0.0
  0
VERTEX
  5
1D6E3
  8
0
 10
227.9527539572959
 20
141.65948424024771
 30
0.0
  0
SEQEND
  5
1D6E4
  8
0
  0
ARC
  5
1B96B
  8
0
 10
223.02400878989991
 20
141.85503267249999
 30
0.0
 40
0.1300039853943531
 50
269.17242150809989
 51
359.05738522690058
  0
ARC
  5
1B96C
  8
0
 10
228.08245086450009
 20
141.6495958541
 30
0.0
 40
0.1300733174747989
 50
175.6400747725009
 51
265.35555068229962
  0
POLYLINE
  5
1B973
  8
0
 66
     1
 10
0.0
 20
0.0
 30
0.0
 70
   128
  0
VERTEX
  5
1D6E5
  8
0
 10
229.70350256189931
 20
141.48608571383841
 30
0.0
  0
VERTEX
  5
1D6E6
  8
0
 10
229.7504188678999
 20
141.58253999889999
 30
0.0
  0
VERTEX
  5
1D6E7
  8
0
 10
229.86806353550011
 20
141.87508477599999
 30
0.0
  0
VERTEX
  5
1D6E8
  8
0
 10
230.05993088700009
 20
142.33919756489999
 30
0.0
  0
VERTEX
  5
1D6E9
  8
0
 10
230.3287254832
 20
142.9291524427
 30
0.0
  0
VERTEX
  5
1D6EA
  8
0
 10
230.68111931899989
 20
143.6054806061999
 30
0.0
  0
VERTEX
  5
1D6EB
  8
0
 10
231.1481813154999
 20
144.2977747599999
 30
0.0
  0
VERTEX
  5
1D6EC
  8
0
 10
231.4373122714
 20
144.62597248610001
 30
0.0
  0
VERTEX
  5
1D6ED
  8
0
 10
231.7770065926
 20
144.90032044239999
 30
0.0
  0
VERTEX
  5
1D6EE
  8
0
 10
232.1727553568
 20
145.06051537579989
 30
0.0
  0
VERTEX
  5
1D6EF
  8
0
 10
232.38121515140011
 20
145.0715212803
 30
0.0
  0
VERTEX
  5
1D6F0
  8
0
 10
232.5870299897999
 20
145.0297917424999
 30
0.0
  0
VERTEX
  5
1D6F1
  8
0
 10
232.77822678909999
 20
144.9379873181999
 30
0.0
  0
VERTEX
  5
1D6F2
  8
0
 10
232.94753750780001
 20
144.80670040469991
 30
0.0
  0
VERTEX
  5
1D6F3
  8
0
 10
233.22355171660001
 20
144.46635264439999
 30
0.0
  0
VERTEX
  5
1D6F4
  8
0
 10
233.5992658697001
 20
143.66984326159999
 30
0.0
  0
VERTEX
  5
1D6F5
  8
0
 10
233.83185809470001
 20
142.8705774476999
 30
0.0
  0
VERTEX
  5
1D6F6
  8
0
 10
233.9825796149
 20
142.1235925471
 30
0.0
  0
VERTEX
  5
1D6F7
  8
0
 10
234.07283594830011
 20
141.47875853350001
 30
0.0
  0
VERTEX
  5
1D6F8
  8
0
 10
234.1270053945
 20
140.98011364230001
 30
0.0
  0
VERTEX
  5
1D6F9
  8
0
 10
234.15239697320001
 20
140.66803536379999
 30
0.0
  0
VERTEX
  5
1D6FA
  8
0
 10
234.16148668153639
 20
140.56433818306709
 30
0.0
  0
SEQEND
  5
1D6FB
  8
0
  0
ARC
  5
1B974
  8
0
 10
229.57451659120011
 20
141.50227012939999
 30
0.0
 40
0.1299973689898364
 50
263.23012858860312
 51
352.84823176750069
  0
ARC
  5
1B975
  8
0
 10
234.28580968980009
 20
140.52610710959991
 30
0.0
 40
0.1300685410165559
 50
162.9066008789014
 51
252.3303373622031
  0
ARC
  5
1B977
  8
0
 10
226.1341869213
 20
146.7936425446
 30
0.0
 40
0.835876138232486
 50
80.903735451197875
 51
139.87146048759931
  0
ARC
  5
1B979
  8
0
 10
217.28378395600751
 20
153.44642203270431
 30
0.0
 40
0.130455848918336
 50
2.8279972778488291
 51
92.429034698908168
  0
ARC
  5
1B97A
  8
0
 10
197.27395151787431
 20
152.89884518631149
 30
0.0
 40
25.347603525617011
 50
345.72568805649058
 51
1.791597151085784
  0
ARC
  5
1B97B
  8
0
 10
239.18192478224159
 20
155.59294456935891
 30
0.0
 40
21.872792288423479
 50
185.61496822010679
 51
198.599880724309
  0
ARC
  5
1B97C
  8
0
 10
222.7390818801
 20
153.6969771828
 30
0.0
 40
0.1300410928808511
 50
92.647720941901028
 51
182.4946211391993
  0
ARC
  5
1B97D
  8
0
 10
243.1350582475313
 20
138.16079780087509
 30
0.0
 40
0.221313351905429
 50
285.84661710869631
 51
334.13667817901552
  0
ARC
  5
1B97E
  8
0
 10
247.1101580853319
 20
139.3126263830639
 30
0.0
 40
0.1303498230105132
 50
208.11584776895671
 51
298.5660859090126
  0
LINE
  5
1B97F
  8
0
 10
217.41408092899999
 20
153.4528472646999
 30
0.0
 11
217.41408092899999
 21
153.4528584405999
 31
0.0
  0
POLYLINE
  5
1B980
  8
0
 66
     1
 10
0.0
 20
0.0
 30
0.0
 70
   128
  0
VERTEX
  5
1D6FC
  8
0
 10
221.83898260812001
 20
146.6490250267278
 30
0.0
  0
VERTEX
  5
1D6FD
  8
0
 10
221.76715156060001
 20
146.45513973199999
 30
0.0
  0
VERTEX
  5
1D6FE
  8
0
 10
221.51060199359989
 20
145.92306466769989
 30
0.0
  0
VERTEX
  5
1D6FF
  8
0
 10
221.13195603710011
 20
145.47095412389999
 30
0.0
  0
VERTEX
  5
1D700
  8
0
 10
220.91899236659989
 20
145.34816040659999
 30
0.0
  0
VERTEX
  5
1D701
  8
0
 10
220.6725942157
 20
145.29824361199999
 30
0.0
  0
VERTEX
  5
1D702
  8
0
 10
220.4466106555999
 20
145.3299942612999
 30
0.0
  0
VERTEX
  5
1D703
  8
0
 10
220.1559635065
 20
145.46865049749999
 30
0.0
  0
VERTEX
  5
1D704
  8
0
 10
219.72686966879991
 20
145.86896111259989
 30
0.0
  0
VERTEX
  5
1D705
  8
0
 10
219.34998949989989
 20
146.4182481821
 30
0.0
  0
VERTEX
  5
1D706
  8
0
 10
219.03532540419999
 20
147.02804677189999
 30
0.0
  0
VERTEX
  5
1D707
  8
0
 10
218.61524490639999
 20
148.08648230509999
 30
0.0
  0
VERTEX
  5
1D708
  8
0
 10
218.4515686892
 20
148.6164570041
 30
0.0
  0
SEQEND
  5
1D709
  8
0
  0
POLYLINE
  5
1B981
  8
0
 66
     1
 10
0.0
 20
0.0
 30
0.0
 70
   128
  0
VERTEX
  5
1D70A
  8
0
 10
236.39361357309991
 20
139.7636005375
 30
0.0
  0
VERTEX
  5
1D70B
  8
0
 10
236.41135340549999
 20
139.8037249409
 30
0.0
  0
VERTEX
  5
1D70C
  8
0
 10
236.50867288929999
 20
140.03827946259989
 30
0.0
  0
VERTEX
  5
1D70D
  8
0
 10
236.66853627190019
 20
140.4235147592
 30
0.0
  0
VERTEX
  5
1D70E
  8
0
 10
236.9042242132
 20
140.92312729450001
 30
0.0
  0
VERTEX
  5
1D70F
  8
0
 10
237.22602596499991
 20
141.5010279695999
 30
0.0
  0
VERTEX
  5
1D710
  8
0
 10
237.64198442919999
 20
142.10002932930001
 30
0.0
  0
VERTEX
  5
1D711
  8
0
 10
237.91589757419999
 20
142.36675461399989
 30
0.0
  0
VERTEX
  5
1D712
  8
0
 10
238.24127933010001
 20
142.5516507541999
 30
0.0
  0
VERTEX
  5
1D713
  8
0
 10
238.4243885241001
 20
142.58690314719999
 30
0.0
  0
VERTEX
  5
1D714
  8
0
 10
238.60629444939991
 20
142.57351925599991
 30
0.0
  0
VERTEX
  5
1D715
  8
0
 10
238.77770623190011
 20
142.50594726299991
 30
0.0
  0
VERTEX
  5
1D716
  8
0
 10
238.93616517999999
 20
142.3943790095
 30
0.0
  0
VERTEX
  5
1D717
  8
0
 10
239.2031679116001
 20
142.0945908128999
 30
0.0
  0
VERTEX
  5
1D718
  8
0
 10
239.49559202410001
 20
141.5590423811
 30
0.0
  0
VERTEX
  5
1D719
  8
0
 10
239.70956524830009
 20
140.99840609820001
 30
0.0
  0
VERTEX
  5
1D71A
  8
0
 10
239.91587555030009
 20
140.2741806768
 30
0.0
  0
VERTEX
  5
1D71B
  8
0
 10
240.06388505919989
 20
139.59993712599999
 30
0.0
  0
VERTEX
  5
1D71C
  8
0
 10
240.17613550639999
 20
139.02364240029999
 30
0.0
  0
VERTEX
  5
1D71D
  8
0
 10
240.2515614591
 20
138.58622416849991
 30
0.0
  0
VERTEX
  5
1D71E
  8
0
 10
240.28636684639989
 20
138.32314463329999
 30
0.0
  0
VERTEX
  5
1D71F
  8
0
 10
240.30281027775121
 20
138.23706481607161
 30
0.0
  0
SEQEND
  5
1D720
  8
0
  0
ARC
  5
1B982
  8
0
 10
240.42965735089999
 20
138.20826732209991
 30
0.0
 40
0.130074884683737
 50
167.20921527130059
 51
257.8512247926999
  0
LINE
  5
1B986
  8
0
 10
227.9613943483933
 20
141.9843536909932
 30
0.0
 11
223.21654521364121
 21
142.17558358317649
 31
0.0
  0
LINE
  5
1B98B
  8
0
 10
217.44849454254879
 20
153.12909587912389
 30
0.0
 11
222.61724346298161
 21
153.36634692635019
 31
0.0
  0
ARC
  5
1B99F
  8
0
 10
215.7428258967
 20
141.94418401589999
 30
0.0
 40
0.129999646721192
 50
178.5534529279
 51
268.60279947719721
  0
ARC
  5
1B9A1
  8
0
 10
216.03182149000011
 20
153.38941151429989
 30
0.0
 40
0.130000000000018
 50
156.56823002029921
 51
178.55339937340059
  0
LINE
  5
1B9A8
  8
0
 10
234.16145687919999
 20
140.56434703059989
 30
0.0
 11
234.16147178040001
 21
140.56439173410001
 31
0.0
  0
ARC
  5
1B9AA
  8
0
 10
157.1358468329999
 20
142.8134864740999
 30
0.0
 40
8.735513989822504
 50
56.022552675801599
 51
123.9823382573995
  0
ARC
  5
1B9AC
  8
0
 10
157.13585894040011
 20
142.48995646220001
 30
0.0
 40
8.7355196885743638
 50
56.02257050149813
 51
123.9823204308031
  0
ARC
  5
1B9AE
  8
0
 10
164.39392881959989
 20
154.71225503240001
 30
0.0
 40
5.2261629684119359
 50
242.95733014760049
 51
264.33645181939897
  0
ARC
  5
1B9B0
  8
0
 10
165.16873231
 20
151.8037296114
 30
0.0
 40
3.7698876292226329
 50
213.30038296770289
 51
249.98181017030041
  0
LINE
  5
1B9B1
  8
0
 10
148.6362010048922
 20
148.26096757472169
 30
0.0
 11
165.63620192837629
 21
148.26170220203801
 31
0.0
  0
ARC
  5
1B9B2
  8
0
 10
149.28459588469991
 20
151.5726059246
 30
0.0
 40
3.4921482213807078
 50
288.50562646510161
 51
328.22199086100119
  0
ARC
  5
1B9B4
  8
0
 10
149.7839239189
 20
155.02789118419989
 30
0.0
 40
5.5503767900276841
 50
276.2995132622014
 51
296.4164279214998
  0
LINE
  5
1B9B5
  8
0
 10
163.8781761937
 20
149.51160328459989
 30
0.0
 11
164.00269774719999
 21
149.51160887250001
 31
0.0
  0
LINE
  5
1B9B7
  8
0
 10
150.2684222719999
 20
149.51102260499999
 30
0.0
 11
150.39294382549991
 21
149.5110281929
 31
0.0
  0
ARC
  5
1B9B9
  8
0
 10
157.1359552689996
 20
166.0326916525467
 30
0.0
 40
8.7355201425043436
 50
236.02258260740021
 51
303.9823137906032
  0
ARC
  5
1B9BA
  8
0
 10
157.13486771539991
 20
165.70914801480001
 30
0.0
 40
8.7355166815374314
 50
236.0225599404977
 51
303.9823364565018
  0
ARC
  5
1B9BD
  8
0
 10
164.9871492809998
 20
156.9501298270466
 30
0.0
 40
3.4920433774391491
 50
108.50501776250221
 51
148.22263483370281
  0
ARC
  5
1B9BF
  8
0
 10
164.48671451179979
 20
153.4950019698999
 30
0.0
 40
5.5501085651335771
 50
96.299034457301829
 51
116.4169113236026
  0
ARC
  5
1B9C0
  8
0
 10
149.10305673269971
 20
156.71888704344661
 30
0.0
 40
3.7699262302993919
 50
33.300544055702453
 51
69.981596173598234
  0
LINE
  5
1B9C1
  8
0
 10
165.63620099059969
 20
160.26169462164671
 30
0.0
 11
148.6362019287339
 21
160.2609841445354
 31
0.0
  0
ARC
  5
1B9C2
  8
0
 10
149.87681184220011
 20
153.8104631601
 30
0.0
 40
5.2260737380205118
 50
62.957159421796369
 51
84.336648954802044
  0
LINE
  5
1B9C4
  8
0
 10
164.00229169049999
 20
159.01160903269999
 30
0.0
 11
163.877770137
 21
159.01160344479999
 31
0.0
  0
LINE
  5
1B9C7
  8
0
 10
150.3925377688999
 20
159.01102788750001
 30
0.0
 11
150.26801621539991
 21
159.0110222994999
 31
0.0
  0
CIRCLE
  5
1B9F6
  8
0
 10
181.68798907120001
 20
147.02767737260001
 30
0.0
 40
2.4999999999999951
  0
CIRCLE
  5
1B9F7
  8
0
 10
189.04798907120011
 20
153.4876773725999
 30
0.0
 40
2.5000000000000351
  0
CIRCLE
  5
1B9F8
  8
0
 10
198.1653174585999
 20
148.29854939049989
 30
0.0
 40
2.5000000000000151
  0
CIRCLE
  5
1B9F9
  8
0
 10
194.92996329059989
 20
161.58424683199999
 30
0.0
 40
2.499999999999996
  0
CIRCLE
  5
1B9FA
  8
0
 10
201.9478884719999
 20
139.11720654050001
 30
0.0
 40
2.499999999999996
  0
LINE
  5
1B9FB
  8
0
 10
203.8109282218
 20
142.93010239899999
 30
0.0
 11
204.2767944
 21
141.79931382649991
 31
0.0
  0
LINE
  5
1B9FC
  8
0
 10
197.05043995749989
 20
142.6696597580999
 30
0.0
 11
196.80516777560001
 21
143.26500260619989
 31
0.0
  0
LINE
  5
1B9FF
  8
0
 10
180.33282524650571
 20
159.01230552455041
 30
0.0
 11
164.00229169049999
 21
159.01160903269999
 31
0.0
  0
LINE
  5
1BA00
  8
0
 10
150.26801621539991
 20
159.0110222994999
 30
0.0
 11
140.51635360339989
 21
159.01060692817191
 31
0.0
  0
LINE
  5
1BA01
  8
0
 10
140.51635360339989
 20
149.51067124505391
 30
0.0
 11
150.2684222719999
 21
149.51102260499999
 31
0.0
  0
LINE
  5
1BA02
  8
0
 10
164.00269774719999
 20
149.51160887250001
 30
0.0
 11
177.96798871829989
 21
149.51160887250001
 31
0.0
  0
LINE
  5
1BA03
  8
0
 10
140.51635360339989
 20
159.01060692817191
 30
0.0
 11
140.51635361205311
 21
149.5106712450542
 31
0.0
  0
ARC
  5
1BA0C
  8
0
 10
180.3324838998
 20
167.01230551570001
 30
0.0
 40
7.9999999984319343
 50
270.00244471569903
 51
300.00244471570011
  0
LINE
  5
1BA0D
  8
0
 10
192.58596638209991
 20
165.29608994719999
 30
0.0
 11
184.3327794409999
 21
160.08427284659999
 31
0.0
  0
ARC
  5
1BA0E
  8
0
 10
194.92996329059989
 20
161.58424683199999
 30
0.0
 40
4.3899999999999926
 50
87.378297755796766
 51
122.2720600895971
  0
LINE
  5
1BA0F
  8
0
 10
193.37798917660001
 20
152.5218087435
 30
0.0
 11
194.3525651656
 21
153.75859115270001
 31
0.0
  0
LINE
  5
1BA19
  8
0
 10
205.50000092010009
 20
131.99999939649999
 30
0.0
 11
180.0
 21
131.99999939649999
 31
0.0
  0
LINE
  5
1BA1A
  8
0
 10
205.50000092010009
 20
130.0
 30
0.0
 11
180.0
 21
130.0
 31
0.0
  0
ARC
  5
1BA1D
  8
0
 10
178.0000141763
 20
141.4461034748999
 30
0.0
 40
2.0000000000000711
 50
359.7849394981007
 51
27.760866122802529
  0
ARC
  5
1BA1E
  8
0
 10
193.62709487120009
 20
149.67169277599999
 30
0.0
 40
15.659727359058451
 50
180.5104910854995
 51
207.7608661228025
  0
LINE
  5
1BA1F
  8
0
 10
177.96798871829989
 20
149.5321701467
 30
0.0
 11
177.96798871829989
 21
155.12017078699989
 31
0.0
  0
ARC
  5
1BA20
  8
0
 10
181.77796676060001
 20
155.13313810560001
 30
0.0
 40
3.8099997581027112
 50
86.932088069700825
 51
180.1950127094
  0
LINE
  5
1BA21
  8
0
 10
181.98187632480011
 20
158.9376769214999
 30
0.0
 11
189.5275964121999
 21
158.9376769214999
 31
0.0
  0
ARC
  5
1BA22
  8
0
 10
189.5679894531001
 20
155.12789149790001
 30
0.0
 40
3.8100000015217801
 50
0.0257053945999795
 51
90.607452949000646
  0
LINE
  5
1BA23
  8
0
 10
193.37798917660001
 20
155.12960042799989
 30
0.0
 11
193.37798917660001
 21
146.49360079319999
 31
0.0
  0
ARC
  5
1BA24
  8
0
 10
197.18795211419999
 20
146.4771758059
 30
0.0
 40
3.8099984476135971
 50
179.75299530900011
 51
269.77574875650049
  0
LINE
  5
1BA25
  8
0
 10
197.17304019249991
 20
142.66720653799999
 30
0.0
 11
202.0703822560001
 21
142.66720653799999
 31
0.0
  0
ARC
  5
1BA26
  8
0
 10
201.9478884719999
 20
139.11720654050001
 30
0.0
 40
3.552112721458458
 50
359.95478447670052
 51
88.023772626901845
  0
LINE
  5
1BA27
  8
0
 10
205.50000092010009
 20
139.11440327759999
 30
0.0
 11
205.50000092010009
 21
130.0
 31
0.0
  0
LINE
  5
1BA28
  8
0
 10
180.0
 20
130.0
 30
0.0
 11
180.0
 21
141.4385964116
 31
0.0
  0
POLYLINE
  5
1BA2F
  8
0
 66
     1
 10
0.0
 20
0.0
 30
0.0
 70
   128
  0
VERTEX
  5
1D721
  8
0
 10
246.8432155934363
 20
139.53750266377821
 30
0.0
  0
VERTEX
  5
1D722
  8
0
 10
246.77868990229399
 20
139.665194838302
 30
0.0
  0
VERTEX
  5
1D723
  8
0
 10
246.57403064890991
 20
140.02296103623391
 30
0.0
  0
VERTEX
  5
1D724
  8
0
 10
246.29445133729789
 20
140.46487135343
 30
0.0
  0
VERTEX
  5
1D725
  8
0
 10
245.929265748674
 20
140.96829758019791
 30
0.0
  0
VERTEX
  5
1D726
  8
0
 10
245.40160370991791
 20
141.43706706812989
 30
0.0
  0
VERTEX
  5
1D727
  8
0
 10
245.23080585518599
 20
141.51842439083001
 30
0.0
  0
VERTEX
  5
1D728
  8
0
 10
245.04180235781411
 20
141.5562269324019
 30
0.0
  0
VERTEX
  5
1D729
  8
0
 10
244.8488472215181
 20
141.53883687215389
 30
0.0
  0
VERTEX
  5
1D72A
  8
0
 10
244.66720892113401
 20
141.47418426343
 30
0.0
  0
VERTEX
  5
1D72B
  8
0
 10
244.5080432109701
 20
141.36957636097401
 30
0.0
  0
VERTEX
  5
1D72C
  8
0
 10
244.16504917667001
 20
140.94612123439401
 30
0.0
  0
VERTEX
  5
1D72D
  8
0
 10
243.88206316154611
 20
140.314858374126
 30
0.0
  0
VERTEX
  5
1D72E
  8
0
 10
243.69361488150599
 20
139.70024014355391
 30
0.0
  0
VERTEX
  5
1D72F
  8
0
 10
243.55873135850601
 20
139.14495004801799
 30
0.0
  0
VERTEX
  5
1D730
  8
0
 10
243.4633847884941
 20
138.67900666309791
 30
0.0
  0
VERTEX
  5
1D731
  8
0
 10
243.3968409709139
 20
138.33486920689
 30
0.0
  0
VERTEX
  5
1D732
  8
0
 10
243.35842816160221
 20
138.1304108769979
 30
0.0
  0
VERTEX
  5
1D733
  8
0
 10
243.33420423785401
 20
138.06425519748191
 30
0.0
  0
SEQEND
  5
1D734
  8
0
  0
LINE
  5
1BA38
  8
0
 10
246.9951899907999
 20
139.25119779999989
 30
0.0
 11
246.8432167731001
 21
139.53750056209989
 31
0.0
  0
LINE
  5
1BA56
  8
0
 10
171.96141352869989
 20
149.51194833959991
 30
0.0
 11
171.96100747210011
 21
159.01194803419989
 31
0.0
  0
LINE
  5
1BA5A
  8
0
 10
190.7588930987001
 20
229.11531536960001
 30
0.0
 11
190.7588930987001
 21
227.1153150418001
 31
0.0
  0
ARC
  5
1BA5D
  8
0
 10
245.7626553775001
 20
231.0412185806
 30
0.0
 40
5.7336964152785397
 50
279.56597103949781
 51
0.7404595461215763
  0
LINE
  5
1BA5F
  8
0
 10
217.79946221039989
 20
226.4815016010001
 30
0.0
 11
218.80639327690011
 21
226.44741705740009
 31
0.0
  0
ARC
  5
1BA6A
  8
0
 10
183.68798907120001
 20
226.11531533639999
 30
0.0
 40
0.5
 50
270.0
 51
0.0
  0
ARC
  5
1BA6B
  8
0
 10
179.68798907120001
 20
226.11531533639999
 30
0.0
 40
0.5
 50
180.0
 51
270.0
  0
LINE
  5
1BA6E
  8
0
 10
179.1879886947001
 20
227.1153150418001
 30
0.0
 11
179.1879886947001
 21
226.11531487779999
 31
0.0
  0
LINE
  5
1BA6F
  8
0
 10
184.1879890486
 20
226.11531487779999
 30
0.0
 11
184.1879890486
 21
227.1153150418001
 31
0.0
  0
ARC
  5
1BA72
  8
0
 10
191.04798907120019
 20
226.11531533639999
 30
0.0
 40
0.5000000000000285
 50
270.0
 51
0.0
  0
ARC
  5
1BA73
  8
0
 10
187.04798907120011
 20
226.11531533639999
 30
0.0
 40
0.5000000000000285
 50
180.0
 51
270.0
  0
LINE
  5
1BA76
  8
0
 10
186.54798909089999
 20
227.1153150418001
 30
0.0
 11
186.54798909089999
 21
226.11531487779999
 31
0.0
  0
LINE
  5
1BA77
  8
0
 10
191.5479889790999
 20
226.11531487779999
 30
0.0
 11
191.5479889790999
 21
227.1153150418001
 31
0.0
  0
ARC
  5
1BA79
  8
0
 10
200.1653174585999
 20
226.11531533639999
 30
0.0
 40
0.5
 50
270.0
 51
0.0
  0
LINE
  5
1BA7B
  8
0
 10
200.6653173081001
 20
226.11531487779999
 30
0.0
 11
200.6653173081001
 21
227.1153150418001
 31
0.0
  0
ARC
  5
1BA7F
  8
0
 10
196.92996329059989
 20
226.11531533639999
 30
0.0
 40
0.5
 50
270.0
 51
0.0
  0
ARC
  5
1BA80
  8
0
 10
192.92996329059989
 20
226.11531533639999
 30
0.0
 40
0.5
 50
180.0
 51
270.0
  0
LINE
  5
1BA83
  8
0
 10
192.42996333159999
 20
227.1153150418001
 30
0.0
 11
192.42996333159999
 21
226.11531487779999
 31
0.0
  0
LINE
  5
1BA84
  8
0
 10
197.42996321989989
 20
226.11531487779999
 30
0.0
 11
197.42996321989989
 21
227.1153150418001
 31
0.0
  0
ARC
  5
1BA88
  8
0
 10
203.9478884719999
 20
226.11531533639999
 30
0.0
 40
0.5
 50
270.0
 51
0.0
  0
LINE
  5
1BA8A
  8
0
 10
204.44788767019989
 20
226.11531487779999
 30
0.0
 11
204.44788767019989
 21
227.1153150418001
 31
0.0
  0
LINE
  5
1BA8D
  8
0
 10
205.12288792060011
 20
229.11531536960001
 30
0.0
 11
205.12288792060011
 21
231.11531569740001
 31
0.0
  0
LINE
  5
1BA8E
  8
0
 10
199.31996317580001
 20
229.11531536960001
 30
0.0
 11
199.31996317580001
 21
231.11531569740001
 31
0.0
  0
LINE
  5
1BAA2
  8
0
 10
171.96100747210011
 20
231.11531569740001
 30
0.0
 11
205.12288792060031
 21
231.11531569740009
 31
0.0
  0
LINE
  5
1BAB4
  8
0
 10
206.9363331607999
 20
227.1153150418001
 30
0.0
 11
177.96798871829989
 21
227.1153150418001
 31
0.0
  0
LINE
  5
1BAB5
  8
0
 10
171.9614128833
 20
229.1153153364001
 30
0.0
 11
206.9363331607999
 21
229.11531536960001
 31
0.0
  0
ARC
  5
1BAB6
  8
0
 10
206.9362068927
 20
229.78757119139999
 30
0.0
 40
0.6722558337187347
 50
270.01076172280227
 51
293.04264262139651
  0
ARC
  5
1BAB8
  8
0
 10
206.93616026950011
 20
229.78546627910009
 30
0.0
 40
2.6701512429064702
 50
270.0037098806983
 51
292.27556634549779
  0
LINE
  5
1BABE
  8
0
 10
211.1909518204609
 20
230.91708927534049
 30
0.0
 11
206.72319524489399
 21
229.11531536939771
 31
0.0
  0
ARC
  5
1BAC3
  8
0
 10
212.44255099793369
 20
228.4607880367
 30
0.0
 40
2.6545395709681139
 50
89.828365749017735
 51
112.2831894675755
  0
ARC
  5
1BAC4
  8
0
 10
212.20777069305149
 20
228.40843566472901
 30
0.0
 40
2.706891862947423
 50
89.830605314703291
 51
112.06392024302301
  0
ARC
  5
1BAC6
  8
0
 10
212.45050281999991
 20
228.43224713399999
 30
0.0
 40
0.6841113240484598
 50
90.00831386750157
 51
112.8393965027018
  0
LINE
  5
1BAC7
  8
0
 10
212.450502879092
 20
231.11531569740009
 30
0.0
 11
215.90186373630559
 21
231.11531569740009
 31
0.0
  0
LINE
  5
1BAC8
  8
0
 10
215.88599253364899
 20
229.11635845090001
 30
0.0
 11
212.45040355249989
 21
229.11635845090001
 31
0.0
  0
POLYLINE
  5
1BACA
  8
0
 66
     1
 10
0.0
 20
0.0
 30
0.0
 70
   128
  0
VERTEX
  5
1D735
  8
0
 10
246.20012735940011
 20
225.39831942999999
 30
0.0
  0
VERTEX
  5
1D736
  8
0
 10
245.97029184920009
 20
225.37246218999999
 30
0.0
  0
VERTEX
  5
1D737
  8
0
 10
245.7774037680999
 20
225.34809320350001
 30
0.0
  0
VERTEX
  5
1D738
  8
0
 10
245.63770538189991
 20
225.32807535609999
 30
0.0
  0
VERTEX
  5
1D739
  8
0
 10
245.52541023119991
 20
225.30832386690011
 30
0.0
  0
VERTEX
  5
1D73A
  8
0
 10
245.47475000840001
 20
225.29083362899999
 30
0.0
  0
VERTEX
  5
1D73B
  8
0
 10
245.50384825090009
 20
225.27704074170001
 30
0.0
  0
VERTEX
  5
1D73C
  8
0
 10
245.6117959879
 20
225.26789887930011
 30
0.0
  0
VERTEX
  5
1D73D
  8
0
 10
245.77126076440001
 20
225.26573076029999
 30
0.0
  0
VERTEX
  5
1D73E
  8
0
 10
245.97557058550001
 20
225.27236363969999
 30
0.0
  0
VERTEX
  5
1D73F
  8
0
 10
246.01527845480001
 20
225.27469194610001
 30
0.0
  0
VERTEX
  5
1D740
  8
0
 10
246.24617194749999
 20
225.29483645340011
 30
0.0
  0
VERTEX
  5
1D741
  8
0
 10
246.43518200140011
 20
225.32059683579999
 30
0.0
  0
VERTEX
  5
1D742
  8
0
 10
246.59931829199991
 20
225.3527647176
 30
0.0
  0
VERTEX
  5
1D743
  8
0
 10
246.69727852560001
 20
225.38165248120001
 30
0.0
  0
VERTEX
  5
1D744
  8
0
 10
246.73988094550009
 20
225.407610304
 30
0.0
  0
VERTEX
  5
1D745
  8
0
 10
246.70965021469991
 20
225.4256686487
 30
0.0
  0
VERTEX
  5
1D746
  8
0
 10
246.6030137799001
 20
225.4302395799001
 30
0.0
  0
VERTEX
  5
1D747
  8
0
 10
246.4316690527001
 20
225.4207214632001
 30
0.0
  0
VERTEX
  5
1D748
  8
0
 10
246.24152651050011
 20
225.4026910581
 30
0.0
  0
VERTEX
  5
1D749
  8
0
 10
246.20012735940011
 20
225.39831942999999
 30
0.0
  0
SEQEND
  5
1D74A
  8
0
  0
POLYLINE
  5
1BACB
  8
0
 66
     1
 10
0.0
 20
0.0
 30
0.0
 70
   128
  0
VERTEX
  5
1D74B
  8
0
 10
242.48651584609999
 20
226.73336661540009
 30
0.0
  0
VERTEX
  5
1D74C
  8
0
 10
242.2578090987999
 20
226.72531440040001
 30
0.0
  0
VERTEX
  5
1D74D
  8
0
 10
242.0544641278
 20
226.676878176
 30
0.0
  0
VERTEX
  5
1D74E
  8
0
 10
241.9054301642
 20
226.6019644507
 30
0.0
  0
VERTEX
  5
1D74F
  8
0
 10
241.813739594
 20
226.5043096908
 30
0.0
  0
VERTEX
  5
1D750
  8
0
 10
241.80280214170011
 20
226.4092626341
 30
0.0
  0
VERTEX
  5
1D751
  8
0
 10
241.85912108049999
 20
226.32041073520011
 30
0.0
  0
VERTEX
  5
1D752
  8
0
 10
241.98702147230011
 20
226.24068952280001
 30
0.0
  0
VERTEX
  5
1D753
  8
0
 10
242.1578632854
 20
226.1869373091001
 30
0.0
  0
VERTEX
  5
1D754
  8
0
 10
242.3670495115
 20
226.15440993690001
 30
0.0
  0
VERTEX
  5
1D755
  8
0
 10
242.44154041629989
 20
226.1493007012001
 30
0.0
  0
VERTEX
  5
1D756
  8
0
 10
242.66985228279989
 20
226.15329048710009
 30
0.0
  0
VERTEX
  5
1D757
  8
0
 10
242.8714389167001
 20
226.18583089789999
 30
0.0
  0
VERTEX
  5
1D758
  8
0
 10
243.02865734319991
 20
226.24831891740001
 30
0.0
  0
VERTEX
  5
1D759
  8
0
 10
243.11318418010001
 20
226.32921359620011
 30
0.0
  0
VERTEX
  5
1D75A
  8
0
 10
243.1282306276
 20
226.4298057475001
 30
0.0
  0
VERTEX
  5
1D75B
  8
0
 10
243.06554889299991
 20
226.5278591134001
 30
0.0
  0
VERTEX
  5
1D75C
  8
0
 10
242.95015057549989
 20
226.61059036040001
 30
0.0
  0
VERTEX
  5
1D75D
  8
0
 10
242.77237972239999
 20
226.68450011990001
 30
0.0
  0
VERTEX
  5
1D75E
  8
0
 10
242.5532581471
 20
226.72806180200001
 30
0.0
  0
VERTEX
  5
1D75F
  8
0
 10
242.48651584609999
 20
226.73336661540009
 30
0.0
  0
SEQEND
  5
1D760
  8
0
  0
POLYLINE
  5
1BACC
  8
0
 66
     1
 10
0.0
 20
0.0
 30
0.0
 70
   128
  0
VERTEX
  5
1D761
  8
0
 10
240.43769186360009
 20
226.0249635496001
 30
0.0
  0
VERTEX
  5
1D762
  8
0
 10
240.20971899849999
 20
226.0235349008
 30
0.0
  0
VERTEX
  5
1D763
  8
0
 10
240.00779336319991
 20
225.99890328129999
 30
0.0
  0
VERTEX
  5
1D764
  8
0
 10
239.8577572964
 20
225.95780587869999
 30
0.0
  0
VERTEX
  5
1D765
  8
0
 10
239.7696169278999
 20
225.90430698480009
 30
0.0
  0
VERTEX
  5
1D766
  8
0
 10
239.76226693020001
 20
225.8523838886
 30
0.0
  0
VERTEX
  5
1D767
  8
0
 10
239.8234846256
 20
225.8033888706
 30
0.0
  0
VERTEX
  5
1D768
  8
0
 10
239.95584418990009
 20
225.76069145580001
 30
0.0
  0
VERTEX
  5
1D769
  8
0
 10
240.12362381439999
 20
225.7322153368001
 30
0.0
  0
VERTEX
  5
1D76A
  8
0
 10
240.32916298129999
 20
225.7132722356001
 30
0.0
  0
VERTEX
  5
1D76B
  8
0
 10
240.38832804180021
 20
225.7102323987001
 30
0.0
  0
VERTEX
  5
1D76C
  8
0
 10
240.6163195334
 20
225.70802143890009
 30
0.0
  0
VERTEX
  5
1D76D
  8
0
 10
240.81305583939999
 20
225.72064644779999
 30
0.0
  0
VERTEX
  5
1D76E
  8
0
 10
240.96762185910009
 20
225.7497353771
 30
0.0
  0
VERTEX
  5
1D76F
  8
0
 10
241.0509417019
 20
225.7911047258001
 30
0.0
  0
VERTEX
  5
1D770
  8
0
 10
241.0637455246999
 20
225.8453933813
 30
0.0
  0
VERTEX
  5
1D771
  8
0
 10
240.99944701419989
 20
225.9013062634001
 30
0.0
  0
VERTEX
  5
1D772
  8
0
 10
240.88014459230001
 20
225.95151945140009
 30
0.0
  0
VERTEX
  5
1D773
  8
0
 10
240.6994419358
 20
225.99637753450011
 30
0.0
  0
VERTEX
  5
1D774
  8
0
 10
240.4942827484999
 20
226.0216629424001
 30
0.0
  0
VERTEX
  5
1D775
  8
0
 10
240.43769186360009
 20
226.0249635496001
 30
0.0
  0
SEQEND
  5
1D776
  8
0
  0
POLYLINE
  5
1BACD
  8
0
 66
     1
 10
0.0
 20
0.0
 30
0.0
 70
   128
  0
VERTEX
  5
1D777
  8
0
 10
242.31497740369991
 20
225.5210155912001
 30
0.0
  0
VERTEX
  5
1D778
  8
0
 10
242.08646809679999
 20
225.52678979120009
 30
0.0
  0
VERTEX
  5
1D779
  8
0
 10
241.88708310940001
 20
225.5221536674
 30
0.0
  0
VERTEX
  5
1D77A
  8
0
 10
241.7390773259001
 20
225.51013774360001
 30
0.0
  0
VERTEX
  5
1D77B
  8
0
 10
241.64648523549999
 20
225.49276112699999
 30
0.0
  0
VERTEX
  5
1D77C
  8
0
 10
241.6311929188
 20
225.4743209400001
 30
0.0
  0
VERTEX
  5
1D77D
  8
0
 10
241.6894192062
 20
225.45659787139999
 30
0.0
  0
VERTEX
  5
1D77E
  8
0
 10
241.81933498010011
 20
225.44062941449999
 30
0.0
  0
VERTEX
  5
1D77F
  8
0
 10
241.98339676480009
 20
225.42818880760001
 30
0.0
  0
VERTEX
  5
1D780
  8
0
 10
242.1873303315999
 20
225.41688068889999
 30
0.0
  0
VERTEX
  5
1D781
  8
0
 10
242.22758581860009
 20
225.4150143184001
 30
0.0
  0
VERTEX
  5
1D782
  8
0
 10
242.4563819728001
 20
225.4064908542
 30
0.0
  0
VERTEX
  5
1D783
  8
0
 10
242.6427768728999
 20
225.40283634450009
 30
0.0
  0
VERTEX
  5
1D784
  8
0
 10
242.80091544609991
 20
225.40494858410011
 30
0.0
  0
VERTEX
  5
1D785
  8
0
 10
242.89246818049989
 20
225.41455610770009
 30
0.0
  0
VERTEX
  5
1D786
  8
0
 10
242.91127344590001
 20
225.4324896552001
 30
0.0
  0
VERTEX
  5
1D787
  8
0
 10
242.8518587909
 20
225.45549891080009
 30
0.0
  0
VERTEX
  5
1D788
  8
0
 10
242.73177033289991
 20
225.48000014510009
 30
0.0
  0
VERTEX
  5
1D789
  8
0
 10
242.55190586670011
 20
225.5036296614
 30
0.0
  0
VERTEX
  5
1D78A
  8
0
 10
242.3600273393001
 20
225.51865561980011
 30
0.0
  0
VERTEX
  5
1D78B
  8
0
 10
242.31497740369991
 20
225.5210155912001
 30
0.0
  0
SEQEND
  5
1D78C
  8
0
  0
POLYLINE
  5
1BACE
  8
0
 66
     1
 10
0.0
 20
0.0
 30
0.0
 70
   128
  0
VERTEX
  5
1D78D
  8
0
 10
248.2523376307999
 20
226.5302228101001
 30
0.0
  0
VERTEX
  5
1D78E
  8
0
 10
248.0506988428001
 20
226.42053722520001
 30
0.0
  0
VERTEX
  5
1D78F
  8
0
 10
247.8778826258999
 20
226.3047999062
 30
0.0
  0
VERTEX
  5
1D790
  8
0
 10
247.7492669783
 20
226.19992739640011
 30
0.0
  0
VERTEX
  5
1D791
  8
0
 10
247.64864316209989
 20
226.09253100239999
 30
0.0
  0
VERTEX
  5
1D792
  8
0
 10
247.61171808459989
 20
226.00936203379999
 30
0.0
  0
VERTEX
  5
1D793
  8
0
 10
247.64054065569979
 20
225.9596126445
 30
0.0
  0
VERTEX
  5
1D794
  8
0
 10
247.73634022100009
 20
225.9444637515
 30
0.0
  0
VERTEX
  5
1D795
  8
0
 10
247.88629060609989
 20
225.96997640210009
 30
0.0
  0
VERTEX
  5
1D796
  8
0
 10
248.07694723830019
 20
226.03562905570001
 30
0.0
  0
VERTEX
  5
1D797
  8
0
 10
248.12442978839999
 20
226.05637892270011
 30
0.0
  0
VERTEX
  5
1D798
  8
0
 10
248.32888862110011
 20
226.16435087400009
 30
0.0
  0
VERTEX
  5
1D799
  8
0
 10
248.49432503799989
 20
226.2754874595
 30
0.0
  0
VERTEX
  5
1D79A
  8
0
 10
248.6419843696001
 20
226.4026856341001
 30
0.0
  0
VERTEX
  5
1D79B
  8
0
 10
248.73235618690001
 20
226.51385947250009
 30
0.0
  0
VERTEX
  5
1D79C
  8
0
 10
248.7640546821001
 20
226.60432442210001
 30
0.0
  0
VERTEX
  5
1D79D
  8
0
 10
248.72693588950011
 20
226.65401606940009
 30
0.0
  0
VERTEX
  5
1D79E
  8
0
 10
248.6344965360999
 20
226.66130459990009
 30
0.0
  0
VERTEX
  5
1D79F
  8
0
 10
248.48518690090009
 20
226.62691830780011
 30
0.0
  0
VERTEX
  5
1D7A0
  8
0
 10
248.30153381449989
 20
226.55357292970001
 30
0.0
  0
VERTEX
  5
1D7A1
  8
0
 10
248.2523376307999
 20
226.5302228101001
 30
0.0
  0
SEQEND
  5
1D7A2
  8
0
  0
POLYLINE
  5
1BACF
  8
0
 66
     1
 10
0.0
 20
0.0
 30
0.0
 70
   128
  0
VERTEX
  5
1D7A3
  8
0
 10
244.47030371049999
 20
227.99438110669999
 30
0.0
  0
VERTEX
  5
1D7A4
  8
0
 10
244.24270337440001
 20
227.95744299079999
 30
0.0
  0
VERTEX
  5
1D7A5
  8
0
 10
244.0509552322001
 20
227.8671773442
 30
0.0
  0
VERTEX
  5
1D7A6
  8
0
 10
243.91870742659989
 20
227.74957924270001
 30
0.0
  0
VERTEX
  5
1D7A7
  8
0
 10
243.8330108486
 20
227.59687773069999
 30
0.0
  0
VERTEX
  5
1D7A8
  8
0
 10
243.82357468829991
 20
227.44091100180009
 30
0.0
  0
VERTEX
  5
1D7A9
  8
0
 10
243.8836487196001
 20
227.29856020890011
 30
0.0
  0
VERTEX
  5
1D7AA
  8
0
 10
244.0155724249
 20
227.1710416593001
 30
0.0
  0
VERTEX
  5
1D7AB
  8
0
 10
244.19944902879999
 20
227.0846261003
 30
0.0
  0
VERTEX
  5
1D7AC
  8
0
 10
244.42158063869991
 20
227.04428120630001
 30
0.0
  0
VERTEX
  5
1D7AD
  8
0
 10
244.49300562959999
 20
227.04304813530001
 30
0.0
  0
VERTEX
  5
1D7AE
  8
0
 10
244.7207028231999
 20
227.0762032189001
 30
0.0
  0
VERTEX
  5
1D7AF
  8
0
 10
244.9163401685
 20
227.1578839340001
 30
0.0
  0
VERTEX
  5
1D7B0
  8
0
 10
245.0650239549
 20
227.28576383670011
 30
0.0
  0
VERTEX
  5
1D7B1
  8
0
 10
245.1362924836001
 20
227.4249015667001
 30
0.0
  0
VERTEX
  5
1D7B2
  8
0
 10
245.1456764899001
 20
227.5833027729
 30
0.0
  0
VERTEX
  5
1D7B3
  8
0
 10
245.0788298807999
 20
227.7408583381
 30
0.0
  0
VERTEX
  5
1D7B4
  8
0
 10
244.95081773019999
 20
227.8645305254
 30
0.0
  0
VERTEX
  5
1D7B5
  8
0
 10
244.76232921699989
 20
227.9562117823001
 30
0.0
  0
VERTEX
  5
1D7B6
  8
0
 10
244.5365207456
 20
227.99433454059999
 30
0.0
  0
VERTEX
  5
1D7B7
  8
0
 10
244.47030371049999
 20
227.99438110669999
 30
0.0
  0
SEQEND
  5
1D7B8
  8
0
  0
POLYLINE
  5
1BAD0
  8
0
 66
     1
 10
0.0
 20
0.0
 30
0.0
 70
   128
  0
VERTEX
  5
1D7B9
  8
0
 10
246.4969882928001
 20
226.8889850297
 30
0.0
  0
VERTEX
  5
1D7BA
  8
0
 10
246.2782206199999
 20
226.816330693
 30
0.0
  0
VERTEX
  5
1D7BB
  8
0
 10
246.0821660421
 20
226.71183816280001
 30
0.0
  0
VERTEX
  5
1D7BC
  8
0
 10
245.93828042969989
 20
226.59651621360001
 30
0.0
  0
VERTEX
  5
1D7BD
  8
0
 10
245.84515189749999
 20
226.46878718520011
 30
0.0
  0
VERTEX
  5
1D7BE
  8
0
 10
245.8295131288001
 20
226.35720542749999
 30
0.0
  0
VERTEX
  5
1D7BF
  8
0
 10
245.88196521619989
 20
226.26584827089999
 30
0.0
  0
VERTEX
  5
1D7C0
  8
0
 10
246.0066953860001
 20
226.1983497360001
 30
0.0
  0
VERTEX
  5
1D7C1
  8
0
 10
246.17910554630001
 20
226.17135255720001
 30
0.0
  0
VERTEX
  5
1D7C2
  8
0
 10
246.39025872569999
 20
226.18389374700001
 30
0.0
  0
VERTEX
  5
1D7C3
  8
0
 10
246.4586103521001
 20
226.1963846453001
 30
0.0
  0
VERTEX
  5
1D7C4
  8
0
 10
246.67949026449989
 20
226.26396327399999
 30
0.0
  0
VERTEX
  5
1D7C5
  8
0
 10
246.87361886719989
 20
226.36301315509999
 30
0.0
  0
VERTEX
  5
1D7C6
  8
0
 10
247.0272796413999
 20
226.48929118300001
 30
0.0
  0
VERTEX
  5
1D7C7
  8
0
 10
247.1093030832001
 20
226.61343648220009
 30
0.0
  0
VERTEX
  5
1D7C8
  8
0
 10
247.12661450729999
 20
226.73810518470009
 30
0.0
  0
VERTEX
  5
1D7C9
  8
0
 10
247.06765806300001
 20
226.83731525319999
 30
0.0
  0
VERTEX
  5
1D7CA
  8
0
 10
246.95038219910001
 20
226.8986111798001
 30
0.0
  0
VERTEX
  5
1D7CB
  8
0
 10
246.77306583149991
 20
226.92412383039999
 30
0.0
  0
VERTEX
  5
1D7CC
  8
0
 10
246.56354432920011
 20
226.9036291458001
 30
0.0
  0
VERTEX
  5
1D7CD
  8
0
 10
246.4969882928001
 20
226.8889850297
 30
0.0
  0
SEQEND
  5
1D7CE
  8
0
  0
POLYLINE
  5
1BAD1
  8
0
 66
     1
 10
0.0
 20
0.0
 30
0.0
 70
   128
  0
VERTEX
  5
1D7CF
  8
0
 10
244.42049285389999
 20
225.82551895760011
 30
0.0
  0
VERTEX
  5
1D7D0
  8
0
 10
244.2006560227999
 20
225.82745424589999
 30
0.0
  0
VERTEX
  5
1D7D1
  8
0
 10
243.99076944210009
 20
225.8072017052001
 30
0.0
  0
VERTEX
  5
1D7D2
  8
0
 10
243.8316213153
 20
225.77044240320009
 30
0.0
  0
VERTEX
  5
1D7D3
  8
0
 10
243.72841587290009
 20
225.7202590176
 30
0.0
  0
VERTEX
  5
1D7D4
  8
0
 10
243.70593747120009
 20
225.66876246710009
 30
0.0
  0
VERTEX
  5
1D7D5
  8
0
 10
243.75461583949999
 20
225.6197227456
 30
0.0
  0
VERTEX
  5
1D7D6
  8
0
 10
243.87752434239999
 20
225.57515709780009
 30
0.0
  0
VERTEX
  5
1D7D7
  8
0
 10
244.04347112400001
 20
225.54361133949999
 30
0.0
  0
VERTEX
  5
1D7D8
  8
0
 10
244.24925243480021
 20
225.5213098892001
 30
0.0
  0
VERTEX
  5
1D7D9
  8
0
 10
244.31754818179999
 20
225.51680228790011
 30
0.0
  0
VERTEX
  5
1D7DA
  8
0
 10
244.53748932109991
 20
225.51110073109999
 30
0.0
  0
VERTEX
  5
1D7DB
  8
0
 10
244.73899772390001
 20
225.51932058419999
 30
0.0
  0
VERTEX
  5
1D7DC
  8
0
 10
244.90626325829999
 20
225.54423346300001
 30
0.0
  0
VERTEX
  5
1D7DD
  8
0
 10
245.00329589470019
 20
225.5834402808
 30
0.0
  0
VERTEX
  5
1D7DE
  8
0
 10
245.0322078726999
 20
225.6374998309
 30
0.0
  0
VERTEX
  5
1D7DF
  8
0
 10
244.98119002199999
 20
225.69487116420009
 30
0.0
  0
VERTEX
  5
1D7E0
  8
0
 10
244.86914446569989
 20
225.7459355809001
 30
0.0
  0
VERTEX
  5
1D7E1
  8
0
 10
244.69371309499999
 20
225.79235642340001
 30
0.0
  0
VERTEX
  5
1D7E2
  8
0
 10
244.4894069991999
 20
225.8206388273
 30
0.0
  0
VERTEX
  5
1D7E3
  8
0
 10
244.42049285389999
 20
225.82551895760011
 30
0.0
  0
SEQEND
  5
1D7E4
  8
0
  0
POLYLINE
  5
1BAD2
  8
0
 66
     1
 10
0.0
 20
0.0
 30
0.0
 70
   128
  0
VERTEX
  5
1D7E5
  8
0
 10
228.7057096325
 20
226.55139363489999
 30
0.0
  0
VERTEX
  5
1D7E6
  8
0
 10
228.47815772519991
 20
226.546737022
 30
0.0
  0
VERTEX
  5
1D7E7
  8
0
 10
228.2864319347
 20
226.5151745
 30
0.0
  0
VERTEX
  5
1D7E8
  8
0
 10
228.14886068920009
 20
226.4668966003
 30
0.0
  0
VERTEX
  5
1D7E9
  8
0
 10
228.06470265610011
 20
226.4037492045
 30
0.0
  0
VERTEX
  5
1D7EA
  8
0
 10
228.05852612480001
 20
226.34133010290009
 30
0.0
  0
VERTEX
  5
1D7EB
  8
0
 10
228.12216898419999
 20
226.2839531817001
 30
0.0
  0
VERTEX
  5
1D7EC
  8
0
 10
228.25668549160019
 20
226.23461916229999
 30
0.0
  0
VERTEX
  5
1D7ED
  8
0
 10
228.43195294959989
 20
226.20126291299999
 30
0.0
  0
VERTEX
  5
1D7EE
  8
0
 10
228.64352708679991
 20
226.18044226550009
 30
0.0
  0
VERTEX
  5
1D7EF
  8
0
 10
228.69672050700001
 20
226.17774329270009
 30
0.0
  0
VERTEX
  5
1D7F0
  8
0
 10
228.92405634740001
 20
226.1772906699
 30
0.0
  0
VERTEX
  5
1D7F1
  8
0
 10
229.11010479550009
 20
226.1931753077001
 30
0.0
  0
VERTEX
  5
1D7F2
  8
0
 10
229.25743630149989
 20
226.22782795809999
 30
0.0
  0
VERTEX
  5
1D7F3
  8
0
 10
229.33345457539991
 20
226.27576685630001
 30
0.0
  0
VERTEX
  5
1D7F4
  8
0
 10
229.34290191159999
 20
226.33873543819999
 30
0.0
  0
VERTEX
  5
1D7F5
  8
0
 10
229.2763794027
 20
226.4066642442001
 30
0.0
  0
VERTEX
  5
1D7F6
  8
0
 10
229.15080731730021
 20
226.46829544689999
 30
0.0
  0
VERTEX
  5
1D7F7
  8
0
 10
228.96558588369999
 20
226.52066557789999
 30
0.0
  0
VERTEX
  5
1D7F8
  8
0
 10
228.76008024440009
 20
226.5482457646001
 30
0.0
  0
VERTEX
  5
1D7F9
  8
0
 10
228.7057096325
 20
226.55139363489999
 30
0.0
  0
SEQEND
  5
1D7FA
  8
0
  0
POLYLINE
  5
1BAD3
  8
0
 66
     1
 10
0.0
 20
0.0
 30
0.0
 70
   128
  0
VERTEX
  5
1D7FB
  8
0
 10
230.6866439245
 20
227.39758960090009
 30
0.0
  0
VERTEX
  5
1D7FC
  8
0
 10
230.45861145479989
 20
227.38590709050001
 30
0.0
  0
VERTEX
  5
1D7FD
  8
0
 10
230.26537319639991
 20
227.32990293879999
 30
0.0
  0
VERTEX
  5
1D7FE
  8
0
 10
230.12606969100011
 20
227.24572069129999
 30
0.0
  0
VERTEX
  5
1D7FF
  8
0
 10
230.03883084280011
 20
227.13408677960001
 30
0.0
  0
VERTEX
  5
1D800
  8
0
 10
230.0294095836
 20
227.0212961652
 30
0.0
  0
VERTEX
  5
1D801
  8
0
 10
230.09013554079999
 20
226.9154792943001
 30
0.0
  0
VERTEX
  5
1D802
  8
0
 10
230.2219959162
 20
226.8238129385
 30
0.0
  0
VERTEX
  5
1D803
  8
0
 10
230.394476857
 20
226.76329373499999
 30
0.0
  0
VERTEX
  5
1D804
  8
0
 10
230.6039424799001
 20
226.72841384189999
 30
0.0
  0
VERTEX
  5
1D805
  8
0
 10
230.66205700859999
 20
226.72450228710011
 30
0.0
  0
VERTEX
  5
1D806
  8
0
 10
230.88981380679999
 20
226.73217079720001
 30
0.0
  0
VERTEX
  5
1D807
  8
0
 10
231.07964714990001
 20
226.7714483955001
 30
0.0
  0
VERTEX
  5
1D808
  8
0
 10
231.2283607386
 20
226.84408596840009
 30
0.0
  0
VERTEX
  5
1D809
  8
0
 10
231.30582442499991
 20
226.93575977469999
 30
0.0
  0
VERTEX
  5
1D80A
  8
0
 10
231.3179353438
 20
227.0491669246
 30
0.0
  0
VERTEX
  5
1D80B
  8
0
 10
231.25424778089999
 20
227.16583742879999
 30
0.0
  0
VERTEX
  5
1D80C
  8
0
 10
231.13136162980001
 20
227.26738884230011
 30
0.0
  0
VERTEX
  5
1D80D
  8
0
 10
230.9483977221
 20
227.35098994460009
 30
0.0
  0
VERTEX
  5
1D80E
  8
0
 10
230.74265366419991
 20
227.39321797270011
 30
0.0
  0
VERTEX
  5
1D80F
  8
0
 10
230.6866439245
 20
227.39758960090009
 30
0.0
  0
SEQEND
  5
1D810
  8
0
  0
POLYLINE
  5
1BAD4
  8
0
 66
     1
 10
0.0
 20
0.0
 30
0.0
 70
   128
  0
VERTEX
  5
1D811
  8
0
 10
234.52885618430011
 20
225.8298794099
 30
0.0
  0
VERTEX
  5
1D812
  8
0
 10
234.30170288310001
 20
225.83328059990001
 30
0.0
  0
VERTEX
  5
1D813
  8
0
 10
234.11002179600001
 20
225.82666820969999
 30
0.0
  0
VERTEX
  5
1D814
  8
0
 10
233.97226801139999
 20
225.8142257401
 30
0.0
  0
VERTEX
  5
1D815
  8
0
 10
233.89000615100011
 20
225.7983280637001
 30
0.0
  0
VERTEX
  5
1D816
  8
0
 10
233.8856922649
 20
225.7838217833
 30
0.0
  0
VERTEX
  5
1D817
  8
0
 10
233.9516448043
 20
225.7716996887001
 30
0.0
  0
VERTEX
  5
1D818
  8
0
 10
234.0884076617001
 20
225.7614178874
 30
0.0
  0
VERTEX
  5
1D819
  8
0
 10
234.26272517069989
 20
225.752769626
 30
0.0
  0
VERTEX
  5
1D81A
  8
0
 10
234.47330838069999
 20
225.74353835660011
 30
0.0
  0
VERTEX
  5
1D81B
  8
0
 10
234.52299257739989
 20
225.74139631470001
 30
0.0
  0
VERTEX
  5
1D81C
  8
0
 10
234.74999686699991
 20
225.7318707474
 30
0.0
  0
VERTEX
  5
1D81D
  8
0
 10
234.9343428574
 20
225.72555265509999
 30
0.0
  0
VERTEX
  5
1D81E
  8
0
 10
235.08130555970001
 20
225.72443879330001
 30
0.0
  0
VERTEX
  5
1D81F
  8
0
 10
235.15764793380001
 20
225.7309356996
 30
0.0
  0
VERTEX
  5
1D820
  8
0
 10
235.16552692280021
 20
225.74616468630001
 30
0.0
  0
VERTEX
  5
1D821
  8
0
 10
235.09693315249999
 20
225.7677285292001
 30
0.0
  0
VERTEX
  5
1D822
  8
0
 10
234.9701093696001
 20
225.7908383676
 30
0.0
  0
VERTEX
  5
1D823
  8
0
 10
234.7842099330999
 20
225.8133204945
 30
0.0
  0
VERTEX
  5
1D824
  8
0
 10
234.5808686874
 20
225.8276349225001
 30
0.0
  0
VERTEX
  5
1D825
  8
0
 10
234.52885618430011
 20
225.8298794099
 30
0.0
  0
SEQEND
  5
1D826
  8
0
  0
POLYLINE
  5
1BAD5
  8
0
 66
     1
 10
0.0
 20
0.0
 30
0.0
 70
   128
  0
VERTEX
  5
1D827
  8
0
 10
232.60074278339991
 20
226.3765583106001
 30
0.0
  0
VERTEX
  5
1D828
  8
0
 10
232.3731983266
 20
226.37275851449999
 30
0.0
  0
VERTEX
  5
1D829
  8
0
 10
232.18058964229999
 20
226.34289472480009
 30
0.0
  0
VERTEX
  5
1D82A
  8
0
 10
232.04185983159999
 20
226.2964645692
 30
0.0
  0
VERTEX
  5
1D82B
  8
0
 10
231.95783218369999
 20
226.2356268533
 30
0.0
  0
VERTEX
  5
1D82C
  8
0
 10
231.9519238732
 20
226.1754541018
 30
0.0
  0
VERTEX
  5
1D82D
  8
0
 10
232.0155071280999
 20
226.11989698490001
 30
0.0
  0
VERTEX
  5
1D82E
  8
0
 10
232.1497963926999
 20
226.07200651550011
 30
0.0
  0
VERTEX
  5
1D82F
  8
0
 10
232.32409527520011
 20
226.03970824859999
 30
0.0
  0
VERTEX
  5
1D830
  8
0
 10
232.5346971116999
 20
226.01949482340009
 30
0.0
  0
VERTEX
  5
1D831
  8
0
 10
232.5891422294001
 20
226.01680516380009
 30
0.0
  0
VERTEX
  5
1D832
  8
0
 10
232.81649669629999
 20
226.01639910719999
 30
0.0
  0
VERTEX
  5
1D833
  8
0
 10
233.00340941170001
 20
226.03191307860001
 30
0.0
  0
VERTEX
  5
1D834
  8
0
 10
233.15139656880001
 20
226.06553009830009
 30
0.0
  0
VERTEX
  5
1D835
  8
0
 10
233.2282493077
 20
226.11203662240001
 30
0.0
  0
VERTEX
  5
1D836
  8
0
 10
233.23749547820009
 20
226.1728445359
 30
0.0
  0
VERTEX
  5
1D837
  8
0
 10
233.1705669127
 20
226.23752116340009
 30
0.0
  0
VERTEX
  5
1D838
  8
0
 10
233.0460416338999
 20
226.29587783599999
 30
0.0
  0
VERTEX
  5
1D839
  8
0
 10
232.86164721470001
 20
226.34620092000009
 30
0.0
  0
VERTEX
  5
1D83A
  8
0
 10
232.6553555390999
 20
226.37336573680011
 30
0.0
  0
VERTEX
  5
1D83B
  8
0
 10
232.60074278339991
 20
226.3765583106001
 30
0.0
  0
SEQEND
  5
1D83C
  8
0
  0
POLYLINE
  5
1BAD6
  8
0
 66
     1
 10
0.0
 20
0.0
 30
0.0
 70
   128
  0
VERTEX
  5
1D83D
  8
0
 10
238.5120446048002
 20
226.94031766730001
 30
0.0
  0
VERTEX
  5
1D83E
  8
0
 10
238.2836805842
 20
226.93248896980009
 30
0.0
  0
VERTEX
  5
1D83F
  8
0
 10
238.08690330009989
 20
226.88354610580001
 30
0.0
  0
VERTEX
  5
1D840
  8
0
 10
237.9440086148
 20
226.8080065318
 30
0.0
  0
VERTEX
  5
1D841
  8
0
 10
237.8555031679
 20
226.7079321959001
 30
0.0
  0
VERTEX
  5
1D842
  8
0
 10
237.84590309480001
 20
226.60842969199999
 30
0.0
  0
VERTEX
  5
1D843
  8
0
 10
237.90437152609999
 20
226.5153123357
 30
0.0
  0
VERTEX
  5
1D844
  8
0
 10
238.0335869454
 20
226.43292754079999
 30
0.0
  0
VERTEX
  5
1D845
  8
0
 10
238.2041493617001
 20
226.37774481560001
 30
0.0
  0
VERTEX
  5
1D846
  8
0
 10
238.41236328700009
 20
226.34472943029999
 30
0.0
  0
VERTEX
  5
1D847
  8
0
 10
238.48000710829999
 20
226.34006909210001
 30
0.0
  0
VERTEX
  5
1D848
  8
0
 10
238.7079650722001
 20
226.3449063816
 30
0.0
  0
VERTEX
  5
1D849
  8
0
 10
238.90301754689989
 20
226.37870407780011
 30
0.0
  0
VERTEX
  5
1D84A
  8
0
 10
239.05487528070009
 20
226.442663587
 30
0.0
  0
VERTEX
  5
1D84B
  8
0
 10
239.1353303753001
 20
226.5249813267001
 30
0.0
  0
VERTEX
  5
1D84C
  8
0
 10
239.14766108609999
 20
226.6272573092001
 30
0.0
  0
VERTEX
  5
1D84D
  8
0
 10
239.08377608280011
 20
226.7284548201001
 30
0.0
  0
VERTEX
  5
1D84E
  8
0
 10
238.9660084806001
 20
226.8153248646
 30
0.0
  0
VERTEX
  5
1D84F
  8
0
 10
238.7866543792
 20
226.89175292039999
 30
0.0
  0
VERTEX
  5
1D850
  8
0
 10
238.5724390112
 20
226.9352568605
 30
0.0
  0
VERTEX
  5
1D851
  8
0
 10
238.5120446048002
 20
226.94031766730001
 30
0.0
  0
SEQEND
  5
1D852
  8
0
  0
POLYLINE
  5
1BAD7
  8
0
 66
     1
 10
0.0
 20
0.0
 30
0.0
 70
   128
  0
VERTEX
  5
1D853
  8
0
 10
236.50600930670001
 20
226.2005104043001
 30
0.0
  0
VERTEX
  5
1D854
  8
0
 10
236.27840524540011
 20
226.1975786009001
 30
0.0
  0
VERTEX
  5
1D855
  8
0
 10
236.08323356129989
 20
226.1700785079
 30
0.0
  0
VERTEX
  5
1D856
  8
0
 10
235.94118451700001
 20
226.12624860490001
 30
0.0
  0
VERTEX
  5
1D857
  8
0
 10
235.85633357980009
 20
226.0689461895
 30
0.0
  0
VERTEX
  5
1D858
  8
0
 10
235.85035076359989
 20
226.01255460760001
 30
0.0
  0
VERTEX
  5
1D859
  8
0
 10
235.91362854459999
 20
225.96021427890011
 30
0.0
  0
VERTEX
  5
1D85A
  8
0
 10
236.04777252299999
 20
225.9151140519001
 30
0.0
  0
VERTEX
  5
1D85B
  8
0
 10
236.21953820809989
 20
225.8851087012001
 30
0.0
  0
VERTEX
  5
1D85C
  8
0
 10
236.4281395636001
 20
225.8661637374
 30
0.0
  0
VERTEX
  5
1D85D
  8
0
 10
236.48280447350001
 20
225.86360632559999
 30
0.0
  0
VERTEX
  5
1D85E
  8
0
 10
236.71031912789999
 20
225.86319654370001
 30
0.0
  0
VERTEX
  5
1D85F
  8
0
 10
236.89898272970001
 20
225.8779151656
 30
0.0
  0
VERTEX
  5
1D860
  8
0
 10
237.04910447820001
 20
225.9096918919
 30
0.0
  0
VERTEX
  5
1D861
  8
0
 10
237.128561195
 20
225.9539036371001
 30
0.0
  0
VERTEX
  5
1D862
  8
0
 10
237.13845929129999
 20
226.01135692680009
 30
0.0
  0
VERTEX
  5
1D863
  8
0
 10
237.07171699029999
 20
226.07114038550009
 30
0.0
  0
VERTEX
  5
1D864
  8
0
 10
236.9489202462
 20
226.12480691750011
 30
0.0
  0
VERTEX
  5
1D865
  8
0
 10
236.76582967860011
 20
226.17173626210001
 30
0.0
  0
VERTEX
  5
1D866
  8
0
 10
236.5603948198
 20
226.1974184134001
 30
0.0
  0
VERTEX
  5
1D867
  8
0
 10
236.50600930670001
 20
226.2005104043001
 30
0.0
  0
SEQEND
  5
1D868
  8
0
  0
POLYLINE
  5
1BAD8
  8
0
 66
     1
 10
0.0
 20
0.0
 30
0.0
 70
   128
  0
VERTEX
  5
1D869
  8
0
 10
238.41586505989989
 20
225.6841609546
 30
0.0
  0
VERTEX
  5
1D86A
  8
0
 10
238.18843981250009
 20
225.68741313300001
 30
0.0
  0
VERTEX
  5
1D86B
  8
0
 10
237.99515312529999
 20
225.68042635099999
 30
0.0
  0
VERTEX
  5
1D86C
  8
0
 10
237.8550263308
 20
225.6670041301
 30
0.0
  0
VERTEX
  5
1D86D
  8
0
 10
237.7706969343001
 20
225.64918606660009
 30
0.0
  0
VERTEX
  5
1D86E
  8
0
 10
237.7643043361
 20
225.63178523560009
 30
0.0
  0
VERTEX
  5
1D86F
  8
0
 10
237.82910576090009
 20
225.61604588410009
 30
0.0
  0
VERTEX
  5
1D870
  8
0
 10
237.9645833932
 20
225.602089084
 30
0.0
  0
VERTEX
  5
1D871
  8
0
 10
238.13527991990011
 20
225.5910044827001
 30
0.0
  0
VERTEX
  5
1D872
  8
0
 10
238.34305798630001
 20
225.5807003298001
 30
0.0
  0
VERTEX
  5
1D873
  8
0
 10
238.38971352199999
 20
225.57870543679999
 30
0.0
  0
VERTEX
  5
1D874
  8
0
 10
238.61704936250001
 20
225.5707109638
 30
0.0
  0
VERTEX
  5
1D875
  8
0
 10
238.80042677740019
 20
225.5674140819001
 30
0.0
  0
VERTEX
  5
1D876
  8
0
 10
238.95069381220009
 20
225.57018197260001
 30
0.0
  0
VERTEX
  5
1D877
  8
0
 10
239.0323223732
 20
225.58049916409999
 30
0.0
  0
VERTEX
  5
1D878
  8
0
 10
239.04176225879999
 20
225.59904552180009
 30
0.0
  0
VERTEX
  5
1D879
  8
0
 10
238.97401040419999
 20
225.62213114580001
 30
0.0
  0
VERTEX
  5
1D87A
  8
0
 10
238.84963413700009
 20
225.64561351320009
 30
0.0
  0
VERTEX
  5
1D87B
  8
0
 10
238.66561224680001
 20
225.6680732884
 30
0.0
  0
VERTEX
  5
1D87C
  8
0
 10
238.46475204449979
 20
225.68208037989999
 30
0.0
  0
VERTEX
  5
1D87D
  8
0
 10
238.41586505989989
 20
225.6841609546
 30
0.0
  0
SEQEND
  5
1D87E
  8
0
  0
POLYLINE
  5
1BAD9
  8
0
 66
     1
 10
0.0
 20
0.0
 30
0.0
 70
   128
  0
VERTEX
  5
1D87F
  8
0
 10
234.58907550199999
 20
227.17436834360001
 30
0.0
  0
VERTEX
  5
1D880
  8
0
 10
234.3609797023
 20
227.16510727190001
 30
0.0
  0
VERTEX
  5
1D881
  8
0
 10
234.16653072460011
 20
227.1128526249
 30
0.0
  0
VERTEX
  5
1D882
  8
0
 10
234.02574455360011
 20
227.03277378460001
 30
0.0
  0
VERTEX
  5
1D883
  8
0
 10
233.9382300339
 20
226.92632547700009
 30
0.0
  0
VERTEX
  5
1D884
  8
0
 10
233.9292111060999
 20
226.81961826169999
 30
0.0
  0
VERTEX
  5
1D885
  8
0
 10
233.98915475230001
 20
226.71947128260001
 30
0.0
  0
VERTEX
  5
1D886
  8
0
 10
234.12008380509999
 20
226.63144267280001
 30
0.0
  0
VERTEX
  5
1D887
  8
0
 10
234.29256102070011
 20
226.5725830861
 30
0.0
  0
VERTEX
  5
1D888
  8
0
 10
234.5020638965
 20
226.53813346410001
 30
0.0
  0
VERTEX
  5
1D889
  8
0
 10
234.56195538860021
 20
226.53396858950009
 30
0.0
  0
VERTEX
  5
1D88A
  8
0
 10
234.78978669269989
 20
226.53995699370009
 30
0.0
  0
VERTEX
  5
1D88B
  8
0
 10
234.98102074490001
 20
226.57626926090001
 30
0.0
  0
VERTEX
  5
1D88C
  8
0
 10
235.13055762270011
 20
226.64444766130001
 30
0.0
  0
VERTEX
  5
1D88D
  8
0
 10
235.208583828
 20
226.73113144120009
 30
0.0
  0
VERTEX
  5
1D88E
  8
0
 10
235.2207655273001
 20
226.8387774297
 30
0.0
  0
VERTEX
  5
1D88F
  8
0
 10
235.15728285530011
 20
226.94906651160011
 30
0.0
  0
VERTEX
  5
1D890
  8
0
 10
235.03607308490001
 20
227.04525909509999
 30
0.0
  0
VERTEX
  5
1D891
  8
0
 10
234.8543422483001
 20
227.12649277530011
 30
0.0
  0
VERTEX
  5
1D892
  8
0
 10
234.6465381047999
 20
227.16954968060011
 30
0.0
  0
VERTEX
  5
1D893
  8
0
 10
234.58907550199999
 20
227.17436834360001
 30
0.0
  0
SEQEND
  5
1D894
  8
0
  0
POLYLINE
  5
1BADA
  8
0
 66
     1
 10
0.0
 20
0.0
 30
0.0
 70
   128
  0
VERTEX
  5
1D895
  8
0
 10
249.8434128426
 20
227.88609250569999
 30
0.0
  0
VERTEX
  5
1D896
  8
0
 10
249.99456649640001
 20
228.0455870845
 30
0.0
  0
VERTEX
  5
1D897
  8
0
 10
250.12430345640001
 20
228.23209933120009
 30
0.0
  0
VERTEX
  5
1D898
  8
0
 10
250.21550973870009
 20
228.41483972149999
 30
0.0
  0
VERTEX
  5
1D899
  8
0
 10
250.26875531300021
 20
228.59450860999999
 30
0.0
  0
VERTEX
  5
1D89A
  8
0
 10
250.2700740656999
 20
228.7279838987001
 30
0.0
  0
VERTEX
  5
1D89B
  8
0
 10
250.22632053119989
 20
228.8128888526
 30
0.0
  0
VERTEX
  5
1D89C
  8
0
 10
250.1369731687
 20
228.8387405046
 30
0.0
  0
VERTEX
  5
1D89D
  8
0
 10
250.02379512409999
 20
228.80043520710001
 30
0.0
  0
VERTEX
  5
1D89E
  8
0
 10
249.88648837429989
 20
228.7042482116
 30
0.0
  0
VERTEX
  5
1D89F
  8
0
 10
249.84158745030001
 20
228.66356059099999
 30
0.0
  0
VERTEX
  5
1D8A0
  8
0
 10
249.6947290562
 20
228.50077285550009
 30
0.0
  0
VERTEX
  5
1D8A1
  8
0
 10
249.56367706879999
 20
228.31258050279999
 30
0.0
  0
VERTEX
  5
1D8A2
  8
0
 10
249.4652437232001
 20
228.1202884682001
 30
0.0
  0
VERTEX
  5
1D8A3
  8
0
 10
249.4153434596999
 20
227.96304582740001
 30
0.0
  0
VERTEX
  5
1D8A4
  8
0
 10
249.40676039079989
 20
227.82749182660001
 30
0.0
  0
VERTEX
  5
1D8A5
  8
0
 10
249.4496608339
 20
227.7436057397
 30
0.0
  0
VERTEX
  5
1D8A6
  8
0
 10
249.53272735699991
 20
227.7198979922
 30
0.0
  0
VERTEX
  5
1D8A7
  8
0
 10
249.65717812999989
 20
227.7552286454
 30
0.0
  0
VERTEX
  5
1D8A8
  8
0
 10
249.80150705200009
 20
227.85023286129999
 30
0.0
  0
VERTEX
  5
1D8A9
  8
0
 10
249.8434128426
 20
227.88609250569999
 30
0.0
  0
SEQEND
  5
1D8AA
  8
0
  0
POLYLINE
  5
1BADB
  8
0
 66
     1
 10
0.0
 20
0.0
 30
0.0
 70
   128
  0
VERTEX
  5
1D8AB
  8
0
 10
228.80236228919989
 20
228.93303505259999
 30
0.0
  0
VERTEX
  5
1D8AC
  8
0
 10
228.57368906959999
 20
228.9127433964
 30
0.0
  0
VERTEX
  5
1D8AD
  8
0
 10
228.37853973730009
 20
228.82945708119999
 30
0.0
  0
VERTEX
  5
1D8AE
  8
0
 10
228.23600267989991
 20
228.7051422813
 30
0.0
  0
VERTEX
  5
1D8AF
  8
0
 10
228.14516147600011
 20
228.53973007880001
 30
0.0
  0
VERTEX
  5
1D8B0
  8
0
 10
228.1325662695001
 20
228.37275139170001
 30
0.0
  0
VERTEX
  5
1D8B1
  8
0
 10
228.1890565715
 20
228.2149387815
 30
0.0
  0
VERTEX
  5
1D8B2
  8
0
 10
228.3167483471
 20
228.07538381900011
 30
0.0
  0
VERTEX
  5
1D8B3
  8
0
 10
228.48867421969999
 20
227.9817542352001
 30
0.0
  0
VERTEX
  5
1D8B4
  8
0
 10
228.6989519558999
 20
227.92973055620001
 30
0.0
  0
VERTEX
  5
1D8B5
  8
0
 10
228.7565114163001
 20
227.92471631550001
 30
0.0
  0
VERTEX
  5
1D8B6
  8
0
 10
228.98485308510001
 20
227.94186755199999
 30
0.0
  0
VERTEX
  5
1D8B7
  8
0
 10
229.17320003730021
 20
228.00664848770001
 30
0.0
  0
VERTEX
  5
1D8B8
  8
0
 10
229.32524031019989
 20
228.12208778339999
 30
0.0
  0
VERTEX
  5
1D8B9
  8
0
 10
229.40753942349991
 20
228.26521343670001
 30
0.0
  0
VERTEX
  5
1D8BA
  8
0
 10
229.42383384329989
 20
228.43651159789999
 30
0.0
  0
VERTEX
  5
1D8BB
  8
0
 10
229.36428507789989
 20
228.6069548049
 30
0.0
  0
VERTEX
  5
1D8BC
  8
0
 10
229.24592142920011
 20
228.75150724430009
 30
0.0
  0
VERTEX
  5
1D8BD
  8
0
 10
229.06656360249991
 20
228.86911279640009
 30
0.0
  0
VERTEX
  5
1D8BE
  8
0
 10
228.86137088760009
 20
228.9272943803
 30
0.0
  0
VERTEX
  5
1D8BF
  8
0
 10
228.80236228919989
 20
228.93303505259999
 30
0.0
  0
SEQEND
  5
1D8C0
  8
0
  0
POLYLINE
  5
1BADC
  8
0
 66
     1
 10
0.0
 20
0.0
 30
0.0
 70
   128
  0
VERTEX
  5
1D8C1
  8
0
 10
226.7906161211001
 20
227.60091967070011
 30
0.0
  0
VERTEX
  5
1D8C2
  8
0
 10
226.5625799261
 20
227.5874359824
 30
0.0
  0
VERTEX
  5
1D8C3
  8
0
 10
226.36982968069989
 20
227.52864345100011
 30
0.0
  0
VERTEX
  5
1D8C4
  8
0
 10
226.23096203430009
 20
227.44127235490009
 30
0.0
  0
VERTEX
  5
1D8C5
  8
0
 10
226.14386102179989
 20
227.32580139420011
 30
0.0
  0
VERTEX
  5
1D8C6
  8
0
 10
226.13455897190011
 20
227.20941028680011
 30
0.0
  0
VERTEX
  5
1D8C7
  8
0
 10
226.19541531429991
 20
227.10053308990001
 30
0.0
  0
VERTEX
  5
1D8C8
  8
0
 10
226.3274805806
 20
227.00619570100011
 30
0.0
  0
VERTEX
  5
1D8C9
  8
0
 10
226.5013957582
 20
226.94368905510009
 30
0.0
  0
VERTEX
  5
1D8CA
  8
0
 10
226.71237012369991
 20
226.9083844789001
 30
0.0
  0
VERTEX
  5
1D8CB
  8
0
 10
226.76719894629991
 20
226.9048491784001
 30
0.0
  0
VERTEX
  5
1D8CC
  8
0
 10
226.99497064569999
 20
226.9140674093
 30
0.0
  0
VERTEX
  5
1D8CD
  8
0
 10
227.18189826230011
 20
226.9551964768001
 30
0.0
  0
VERTEX
  5
1D8CE
  8
0
 10
227.33099555589999
 20
227.03090927680009
 30
0.0
  0
VERTEX
  5
1D8CF
  8
0
 10
227.40968486289989
 20
227.12699941480011
 30
0.0
  0
VERTEX
  5
1D8D0
  8
0
 10
227.4219820462001
 20
227.24481172050011
 30
0.0
  0
VERTEX
  5
1D8D1
  8
0
 10
227.35816409809991
 20
227.36526711959999
 30
0.0
  0
VERTEX
  5
1D8D2
  8
0
 10
227.23500600080001
 20
227.46958828650011
 30
0.0
  0
VERTEX
  5
1D8D3
  8
0
 10
227.05165838819991
 20
227.55475959859999
 30
0.0
  0
VERTEX
  5
1D8D4
  8
0
 10
226.846257057
 20
227.59680508750009
 30
0.0
  0
VERTEX
  5
1D8D5
  8
0
 10
226.7906161211001
 20
227.60091967070011
 30
0.0
  0
SEQEND
  5
1D8D6
  8
0
  0
POLYLINE
  5
1BADD
  8
0
 66
     1
 10
0.0
 20
0.0
 30
0.0
 70
   128
  0
VERTEX
  5
1D8D7
  8
0
 10
240.52057212220009
 20
228.13479102340011
 30
0.0
  0
VERTEX
  5
1D8D8
  8
0
 10
240.29166420920001
 20
228.1174795993
 30
0.0
  0
VERTEX
  5
1D8D9
  8
0
 10
240.0964366458
 20
228.04048157419999
 30
0.0
  0
VERTEX
  5
1D8DA
  8
0
 10
239.95541205629999
 20
227.9263219156
 30
0.0
  0
VERTEX
  5
1D8DB
  8
0
 10
239.86606469370011
 20
227.7746113308001
 30
0.0
  0
VERTEX
  5
1D8DC
  8
0
 10
239.85546251759999
 20
227.6247727045
 30
0.0
  0
VERTEX
  5
1D8DD
  8
0
 10
239.9101907573002
 20
227.48511902179999
 30
0.0
  0
VERTEX
  5
1D8DE
  8
0
 10
240.03606831650001
 20
227.3555813648
 30
0.0
  0
VERTEX
  5
1D8DF
  8
0
 10
240.21129479629991
 20
227.2656342306
 30
0.0
  0
VERTEX
  5
1D8E0
  8
0
 10
240.42410200459989
 20
227.21506714009999
 30
0.0
  0
VERTEX
  5
1D8E1
  8
0
 10
240.49728160719999
 20
227.2085888603001
 30
0.0
  0
VERTEX
  5
1D8E2
  8
0
 10
240.72570150710001
 20
227.22167766770011
 30
0.0
  0
VERTEX
  5
1D8E3
  8
0
 10
240.92589860780001
 20
227.2820646235001
 30
0.0
  0
VERTEX
  5
1D8E4
  8
0
 10
241.07359146700011
 20
227.38728358530011
 30
0.0
  0
VERTEX
  5
1D8E5
  8
0
 10
241.1465959809
 20
227.51050314980009
 30
0.0
  0
VERTEX
  5
1D8E6
  8
0
 10
241.16061424829991
 20
227.6621355035
 30
0.0
  0
VERTEX
  5
1D8E7
  8
0
 10
241.10099470240019
 20
227.82011947710009
 30
0.0
  0
VERTEX
  5
1D8E8
  8
0
 10
240.98239636050019
 20
227.95486322720001
 30
0.0
  0
VERTEX
  5
1D8E9
  8
0
 10
240.80304970959989
 20
228.0668957450001
 30
0.0
  0
VERTEX
  5
1D8EA
  8
0
 10
240.58694189409991
 20
228.12802775879999
 30
0.0
  0
VERTEX
  5
1D8EB
  8
0
 10
240.52057212220009
 20
228.13479102340011
 30
0.0
  0
SEQEND
  5
1D8EC
  8
0
  0
POLYLINE
  5
1BADE
  8
0
 66
     1
 10
0.0
 20
0.0
 30
0.0
 70
   128
  0
VERTEX
  5
1D8ED
  8
0
 10
236.60404404619999
 20
228.40566991950001
 30
0.0
  0
VERTEX
  5
1D8EE
  8
0
 10
236.37520691380001
 20
228.38950774750009
 30
0.0
  0
VERTEX
  5
1D8EF
  8
0
 10
236.1796776019001
 20
228.31204964899999
 30
0.0
  0
VERTEX
  5
1D8F0
  8
0
 10
236.03775149209989
 20
228.1956734427001
 30
0.0
  0
VERTEX
  5
1D8F1
  8
0
 10
235.94641109930009
 20
228.03963034530011
 30
0.0
  0
VERTEX
  5
1D8F2
  8
0
 10
235.93291064720009
 20
227.881681762
 30
0.0
  0
VERTEX
  5
1D8F3
  8
0
 10
235.9879108332
 20
227.73201449890001
 30
0.0
  0
VERTEX
  5
1D8F4
  8
0
 10
236.11433973530001
 20
227.59813315349999
 30
0.0
  0
VERTEX
  5
1D8F5
  8
0
 10
236.28525232889999
 20
227.5077184953
 30
0.0
  0
VERTEX
  5
1D8F6
  8
0
 10
236.4943007192999
 20
227.4555346288
 30
0.0
  0
VERTEX
  5
1D8F7
  8
0
 10
236.5623766741999
 20
227.44886449660009
 30
0.0
  0
VERTEX
  5
1D8F8
  8
0
 10
236.7907071672
 20
227.46098100329999
 30
0.0
  0
VERTEX
  5
1D8F9
  8
0
 10
236.9870970212001
 20
227.52089298449999
 30
0.0
  0
VERTEX
  5
1D8FA
  8
0
 10
237.13711818680011
 20
227.6281068393001
 30
0.0
  0
VERTEX
  5
1D8FB
  8
0
 10
237.21439560869999
 20
227.7573483356
 30
0.0
  0
VERTEX
  5
1D8FC
  8
0
 10
237.23050748930001
 20
227.91671811719999
 30
0.0
  0
VERTEX
  5
1D8FD
  8
0
 10
237.1722513995999
 20
228.0804669776
 30
0.0
  0
VERTEX
  5
1D8FE
  8
0
 10
237.05410381780001
 20
228.22152882000009
 30
0.0
  0
VERTEX
  5
1D8FF
  8
0
 10
236.8752973339999
 20
228.33770944860009
 30
0.0
  0
VERTEX
  5
1D900
  8
0
 10
236.66589131580011
 20
228.3988898911
 30
0.0
  0
VERTEX
  5
1D901
  8
0
 10
236.60404404619999
 20
228.40566991950001
 30
0.0
  0
SEQEND
  5
1D902
  8
0
  0
POLYLINE
  5
1BADF
  8
0
 66
     1
 10
0.0
 20
0.0
 30
0.0
 70
   128
  0
VERTEX
  5
1D903
  8
0
 10
232.6992953382001
 20
228.6827290722
 30
0.0
  0
VERTEX
  5
1D904
  8
0
 10
232.4705699644999
 20
228.66459622170009
 30
0.0
  0
VERTEX
  5
1D905
  8
0
 10
232.27511888370009
 20
228.58428641340001
 30
0.0
  0
VERTEX
  5
1D906
  8
0
 10
232.13261535390009
 20
228.463763959
 30
0.0
  0
VERTEX
  5
1D907
  8
0
 10
232.04153573139999
 20
228.302842594
 30
0.0
  0
VERTEX
  5
1D908
  8
0
 10
232.0285121165
 20
228.14020200750011
 30
0.0
  0
VERTEX
  5
1D909
  8
0
 10
232.0843616686
 20
227.98583901609999
 30
0.0
  0
VERTEX
  5
1D90A
  8
0
 10
232.211639937
 20
227.84849501330001
 30
0.0
  0
VERTEX
  5
1D90B
  8
0
 10
232.38351365550011
 20
227.7558377304
 30
0.0
  0
VERTEX
  5
1D90C
  8
0
 10
232.59360885240019
 20
227.70347877520001
 30
0.0
  0
VERTEX
  5
1D90D
  8
0
 10
232.65407031400011
 20
227.6978684881
 30
0.0
  0
VERTEX
  5
1D90E
  8
0
 10
232.8823821805002
 20
227.71264112669999
 30
0.0
  0
VERTEX
  5
1D90F
  8
0
 10
233.0727147124
 20
227.77464858370001
 30
0.0
  0
VERTEX
  5
1D910
  8
0
 10
233.2243675551999
 20
227.88599378550001
 30
0.0
  0
VERTEX
  5
1D911
  8
0
 10
233.30560868599991
 20
228.02360973440011
 30
0.0
  0
VERTEX
  5
1D912
  8
0
 10
233.32214524969999
 20
228.19014511189999
 30
0.0
  0
VERTEX
  5
1D913
  8
0
 10
233.26305096969989
 20
228.3575857349
 30
0.0
  0
VERTEX
  5
1D914
  8
0
 10
233.14508220180011
 20
228.50006318770011
 30
0.0
  0
VERTEX
  5
1D915
  8
0
 10
232.96616395929999
 20
228.6169441708
 30
0.0
  0
VERTEX
  5
1D916
  8
0
 10
232.7595705352
 20
228.67647058450001
 30
0.0
  0
VERTEX
  5
1D917
  8
0
 10
232.6992953382001
 20
228.6827290722
 30
0.0
  0
SEQEND
  5
1D918
  8
0
  0
POLYLINE
  5
1BAE0
  8
0
 66
     1
 10
0.0
 20
0.0
 30
0.0
 70
   128
  0
VERTEX
  5
1D919
  8
0
 10
248.12446704129999
 20
229.0267540433
 30
0.0
  0
VERTEX
  5
1D91A
  8
0
 10
247.94716184960001
 20
228.8908517279001
 30
0.0
  0
VERTEX
  5
1D91B
  8
0
 10
247.80352210620001
 20
228.71232277830001
 30
0.0
  0
VERTEX
  5
1D91C
  8
0
 10
247.7112503907999
 20
228.52336860380001
 30
0.0
  0
VERTEX
  5
1D91D
  8
0
 10
247.66926264390011
 20
228.32312679969999
 30
0.0
  0
VERTEX
  5
1D91E
  8
0
 10
247.6913498901001
 20
228.15297602790011
 30
0.0
  0
VERTEX
  5
1D91F
  8
0
 10
247.77227064590011
 20
228.0235147395
 30
0.0
  0
VERTEX
  5
1D920
  8
0
 10
247.90859764440009
 20
227.95223130959999
 30
0.0
  0
VERTEX
  5
1D921
  8
0
 10
248.06532060719999
 20
227.94791183550001
 30
0.0
  0
VERTEX
  5
1D922
  8
0
 10
248.24755063280011
 20
228.00166218659999
 30
0.0
  0
VERTEX
  5
1D923
  8
0
 10
248.3022192679
 20
228.02897228980009
 30
0.0
  0
VERTEX
  5
1D924
  8
0
 10
248.48470261319989
 20
228.16160193760001
 30
0.0
  0
VERTEX
  5
1D925
  8
0
 10
248.6314790509
 20
228.3313429274001
 30
0.0
  0
VERTEX
  5
1D926
  8
0
 10
248.73357808209991
 20
228.53292211080009
 30
0.0
  0
VERTEX
  5
1D927
  8
0
 10
248.76972084859989
 20
228.7226064422
 30
0.0
  0
VERTEX
  5
1D928
  8
0
 10
248.74340912320011
 20
228.90066414259999
 30
0.0
  0
VERTEX
  5
1D929
  8
0
 10
248.6544976196999
 20
229.03113125940001
 30
0.0
  0
VERTEX
  5
1D92A
  8
0
 10
248.52402305230001
 20
229.10124681080001
 30
0.0
  0
VERTEX
  5
1D92B
  8
0
 10
248.35061823950011
 20
229.11096423050009
 30
0.0
  0
VERTEX
  5
1D92C
  8
0
 10
248.17247858269999
 20
229.0527118661
 30
0.0
  0
VERTEX
  5
1D92D
  8
0
 10
248.12446704129999
 20
229.0267540433
 30
0.0
  0
SEQEND
  5
1D92E
  8
0
  0
ARC
  5
1BAE1
  8
0
 10
243.56165201170671
 20
255.88503398777999
 30
0.0
 40
39.097763970456072
 50
224.4273583544699
 51
228.75459426454009
  0
POLYLINE
  5
1BAE3
  8
0
 66
     1
 10
0.0
 20
0.0
 30
0.0
 70
   128
  0
VERTEX
  5
1D92F
  8
0
 10
218.80639327690011
 20
226.44741705740009
 30
0.0
  0
VERTEX
  5
1D930
  8
0
 10
219.11297535520001
 20
226.5106315084
 30
0.0
  0
VERTEX
  5
1D931
  8
0
 10
219.4867933355001
 20
226.6264042177001
 30
0.0
  0
VERTEX
  5
1D932
  8
0
 10
219.9693935178
 20
226.7679931887001
 30
0.0
  0
VERTEX
  5
1D933
  8
0
 10
220.26968544350001
 20
226.82350001419999
 30
0.0
  0
SEQEND
  5
1D934
  8
0
  0
ARC
  5
1BAE5
  8
0
 10
328.89546853742331
 20
2416.5396984725062
 30
0.0
 40
2192.853909818386
 50
267.21068657779227
 51
267.82340682003701
  0
ARC
  5
1BB01
  8
0
 10
170.68749061708439
 20
229.98359147411151
 30
0.0
 40
51.934026464596322
 50
357.80918752549451
 51
1.2486641053882881
  0
POLYLINE
  5
1BB03
  8
0
 66
     1
 10
0.0
 20
0.0
 30
0.0
 70
   128
  0
VERTEX
  5
1D935
  8
0
 10
222.58355638009971
 20
227.99827962299881
 30
0.0
  0
VERTEX
  5
1D936
  8
0
 10
222.5288951955001
 20
227.4730360427001
 30
0.0
  0
VERTEX
  5
1D937
  8
0
 10
222.44462912900011
 20
227.0827802189001
 30
0.0
  0
VERTEX
  5
1D938
  8
0
 10
222.32499515629999
 20
226.8418060907
 30
0.0
  0
VERTEX
  5
1D939
  8
0
 10
222.15029394250001
 20
226.74289404530009
 30
0.0
  0
VERTEX
  5
1D93A
  8
0
 10
222.1185023150999
 20
226.7417354800001
 30
0.0
  0
SEQEND
  5
1D93B
  8
0
  0
POLYLINE
  5
1BB04
  8
0
 66
     1
 10
0.0
 20
0.0
 30
0.0
 70
   128
  0
VERTEX
  5
1D93C
  8
0
 10
218.74598396939999
 20
226.89069307530011
 30
0.0
  0
VERTEX
  5
1D93D
  8
0
 10
218.61524490639999
 20
226.91021918440001
 30
0.0
  0
VERTEX
  5
1D93E
  8
0
 10
218.2736693136001
 20
227.0864812948
 30
0.0
  0
VERTEX
  5
1D93F
  8
0
 10
218.00151823089999
 20
227.4378693023001
 30
0.0
  0
VERTEX
  5
1D940
  8
0
 10
217.77791699390011
 20
228.00405941090011
 30
0.0
  0
VERTEX
  5
1D941
  8
0
 10
217.6667021773001
 20
228.46154368600011
 30
0.0
  0
VERTEX
  5
1D942
  8
0
 10
217.57340786979989
 20
229.0175153234
 30
0.0
  0
VERTEX
  5
1D943
  8
0
 10
217.46970510110009
 20
230.07287516380009
 30
0.0
  0
VERTEX
  5
1D944
  8
0
 10
217.42902741745479
 20
231.11531569740009
 30
0.0
  0
SEQEND
  5
1D945
  8
0
  0
LINE
  5
1BB19
  8
0
 10
215.64043296499989
 20
228.51642652530001
 30
0.0
 11
215.87426757439999
 21
228.51642652530001
 31
0.0
  0
LINE
  5
1BB78
  8
0
 10
183.68798883432351
 20
225.6153153364001
 30
0.0
 11
179.68798907120001
 21
225.61531533639999
 31
0.0
  0
LINE
  5
1BB7A
  8
0
 10
187.04798907120011
 20
225.61531533639999
 30
0.0
 11
191.04798907120019
 21
225.61531533639999
 31
0.0
  0
LINE
  5
1BB7D
  8
0
 10
196.66267728429989
 20
225.6153157272
 30
0.0
 11
196.7619208805001
 21
225.6153157272
 31
0.0
  0
LINE
  5
1BB80
  8
0
 10
192.92996329059989
 20
225.61531533639999
 30
0.0
 11
203.9478884442469
 21
225.61531533639999
 31
0.0
  0
LINE
  5
1BBA4
  8
0
 10
167.5124297104
 20
226.10538511659999
 30
0.0
 11
164.00229169049999
 21
226.10538511659999
 31
0.0
  0
LINE
  5
1BBA5
  8
0
 10
150.26796406130001
 20
226.10538511659999
 30
0.0
 11
144.5163542591001
 21
226.10538511659999
 31
0.0
  0
ARC
  5
1BBA6
  8
0
 10
144.51635241000011
 20
230.1053842816001
 30
0.0
 40
4.0000000000000107
 50
180.23662472539999
 51
270.0
  0
ARC
  5
1BBA7
  8
0
 10
144.51635241000011
 20
230.1053842816001
 30
0.0
 40
2.0000000000000191
 50
180.23662472539999
 51
270.0
  0
LINE
  5
1BBA8
  8
0
 10
144.5163542591001
 20
228.10538358170001
 30
0.0
 11
149.18560331679981
 21
228.10538358170001
 31
0.0
  0
LINE
  5
1BBA9
  8
0
 10
165.0846524349999
 20
228.10538358170001
 30
0.0
 11
167.5124297104
 21
228.10538358170001
 31
0.0
  0
ARC
  5
1BBAA
  8
0
 10
167.51242993849991
 20
228.84198428159999
 30
0.0
 40
0.73660000000001
 50
270.0
 51
314.99999994779688
  0
LINE
  5
1BBAB
  8
0
 10
168.03328489879999
 20
228.3211300441001
 30
0.0
 11
170.0259389542
 21
230.3137840994001
 31
0.0
  0
ARC
  5
1BBAC
  8
0
 10
171.96100887730151
 20
228.378713326157
 30
0.0
 40
2.7366023712434551
 50
90.00002942046261
 51
134.9999900725301
  0
ARC
  5
1BBAE
  8
0
 10
171.9614128833
 20
228.37871533640009
 30
0.0
 40
0.73660000000001
 50
90.0
 51
134.99999994779691
  0
LINE
  5
1BBAF
  8
0
 10
169.44790428499999
 20
226.9069167145
 30
0.0
 11
171.4405583404
 21
228.89957076990001
 31
0.0
  0
ARC
  5
1BBB0
  8
0
 10
167.51283828106671
 20
228.84197980170981
 30
0.0
 40
2.7365947156093471
 50
269.99144580131463
 51
315.00002195520761
  0
ARC
  5
1BBB2
  8
0
 10
144.3091995667998
 20
230.1048235117
 30
0.0
 40
3.792846004767116
 50
179.9915344756995
 51
180.24105970899919
  0
ARC
  5
1BBB3
  8
0
 10
144.51968420470001
 20
230.10486890039999
 30
0.0
 40
2.003330339675605
 50
179.98527060009951
 51
180.22147984590029
  0
LINE
  5
1BBBA
  8
0
 10
142.51639490940011
 20
231.09299562059999
 30
0.0
 11
140.5163945816
 21
231.09299562059999
 31
0.0
  0
LINE
  5
1BBBD
  8
0
 10
177.96798871829989
 20
229.11531536960001
 30
0.0
 11
177.96798871829989
 21
227.1153150418001
 31
0.0
  0
ARC
  5
1BBC1
  8
0
 10
186.00000008739991
 20
222.3176377867
 30
0.0
 40
2.1499999999999759
 50
0.0000000017000955
 51
180.0
  0
LINE
  5
1BBC2
  8
0
 10
183.84999997909989
 20
222.31763846359999
 30
0.0
 11
183.84999997909989
 21
221.61763779009999
 31
0.0
  0
ARC
  5
1BBC3
  8
0
 10
186.00000008739991
 20
221.61763778700001
 30
0.0
 40
2.1499999999999759
 50
180.0
 51
0.0000000029002588
  0
LINE
  5
1BBC4
  8
0
 10
188.15000009600001
 20
221.61763779009999
 30
0.0
 11
188.15000009600001
 21
222.31763846359999
 31
0.0
  0
ARC
  5
1BBC5
  8
0
 10
199.50000008739991
 20
222.31763778700011
 30
0.0
 40
2.1500000000000061
 50
0.0
 51
180.0
  0
LINE
  5
1BBC6
  8
0
 10
197.3499998636
 20
222.31763846359999
 30
0.0
 11
197.3499998636
 21
221.61763779009999
 31
0.0
  0
ARC
  5
1BBC7
  8
0
 10
199.50000008739991
 20
221.61763778700001
 30
0.0
 40
2.1500000000000621
 50
180.0
 51
0.0
  0
LINE
  5
1BBC8
  8
0
 10
201.65000000970011
 20
221.61763779009999
 30
0.0
 11
201.65000000970011
 21
222.31763846359999
 31
0.0
  0
POLYLINE
  5
1BBD0
  8
0
 66
     1
 10
0.0
 20
0.0
 30
0.0
 70
   128
  0
VERTEX
  5
1D946
  8
0
 10
217.27829903575019
 20
231.11531569740009
 30
0.0
  0
VERTEX
  5
1D947
  8
0
 10
217.29916876179999
 20
230.3645579436
 30
0.0
  0
VERTEX
  5
1D948
  8
0
 10
217.3375299386
 20
229.6401938715
 30
0.0
  0
VERTEX
  5
1D949
  8
0
 10
217.39621071139999
 20
228.9785841771
 30
0.0
  0
VERTEX
  5
1D94A
  8
0
 10
217.47328883029991
 20
228.39025280560011
 30
0.0
  0
VERTEX
  5
1D94B
  8
0
 10
217.6787106506001
 20
227.45883709870009
 30
0.0
  0
VERTEX
  5
1D94C
  8
0
 10
217.95819683000011
 20
226.83958209240001
 30
0.0
  0
VERTEX
  5
1D94D
  8
0
 10
218.32475049419989
 20
226.5094859817001
 30
0.0
  0
VERTEX
  5
1D94E
  8
0
 10
218.80639327690011
 20
226.44741705740009
 30
0.0
  0
SEQEND
  5
1D94F
  8
0
  0
POLYLINE
  5
1BBD1
  8
0
 66
     1
 10
0.0
 20
0.0
 30
0.0
 70
   128
  0
VERTEX
  5
1D950
  8
0
 10
222.18357568600001
 20
226.28381348330001
 30
0.0
  0
VERTEX
  5
1D951
  8
0
 10
222.4170731566999
 20
226.365212939
 30
0.0
  0
VERTEX
  5
1D952
  8
0
 10
222.57911210879999
 20
226.73067881840001
 30
0.0
  0
VERTEX
  5
1D953
  8
0
 10
222.67627140499991
 20
227.39256045900001
 30
0.0
  0
VERTEX
  5
1D954
  8
0
 10
222.7262349985001
 20
228.35969238659999
 30
0.0
  0
VERTEX
  5
1D955
  8
0
 10
222.73803299289989
 20
228.9578827389
 30
0.0
  0
VERTEX
  5
1D956
  8
0
 10
222.742641177
 20
229.6309532889
 30
0.0
  0
VERTEX
  5
1D957
  8
0
 10
222.73906117300001
 20
230.35886756260001
 30
0.0
  0
VERTEX
  5
1D958
  8
0
 10
222.7330760087284
 20
231.11531569740009
 30
0.0
  0
SEQEND
  5
1D959
  8
0
  0
LINE
  5
1BBE1
  8
0
 10
218.66056306280009
 20
70.677014622265276
 30
0.0
 11
217.78427978969989
 21
70.638627368365277
 31
0.0
  0
CIRCLE
  5
1BBE7
  8
0
 10
157.1362019293999
 20
66.000000196865287
 30
0.0
 40
5.6079773698998547
  0
LINE
  5
1BBE8
  8
0
 10
179.1879886947001
 20
64.200001391965301
 30
0.0
 11
179.3879892862999
 21
63.99999986906532
 31
0.0
  0
LINE
  5
1BBE9
  8
0
 10
183.98798915549989
 20
63.99999986906532
 30
0.0
 11
184.1879890486
 21
64.200001391965301
 31
0.0
  0
LINE
  5
1BBEA
  8
0
 10
179.1879886947001
 20
67.800000864465275
 30
0.0
 11
179.1879886947001
 21
64.200001391965301
 31
0.0
  0
LINE
  5
1BBEB
  8
0
 10
184.1879890486
 20
64.200001391965301
 30
0.0
 11
184.1879890486
 21
67.800000864465275
 31
0.0
  0
LINE
  5
1BBEC
  8
0
 10
184.1879890486
 20
67.800000864465275
 30
0.0
 11
183.98798915549989
 21
68.000000524665253
 31
0.0
  0
LINE
  5
1BBED
  8
0
 10
179.3879892862999
 20
68.000000524665253
 30
0.0
 11
179.1879886947001
 21
67.800000864465275
 31
0.0
  0
ARC
  5
1BBEE
  8
0
 10
179.68798907120001
 20
61.00000055786527
 30
0.0
 40
0.5
 50
180.0
 51
270.0
  0
ARC
  5
1BBEF
  8
0
 10
179.68798907120001
 20
71.000000557865263
 30
0.0
 40
0.5
 50
90.0
 51
180.0
  0
LINE
  5
1BBF0
  8
0
 10
179.1879886947001
 20
62.000001403865248
 30
0.0
 11
179.1879886947001
 21
61.000001239965272
 31
0.0
  0
LINE
  5
1BBF1
  8
0
 10
179.1879886947001
 20
71.000001016465305
 30
0.0
 11
179.1879886947001
 21
70.000000852565265
 31
0.0
  0
LINE
  5
1BBF2
  8
0
 10
205.12288792060011
 20
63.99999986906532
 30
0.0
 11
205.12288792060011
 21
66.000000196865287
 31
0.0
  0
LINE
  5
1BBF3
  8
0
 10
194.9903176352
 20
66.000000196865287
 30
0.0
 11
194.9903176352
 21
63.99999986906532
 31
0.0
  0
LINE
  5
1BBF4
  8
0
 10
205.12288792060011
 20
66.000000196865287
 30
0.0
 11
205.12288792060011
 21
68.000000524665253
 31
0.0
  0
LINE
  5
1BBF5
  8
0
 10
194.9903176352
 20
68.000000524665253
 30
0.0
 11
194.9903176352
 21
66.000000196865287
 31
0.0
  0
ARC
  5
1BBF7
  8
0
 10
144.51704199547919
 20
64.990758057102042
 30
0.0
 40
4.0006884512170107
 50
180.0098501046607
 51
269.99591257687302
  0
LINE
  5
1BBFC
  8
0
 10
180.0
 20
63.99999986906532
 30
0.0
 11
171.96141352869989
 21
63.99999986906532
 31
0.0
  0
ARC
  5
1BBFD
  8
0
 10
171.96140989950439
 20
63.263406509718202
 30
0.0
 40
0.7365933593560589
 50
89.999717703692582
 51
135.00015397623329
  0
LINE
  5
1BBFE
  8
0
 10
171.4405583404
 20
63.784255269365289
 30
0.0
 11
169.44790428499999
 21
61.791601213965272
 31
0.0
  0
ARC
  5
1BBFF
  8
0
 10
167.5128348704668
 20
63.726671600638028
 30
0.0
 40
2.7366020975727881
 50
270.00000873554029
 51
314.99998560788572
  0
LINE
  5
1BC00
  8
0
 10
167.51283576709989
 20
60.990069616065263
 30
0.0
 11
164.00173289700001
 21
60.990069616065263
 31
0.0
  0
LINE
  5
1BC01
  8
0
 10
150.26943927629981
 20
60.990069616065263
 30
0.0
 11
144.51675659040001
 21
60.990069616065263
 31
0.0
  0
ARC
  5
1BC02
  8
0
 10
144.51675805816669
 20
64.990071739464582
 30
0.0
 40
2.0000017955998408
 50
180.0000420478429
 51
269.99995795161891
  0
LINE
  5
1BC03
  8
0
 10
167.51283576709989
 20
62.990069943865286
 30
0.0
 11
165.0845835171001
 21
62.990069943865286
 31
0.0
  0
LINE
  5
1BC04
  8
0
 10
149.1865905187999
 20
62.990069943865286
 30
0.0
 11
144.51675659040001
 21
62.990069943865286
 31
0.0
  0
ARC
  5
1BC05
  8
0
 10
167.5128352877
 20
63.726669503065281
 30
0.0
 40
0.7366000000000269
 50
270.0
 51
314.99999994779688
  0
LINE
  5
1BC06
  8
0
 10
170.02634501079999
 20
65.19846859886529
 30
0.0
 11
168.03369095550011
 21
63.205814543565268
 31
0.0
  0
ARC
  5
1BC07
  8
0
 10
171.9614128833
 20
63.263400557865268
 30
0.0
 40
2.7366000000000139
 50
90.0
 51
134.99999994779691
  0
LINE
  5
1BC09
  8
0
 10
179.1879886947001
 20
66.000000196865287
 30
0.0
 11
171.96141352869989
 21
66.000000196865287
 31
0.0
  0
LINE
  5
1BC0B
  8
0
 10
142.51671528439991
 20
65.977680120065301
 30
0.0
 11
140.5167149566
 21
65.977680120065301
 31
0.0
  0
ARC
  5
1BC17
  8
0
 10
212.21578522061461
 20
68.734974774665304
 30
0.0
 40
2.734974577824985
 50
247.9933350653977
 51
269.99973374570021
  0
ARC
  5
1BC1A
  8
0
 10
212.21577994760011
 20
68.735129607765302
 30
0.0
 40
0.7361721643595669
 50
247.99345424420039
 51
269.99950547380132
  0
LINE
  5
1BC1B
  8
0
 10
212.21577359360001
 20
67.998957443465301
 30
0.0
 11
215.6284989975
 21
67.998957443465301
 31
0.0
  0
LINE
  5
1BC1C
  8
0
 10
215.6128665969145
 20
66.000000196865287
 30
0.0
 11
212.21577251111469
 21
66.000000196865287
 31
0.0
  0
LINE
  5
1BC20
  8
0
 10
206.57723752780001
 20
70.000000852565265
 30
0.0
 11
207.6056560687
 21
69.800731349165275
 31
0.0
  0
LINE
  5
1BC22
  8
0
 10
206.85668086629991
 20
67.946363794965279
 30
0.0
 11
206.57723752780001
 21
68.000000524665253
 31
0.0
  0
ARC
  5
1BC23
  8
0
 10
206.93616026950011
 20
67.329849615265275
 30
0.0
 40
2.670151242906496
 50
67.724433654502263
 51
89.996290119301634
  0
LINE
  5
1BC24
  8
0
 10
206.9363331607999
 20
70.000000852565265
 30
0.0
 11
205.50000092010009
 21
70.000000852565265
 31
0.0
  0
LINE
  5
1BC2A
  8
0
 10
211.9399270228873
 20
68.052594173150183
 30
0.0
 11
207.6056560687
 21
69.800731349165275
 31
0.0
  0
LINE
  5
1BC2C
  8
0
 10
207.14050700880011
 20
67.832317757765324
 30
0.0
 11
206.85668086629991
 21
67.946363794965279
 31
0.0
  0
LINE
  5
1BC2E
  8
0
 10
211.1909507379755
 20
66.199269700224875
 30
0.0
 11
207.14050700880011
 21
67.832317757765324
 31
0.0
  0
ARC
  5
1BC32
  8
0
 10
212.45050281999991
 20
68.6830687602653
 30
0.0
 40
0.6841113240484598
 50
247.1606034972981
 51
269.9916861324985
  0
ARC
  5
1BC33
  8
0
 10
242.50306002170311
 20
42.51168965279814
 30
0.0
 40
37.445196239483948
 50
131.30995682871139
 51
135.83901196562121
  0
POLYLINE
  5
1BC34
  8
0
 66
     1
 10
0.0
 20
0.0
 30
0.0
 70
   128
  0
VERTEX
  5
1D95A
  8
0
 10
218.66056306280009
 20
70.677014622265276
 30
0.0
  0
VERTEX
  5
1D95B
  8
0
 10
218.80639327690011
 20
70.667898836865263
 30
0.0
  0
VERTEX
  5
1D95C
  8
0
 10
219.11297535520001
 20
70.604684385865284
 30
0.0
  0
VERTEX
  5
1D95D
  8
0
 10
219.4867933355001
 20
70.48891167656528
 30
0.0
  0
VERTEX
  5
1D95E
  8
0
 10
219.9693935178
 20
70.347322705565304
 30
0.0
  0
VERTEX
  5
1D95F
  8
0
 10
220.2802801691
 20
70.2898582400653
 30
0.0
  0
VERTEX
  5
1D960
  8
0
 10
220.4562479816
 20
70.27482110576527
 30
0.0
  0
VERTEX
  5
1D961
  8
0
 10
220.6419797799999
 20
70.274146828265302
 30
0.0
  0
VERTEX
  5
1D962
  8
0
 10
220.82559188820011
 20
70.29066476546528
 30
0.0
  0
VERTEX
  5
1D963
  8
0
 10
220.99883651360011
 20
70.322372573765264
 30
0.0
  0
VERTEX
  5
1D964
  8
0
 10
221.2902510725001
 20
70.413001436165288
 30
0.0
  0
VERTEX
  5
1D965
  8
0
 10
221.69267183170001
 20
70.606818977165275
 30
0.0
  0
VERTEX
  5
1D966
  8
0
 10
221.9602519831999
 20
70.751144173965301
 30
0.0
  0
VERTEX
  5
1D967
  8
0
 10
222.15343063690011
 20
70.825214120965299
 30
0.0
  0
VERTEX
  5
1D968
  8
0
 10
222.18008508900019
 20
70.830956655965267
 30
0.0
  0
SEQEND
  5
1D969
  8
0
  0
ARC
  5
1BC38
  8
0
 10
261.48909154500012
 20
66.023935009065312
 30
0.0
 40
18.17874500687077
 50
171.58992083031779
 51
180.0789484508997
  0
POLYLINE
  5
1BC3B
  8
0
 66
     1
 10
0.0
 20
0.0
 30
0.0
 70
   128
  0
VERTEX
  5
1D96A
  8
0
 10
246.8432167731001
 20
65.998886335065251
 30
0.0
  0
VERTEX
  5
1D96B
  8
0
 10
246.81866711000001
 20
66.910124007065278
 30
0.0
  0
VERTEX
  5
1D96C
  8
0
 10
246.7416765354001
 20
67.695299717965256
 30
0.0
  0
VERTEX
  5
1D96D
  8
0
 10
246.59139087419999
 20
68.457166287465313
 30
0.0
  0
VERTEX
  5
1D96E
  8
0
 10
246.3754655979001
 20
69.094941574565311
 30
0.0
  0
VERTEX
  5
1D96F
  8
0
 10
246.07356434679991
 20
69.661461371365291
 30
0.0
  0
VERTEX
  5
1D970
  8
0
 10
245.78231370070009
 20
70.011228877465257
 30
0.0
  0
VERTEX
  5
1D971
  8
0
 10
245.3722113929
 20
70.274275350765294
 30
0.0
  0
VERTEX
  5
1D972
  8
0
 10
245.1783547364
 20
70.338648367065304
 30
0.0
  0
VERTEX
  5
1D973
  8
0
 10
245.0006248615
 20
70.366692352465265
 30
0.0
  0
VERTEX
  5
1D974
  8
0
 10
244.81997063380001
 20
70.367545443965284
 30
0.0
  0
VERTEX
  5
1D975
  8
0
 10
244.6334080957001
 20
70.342191118165303
 30
0.0
  0
VERTEX
  5
1D976
  8
0
 10
244.4075437449001
 20
70.264522540765299
 30
0.0
  0
VERTEX
  5
1D977
  8
0
 10
244.07812749959999
 20
70.02415377216532
 30
0.0
  0
VERTEX
  5
1D978
  8
0
 10
243.8311109505
 20
69.669191348765295
 30
0.0
  0
VERTEX
  5
1D979
  8
0
 10
243.6474392376999
 20
69.228519308765314
 30
0.0
  0
VERTEX
  5
1D97A
  8
0
 10
243.50582950012
 20
68.682704696346192
 30
0.0
  0
SEQEND
  5
1D97B
  8
0
  0
ARC
  5
1BC40
  8
0
 10
226.9300327563999
 20
66.478850745865302
 30
0.0
 40
13.381387987470831
 50
357.94447070650062
 51
12.36498491539912
  0
POLYLINE
  5
1BC41
  8
0
 66
     1
 10
0.0
 20
0.0
 30
0.0
 70
   128
  0
VERTEX
  5
1D97C
  8
0
 10
240.00101706009221
 20
69.344319957680511
 30
0.0
  0
VERTEX
  5
1D97D
  8
0
 10
239.9491833709001
 20
69.465535316065299
 30
0.0
  0
VERTEX
  5
1D97E
  8
0
 10
239.6996373497
 20
69.896258968265258
 30
0.0
  0
VERTEX
  5
1D97F
  8
0
 10
239.33533003549999
 20
70.206229198165303
 30
0.0
  0
VERTEX
  5
1D980
  8
0
 10
239.11477422339999
 20
70.295222658065299
 30
0.0
  0
VERTEX
  5
1D981
  8
0
 10
238.8212660513
 20
70.344275418065294
 30
0.0
  0
VERTEX
  5
1D982
  8
0
 10
238.62750997760011
 20
70.341913584065296
 30
0.0
  0
VERTEX
  5
1D983
  8
0
 10
238.42292075969999
 20
70.311239543765268
 30
0.0
  0
VERTEX
  5
1D984
  8
0
 10
238.18036710840011
 20
70.241137030865303
 30
0.0
  0
VERTEX
  5
1D985
  8
0
 10
237.87838390089991
 20
70.090044844365295
 30
0.0
  0
VERTEX
  5
1D986
  8
0
 10
237.406490203
 20
69.662413183065311
 30
0.0
  0
VERTEX
  5
1D987
  8
0
 10
237.07547208290001
 20
69.135206374665287
 30
0.0
  0
VERTEX
  5
1D988
  8
0
 10
236.81904917579999
 20
68.48521958606527
 30
0.0
  0
VERTEX
  5
1D989
  8
0
 10
236.66148057199979
 20
67.800844642665297
 30
0.0
  0
VERTEX
  5
1D98A
  8
0
 10
236.55611818649999
 20
67.020886200865263
 30
0.0
  0
VERTEX
  5
1D98B
  8
0
 10
236.50776764370019
 20
65.998886335065251
 30
0.0
  0
SEQEND
  5
1D98C
  8
0
  0
ARC
  5
1BC47
  8
0
 10
217.33528692300001
 20
66.674550420365264
 30
0.0
 40
16.839760101345519
 50
357.70049604029958
 51
9.7222569986000789
  0
POLYLINE
  5
1BC48
  8
0
 66
     1
 10
0.0
 20
0.0
 30
0.0
 70
   128
  0
VERTEX
  5
1D98D
  8
0
 10
233.9331934414831
 20
69.518318954293633
 30
0.0
  0
VERTEX
  5
1D98E
  8
0
 10
233.73570090160001
 20
69.918314549465308
 30
0.0
  0
VERTEX
  5
1D98F
  8
0
 10
233.43077844010011
 20
70.249060723365275
 30
0.0
  0
VERTEX
  5
1D990
  8
0
 10
233.07193612680001
 20
70.423398721365274
 30
0.0
  0
VERTEX
  5
1D991
  8
0
 10
232.81223123890001
 20
70.475791204165304
 30
0.0
  0
VERTEX
  5
1D992
  8
0
 10
232.48887604100011
 20
70.490930783965311
 30
0.0
  0
VERTEX
  5
1D993
  8
0
 10
232.19295760610001
 20
70.469501051465315
 30
0.0
  0
VERTEX
  5
1D994
  8
0
 10
231.86289316040001
 20
70.407108026965304
 30
0.0
  0
VERTEX
  5
1D995
  8
0
 10
231.4300740324
 20
70.250837686865268
 30
0.0
  0
VERTEX
  5
1D996
  8
0
 10
230.7465540431001
 20
69.731740835465288
 30
0.0
  0
VERTEX
  5
1D997
  8
0
 10
230.41755130510001
 20
69.252523216765255
 30
0.0
  0
VERTEX
  5
1D998
  8
0
 10
230.15112971880009
 20
68.655031356365313
 30
0.0
  0
VERTEX
  5
1D999
  8
0
 10
229.96036505320009
 20
67.985471892565258
 30
0.0
  0
VERTEX
  5
1D99A
  8
0
 10
229.8458459042001
 20
67.361925351765294
 30
0.0
  0
VERTEX
  5
1D99B
  8
0
 10
229.77418621999999
 20
66.678427714265283
 30
0.0
  0
VERTEX
  5
1D99C
  8
0
 10
229.7430390678
 20
65.998886335065251
 30
0.0
  0
SEQEND
  5
1D99D
  8
0
  0
ARC
  5
1BC4B
  8
0
 10
199.3389823178002
 20
67.174238562865284
 30
0.0
 40
28.637897393325101
 50
357.64781466899967
 51
4.166893748652261
  0
POLYLINE
  5
1BC51
  8
0
 66
     1
 10
0.0
 20
0.0
 30
0.0
 70
   128
  0
VERTEX
  5
1D99E
  8
0
 10
227.90117911578929
 20
69.255123274606433
 30
0.0
  0
VERTEX
  5
1D99F
  8
0
 10
227.7474755607
 20
70.027502808165295
 30
0.0
  0
VERTEX
  5
1D9A0
  8
0
 10
227.58808529000001
 20
70.323391440665304
 30
0.0
  0
VERTEX
  5
1D9A1
  8
0
 10
227.33671015129991
 20
70.508089471065304
 30
0.0
  0
VERTEX
  5
1D9A2
  8
0
 10
226.94039514290009
 20
70.576016414365299
 30
0.0
  0
VERTEX
  5
1D9A3
  8
0
 10
226.70898010950009
 20
70.575491148365288
 30
0.0
  0
VERTEX
  5
1D9A4
  8
0
 10
226.41113569960001
 20
70.563966962865294
 30
0.0
  0
VERTEX
  5
1D9A5
  8
0
 10
226.16167163470001
 20
70.552776190865274
 30
0.0
  0
VERTEX
  5
1D9A6
  8
0
 10
225.91367160899989
 20
70.541995200665312
 30
0.0
  0
VERTEX
  5
1D9A7
  8
0
 10
225.57078098880021
 20
70.524467709865263
 30
0.0
  0
VERTEX
  5
1D9A8
  8
0
 10
225.0639328918999
 20
70.468567866265275
 30
0.0
  0
VERTEX
  5
1D9A9
  8
0
 10
224.6365526877
 20
70.348853799865296
 30
0.0
  0
VERTEX
  5
1D9AA
  8
0
 10
224.28574210030001
 20
70.147414314965303
 30
0.0
  0
VERTEX
  5
1D9AB
  8
0
 10
223.9756414853
 20
69.833312738165304
 30
0.0
  0
VERTEX
  5
1D9AC
  8
0
 10
223.71796315530011
 20
69.397828164865288
 30
0.0
  0
VERTEX
  5
1D9AD
  8
0
 10
223.5325182043
 20
68.907619077165279
 30
0.0
  0
VERTEX
  5
1D9AE
  8
0
 10
223.38204627850001
 20
68.307400304265272
 30
0.0
  0
VERTEX
  5
1D9AF
  8
0
 10
223.2165204547
 20
67.134023267165318
 30
0.0
  0
VERTEX
  5
1D9B0
  8
0
 10
223.15896844490001
 20
65.998886335065251
 30
0.0
  0
SEQEND
  5
1D9B1
  8
0
  0
ARC
  5
1BC54
  8
0
 10
334.53350744924199
 20
66.000000196865344
 30
0.0
 40
118.9214757108771
 50
178.7477683467533
 51
181.25223165324661
  0
ARC
  5
1BC56
  8
0
 10
186.00000008739991
 20
57.202323008165301
 30
0.0
 40
2.1500000000000341
 50
0.0000000017000955
 51
180.0
  0
LINE
  5
1BC57
  8
0
 10
183.84999997909989
 20
57.202324825665293
 30
0.0
 11
183.84999997909989
 21
56.502324152165251
 31
0.0
  0
ARC
  5
1BC58
  8
0
 10
186.00000008739991
 20
56.502323008465268
 30
0.0
 40
2.1499999999999759
 50
180.0
 51
0.0000000029002588
  0
LINE
  5
1BC59
  8
0
 10
188.15000009600001
 20
56.502324152165251
 30
0.0
 11
188.15000009600001
 21
57.202324825665293
 31
0.0
  0
ARC
  5
1BC5A
  8
0
 10
199.50000008739991
 20
57.20232300846525
 30
0.0
 40
2.1500000000000061
 50
0.0
 51
180.0
  0
LINE
  5
1BC5B
  8
0
 10
197.3499998636
 20
57.202324825665293
 30
0.0
 11
197.3499998636
 21
56.502324152165251
 31
0.0
  0
ARC
  5
1BC5C
  8
0
 10
199.50000008739991
 20
56.502323008465268
 30
0.0
 40
2.1500000000000621
 50
180.0
 51
0.0
  0
LINE
  5
1BC5D
  8
0
 10
201.65000000970011
 20
56.502324152165251
 30
0.0
 11
201.65000000970011
 21
57.202324825665293
 31
0.0
  0
ARC
  5
1BC5E
  8
0
 10
202.49603050134081
 20
55.003968442470651
 30
0.0
 40
3.0039708684038282
 50
270.07571331539577
 51
359.96865095323528
  0
LINE
  5
1BC5F
  8
0
 10
202.5000004284
 20
52.000000196865287
 30
0.0
 11
183.20387631649979
 21
52.000000196865287
 31
0.0
  0
ARC
  5
1BC60
  8
0
 10
183.00359583550079
 20
54.997001251861391
 30
0.0
 40
3.0036856712133591
 50
180.44313492497679
 51
273.8232192423435
  0
LINE
  5
1BC61
  8
0
 10
180.0
 20
54.973770487465274
 30
0.0
 11
180.0
 21
63.99999986906532
 31
0.0
  0
LINE
  5
1BC62
  8
0
 10
205.50000092010009
 20
63.99999986906532
 30
0.0
 11
205.50000092010009
 21
55.002324837665277
 31
0.0
  0
LINE
  5
1BC63
  8
0
 10
206.57723752780001
 20
63.99999986906532
 30
0.0
 11
180.0
 21
63.99999986906532
 31
0.0
  0
LINE
  5
1BC68
  8
0
 10
177.96798871829989
 20
63.99999986906532
 30
0.0
 11
177.96798871829989
 21
62.000001403865248
 31
0.0
  0
LINE
  5
1BC6A
  8
0
 10
177.96798871829989
 20
62.000001403865248
 30
0.0
 11
180.0000000000002
 21
62.000001403865248
 31
0.0
  0
ARC
  5
1BC6C
  8
0
 10
157.1362019293999
 20
66.000000196865287
 30
0.0
 40
8.5000000000000036
 50
322.4901768976988
 51
37.509823102301389
  0
ARC
  5
1BC6E
  8
0
 10
157.1362019293999
 20
66.000000196865287
 30
0.0
 40
8.5000000000002363
 50
142.490176897699
 51
217.509823102301
  0
LINE
  5
1BC6F
  8
0
 10
150.3929959796001
 20
71.176326456865283
 30
0.0
 11
150.39294382549991
 21
71.176326456865283
 31
0.0
  0
ARC
  5
1BC70
  8
0
 10
154.03064512827859
 20
69.512737768387154
 30
0.0
 40
3.9991756676435228
 50
116.3874881347608
 51
155.42976744690711
  0
ARC
  5
1BC75
  8
0
 10
157.13620192915431
 20
44.104953359536331
 30
0.0
 40
29.39863259262993
 50
80.439182786611013
 51
99.560817212579806
  0
LINE
  5
1BC7E
  8
0
 10
183.98103962650001
 20
64.200001391965301
 30
0.0
 11
184.1879890486
 21
64.200001391965301
 31
0.0
  0
LINE
  5
1BC7F
  8
0
 10
179.1879886947001
 20
64.200001391965301
 30
0.0
 11
183.98103962650001
 21
64.200001391965301
 31
0.0
  0
LINE
  5
1BC80
  8
0
 10
183.98103962650001
 20
67.800000864465275
 30
0.0
 11
179.1879886947001
 21
67.800000864465275
 31
0.0
  0
LINE
  5
1BC81
  8
0
 10
184.1879890486
 20
67.800000864465275
 30
0.0
 11
183.98103962650001
 21
67.800000864465275
 31
0.0
  0
LINE
  5
1BCA0
  8
0
 10
205.12288792060011
 20
66.000000196865287
 30
0.0
 11
184.1879890486
 21
66.000000196865287
 31
0.0
  0
ARC
  5
1BCA4
  8
0
 10
144.51635101527421
 20
67.009932195447377
 30
0.0
 40
3.9999986028793191
 50
89.994190562215024
 51
179.76338353976379
  0
ARC
  5
1BCA9
  8
0
 10
171.9614128833
 20
68.736600557865287
 30
0.0
 40
2.7365999999999948
 50
225.00000005220309
 51
270.0
  0
LINE
  5
1BCAA
  8
0
 10
170.02634501079999
 20
66.801531794865284
 30
0.0
 11
168.03369095550011
 21
68.794185850165306
 31
0.0
  0
ARC
  5
1BCAB
  8
0
 10
167.5128352877
 20
68.273331612665274
 30
0.0
 40
0.736600000000017
 50
45.000000052203092
 51
90.0
  0
LINE
  5
1BCAC
  8
0
 10
167.51283576709989
 20
69.009932312565283
 30
0.0
 11
165.0851106457001
 21
69.009932312565283
 31
0.0
  0
LINE
  5
1BCAD
  8
0
 10
149.1860615274999
 20
69.009932312565283
 30
0.0
 11
144.51675659040001
 21
69.009932312565283
 31
0.0
  0
ARC
  5
1BCAE
  8
0
 10
144.51675895792781
 20
67.009931111780332
 30
0.0
 40
2.0000012007863508
 50
90.000067824633035
 51
179.7633610672579
  0
LINE
  5
1BCAF
  8
0
 10
144.51675659040001
 20
71.009930777765291
 30
0.0
 11
150.2684222719999
 21
71.009930777765291
 31
0.0
  0
LINE
  5
1BCB0
  8
0
 10
164.0027499012001
 20
71.009930777765291
 30
0.0
 11
167.51283576709989
 21
71.009930777765291
 31
0.0
  0
ARC
  5
1BCB1
  8
0
 10
167.51283864397641
 20
68.273337517686144
 30
0.0
 40
2.736593260080654
 50
44.999941093222503
 51
90.000060232875555
  0
LINE
  5
1BCB2
  8
0
 10
169.44790428499999
 20
70.208399179765294
 30
0.0
 11
171.44055802875249
 21
68.215745702368721
 31
0.0
  0
ARC
  5
1BCB3
  8
0
 10
171.96141300683061
 20
68.736600742741786
 30
0.0
 40
0.7366002180767366
 50
225.00000342633001
 51
270.00004059313511
  0
LINE
  5
1BCB4
  8
0
 10
171.96141352869989
 20
68.000000524665253
 30
0.0
 11
180.0
 21
68.000000524665253
 31
0.0
  0
LINE
  5
1BCB9
  8
0
 10
140.5167149566
 20
66.022320273665272
 30
0.0
 11
142.51671528439991
 21
66.022320273665272
 31
0.0
  0
LINE
  5
1BCBE
  8
0
 10
206.57723752780001
 20
68.000000524665253
 30
0.0
 11
180.0
 21
68.000000524665253
 31
0.0
  0
LINE
  5
1BCC0
  8
0
 10
202.5000004284
 20
79.999999999999972
 30
0.0
 11
183.20387631649979
 21
79.999999999999972
 31
0.0
  0
ARC
  5
1BCC1
  8
0
 10
202.49603207183389
 20
76.996033322995842
 30
0.0
 40
3.0039692981793769
 50
0.0313584274861682
 51
89.924310095611048
  0
ARC
  5
1BCC2
  8
0
 10
183.0035943733069
 20
77.003000515988873
 30
0.0
 40
3.0036841984356379
 50
86.176751725140036
 51
179.55689107008661
  0
ARC
  5
1BCC3
  8
0
 10
199.50000008739991
 20
74.797678107365286
 30
0.0
 40
2.1500000000000341
 50
180.0
 51
0.0
  0
LINE
  5
1BCC4
  8
0
 10
201.65000000970011
 20
75.497678104265262
 30
0.0
 11
201.65000000970011
 21
74.797677430665246
 31
0.0
  0
ARC
  5
1BCC5
  8
0
 10
199.50000008739991
 20
75.497678107365275
 30
0.0
 40
2.1500000000000621
 50
0.0
 51
180.0
  0
LINE
  5
1BCC6
  8
0
 10
197.3499998636
 20
74.797677430665246
 30
0.0
 11
197.3499998636
 21
75.497678104265262
 31
0.0
  0
ARC
  5
1BCC7
  8
0
 10
186.00000008739991
 20
74.797678107565304
 30
0.0
 40
2.1499999999999759
 50
180.0
 51
359.99999999829993
  0
LINE
  5
1BCC8
  8
0
 10
188.15000009600001
 20
75.497678104265262
 30
0.0
 11
188.15000009600001
 21
74.797677430665246
 31
0.0
  0
ARC
  5
1BCC9
  8
0
 10
186.00000008739991
 20
75.497678107365275
 30
0.0
 40
2.1500000000000341
 50
359.99999999709968
 51
180.0
  0
LINE
  5
1BCCA
  8
0
 10
183.84999997909989
 20
74.797677430665246
 30
0.0
 11
183.84999997909989
 21
75.497678104265262
 31
0.0
  0
LINE
  5
1BCCB
  8
0
 10
205.50000092010009
 20
68.000000524665239
 30
0.0
 11
205.50000092010009
 21
76.997677418765292
 31
0.0
  0
LINE
  5
1BCCC
  8
0
 10
180.0
 20
77.026229906265286
 30
0.0
 11
179.9999999999998
 21
68.000000524665253
 31
0.0
  0
LINE
  5
1BCCF
  8
0
 10
177.96798871829989
 20
70.000000852565265
 30
0.0
 11
177.96798871829989
 21
68.000000524665253
 31
0.0
  0
LINE
  5
1BCD0
  8
0
 10
180.0
 20
70.000000852565265
 30
0.0
 11
177.96798871829989
 21
70.000000852565265
 31
0.0
  0
CIRCLE
  5
1BD06
  8
0
 10
157.1362019293999
 20
66.000000196865287
 30
0.0
 40
3.8605338134516409
  0
LINE
  5
1BD1A
  8
0
 10
80.515656702726346
 20
165.96969321369991
 30
0.0
 11
79.016354017426465
 21
165.96969321369991
 31
0.0
  0
ARC
  5
1BD1D
  8
0
 10
84.146663928998805
 20
147.00652851731019
 30
0.0
 40
13.35451774887137
 50
178.09273433828091
 51
202.76086993049671
  0
LINE
  5
1BD1E
  8
0
 10
62.51635360772638
 20
131.99999939649999
 30
0.0
 11
62.51635360772638
 21
130.0
 31
0.0
  0
LINE
  5
1BD1F
  8
0
 10
84.00999949182642
 20
151.2232433259
 30
0.0
 11
82.80259192782637
 21
151.5467670932
 31
0.0
  0
LINE
  5
1BD20
  8
0
 10
70.23011528752636
 20
151.5467670932
 30
0.0
 11
69.022707723626354
 21
151.2232433259
 31
0.0
  0
LINE
  5
1BD21
  8
0
 10
82.80259192782637
 20
156.9758636132
 30
0.0
 11
84.00999949182642
 21
157.2993883117999
 31
0.0
  0
LINE
  5
1BD22
  8
0
 10
69.022707723626354
 20
157.2993883117999
 30
0.0
 11
70.23011528752636
 21
156.9758636132
 31
0.0
  0
LINE
  5
1BD23
  8
0
 10
79.016354017426465
 20
166.61531582469999
 30
0.0
 11
78.516353004226403
 21
167.1153149754
 31
0.0
  0
LINE
  5
1BD24
  8
0
 10
74.516354211226371
 20
167.1153149754
 30
0.0
 11
74.016353197926264
 21
166.61531582469999
 31
0.0
  0
LINE
  5
1BD25
  8
0
 10
74.016353197926264
 20
166.61531582469999
 30
0.0
 11
74.016353197926264
 21
163.96131657059991
 31
0.0
  0
LINE
  5
1BD27
  8
0
 10
74.016353197926264
 20
144.56118247000001
 30
0.0
 11
74.016353197926264
 21
142.61531573249999
 31
0.0
  0
LINE
  5
1BD28
  8
0
 10
79.016354017426465
 20
142.61531573249999
 30
0.0
 11
79.016354017426465
 21
144.56118247000001
 31
0.0
  0
LINE
  5
1BD2A
  8
0
 10
79.016354017426465
 20
163.96131657059991
 30
0.0
 11
79.016354017426465
 21
166.61531582469999
 31
0.0
  0
ARC
  5
1BD2B
  8
0
 10
71.408376188726365
 20
140.059888376
 30
0.0
 40
0.5000000000141112
 50
150.7511736634965
 51
197.5712587752997
  0
ARC
  5
1BD2C
  8
0
 10
81.624330929126245
 20
140.059888376
 30
0.0
 40
0.5000000000140841
 50
342.4287412247001
 51
29.248826336598551
  0
LINE
  5
1BD2D
  8
0
 10
70.931706660026293
 20
139.90894250569991
 30
0.0
 11
72.655819438926514
 21
134.46437019850001
 31
0.0
  0
LINE
  5
1BD2E
  8
0
 10
80.376887776426415
 20
134.46437019850001
 30
0.0
 11
82.101002418026383
 21
139.90894250569991
 31
0.0
  0
LINE
  5
1BD2F
  8
0
 10
82.060583018226453
 20
140.30418998559989
 30
0.0
 11
80.909544684526267
 21
142.3596174235
 31
0.0
  0
LINE
  5
1BD30
  8
0
 10
72.123162530826448
 20
142.3596174235
 30
0.0
 11
70.972122334426331
 21
140.30418998559989
 31
0.0
  0
ARC
  5
1BD31
  8
0
 10
80.473291607626379
 20
142.1153157338
 30
0.0
 40
0.5000000000000016
 50
29.24882633750309
 51
90.000000412797519
  0
ARC
  5
1BD32
  8
0
 10
72.559415510226472
 20
142.1153157338
 30
0.0
 40
0.5000000000000016
 50
89.999999587195958
 51
150.75117366250041
  0
ARC
  5
1BD33
  8
0
 10
79.900216259626404
 20
134.6153157407
 30
0.0
 40
0.5000000000181539
 50
269.99999964699902
 51
342.42874121860137
  0
ARC
  5
1BD34
  8
0
 10
73.132490858126403
 20
134.6153157407
 30
0.0
 40
0.5000000000181539
 50
197.57125878139851
 51
270.0000003530011
  0
ARC
  5
1BD37
  8
0
 10
71.515656408126461
 20
145.02767737260001
 30
0.0
 40
0.5
 50
180.0
 51
270.0
  0
LINE
  5
1BD3A
  8
0
 10
71.515657090126524
 20
144.52767732550001
 30
0.0
 11
72.515657254026337
 21
144.52767732550001
 31
0.0
  0
ARC
  5
1BD3D
  8
0
 10
71.515656408126461
 20
151.4876773725999
 30
0.0
 40
0.5
 50
180.0
 51
268.86192304920678
  0
ARC
  5
1BD3E
  8
0
 10
71.515656408126461
 20
155.4876773725999
 30
0.0
 40
0.5
 50
91.138076950793248
 51
180.0
  0
ARC
  5
1BD40
  8
0
 10
71.515656408126461
 20
150.2985493905
 30
0.0
 40
0.5
 50
91.138076950793248
 51
180.0
  0
ARC
  5
1BD41
  8
0
 10
81.515656408126475
 20
163.58424683199999
 30
0.0
 40
0.5
 50
0.0
 51
90.0
  0
ARC
  5
1BD42
  8
0
 10
71.515656408126461
 20
163.58424683199999
 30
0.0
 40
0.5
 50
90.0
 51
180.0
  0
LINE
  5
1BD43
  8
0
 10
81.515656866626387
 20
164.08424742519989
 30
0.0
 11
80.515656702726346
 21
164.08424742519989
 31
0.0
  0
LINE
  5
1BD44
  8
0
 10
72.513571091526273
 20
164.08424742519989
 30
0.0
 11
71.515657090126524
 21
164.08424742519989
 31
0.0
  0
ARC
  5
1BD47
  8
0
 10
71.515656408126461
 20
137.11720654050001
 30
0.0
 40
0.5
 50
180.0
 51
270.0
  0
ARC
  5
1BD48
  8
0
 10
71.515656408126461
 20
141.11720654050001
 30
0.0
 40
0.5
 50
90.0
 51
180.0
  0
LINE
  5
1BD4B
  8
0
 10
71.707412683026405
 20
141.61720650269999
 30
0.0
 11
71.515657090126524
 21
141.61720650269999
 31
0.0
  0
LINE
  5
1BD4C
  8
0
 10
71.515657090126524
 20
136.61720661449999
 30
0.0
 11
71.97408758902634
 21
136.61720661449999
 31
0.0
  0
LINE
  5
1BD4D
  8
0
 10
74.016353197926264
 20
165.96969321369991
 30
0.0
 11
72.513571091526273
 21
165.96969321369991
 31
0.0
  0
ARC
  5
1BD50
  8
0
 10
75.487016041126481
 20
151.88712138409991
 30
0.0
 40
2.3765156239344658
 50
270.05280582490161
 51
270.45108886409992
  0
LINE
  5
1BD52
  8
0
 10
71.505725466226295
 20
149.51077720149999
 30
0.0
 11
71.505725466226295
 21
159.01077643039989
 31
0.0
  0
ARC
  5
1BD56
  8
0
 10
75.4936489207264
 20
150.51060658069991
 30
0.0
 40
0.9999999999999987
 50
270.69194543210062
 51
358.56745840769918
  0
ARC
  5
1BD57
  8
0
 10
75.493336372826434
 20
158.0106066226999
 30
0.0
 40
1.0000000000000251
 50
0.0
 51
89.290145551798986
  0
LINE
  5
1BD58
  8
0
 10
76.493335970226326
 20
150.4856065102
 30
0.0
 11
76.493335970226326
 21
158.01060676569989
 31
0.0
  0
LINE
  5
1BD5D
  8
0
 10
71.505725466226295
 20
159.01077643039989
 30
0.0
 11
71.505725466226295
 21
159.0110222994999
 31
0.0
  0
LINE
  5
1BD5E
  8
0
 10
80.515656702726119
 20
163.90367679643461
 30
0.0
 11
80.515656702726346
 21
165.96969321369991
 31
0.0
  0
POLYLINE
  5
1BD6D
  8
0
 66
     1
 10
0.0
 20
0.0
 30
0.0
 70
   128
  0
VERTEX
  5
1D9B2
  8
0
 10
70.90542018083238
 20
148.30932173383289
 30
0.0
  0
VERTEX
  5
1D9B3
  8
0
 10
70.904847316926407
 20
148.3014818467
 30
0.0
  0
VERTEX
  5
1D9B4
  8
0
 10
70.888474666126285
 20
148.09867704289991
 30
0.0
  0
VERTEX
  5
1D9B5
  8
0
 10
70.869859390426427
 20
147.86799589169991
 30
0.0
  0
VERTEX
  5
1D9B6
  8
0
 10
70.852890693126255
 20
147.65848230570001
 30
0.0
  0
VERTEX
  5
1D9B7
  8
0
 10
70.837900125026408
 20
147.48429890720001
 30
0.0
  0
VERTEX
  5
1D9B8
  8
0
 10
70.824384771826317
 20
147.35970145089991
 30
0.0
  0
VERTEX
  5
1D9B9
  8
0
 10
70.814203553426296
 20
147.3114407807
 30
0.0
  0
VERTEX
  5
1D9BA
  8
0
 10
70.812016808026328
 20
147.30871247129991
 30
0.0
  0
VERTEX
  5
1D9BB
  8
0
 10
70.803426288626497
 20
147.34330179169999
 30
0.0
  0
VERTEX
  5
1D9BC
  8
0
 10
70.799544536126405
 20
147.4509924836
 30
0.0
  0
VERTEX
  5
1D9BD
  8
0
 10
70.801481687026353
 20
147.6103566772999
 30
0.0
  0
VERTEX
  5
1D9BE
  8
0
 10
70.811059408426445
 20
147.82179251309989
 30
0.0
  0
VERTEX
  5
1D9BF
  8
0
 10
70.828471415226431
 20
148.04893137889999
 30
0.0
  0
VERTEX
  5
1D9C0
  8
0
 10
70.852618746926282
 20
148.27111933379999
 30
0.0
  0
VERTEX
  5
1D9C1
  8
0
 10
70.859735618784043
 20
148.3201515720842
 30
0.0
  0
SEQEND
  5
1D9C2
  8
0
  0
ARC
  5
1BD71
  8
0
 10
76.132251557026393
 20
146.4326418160999
 30
0.0
 40
4.6596213750966511
 50
204.13097418060221
 51
219.049318671501
  0
ARC
  5
1BD72
  8
0
 10
70.104610666926405
 20
141.17514419520001
 30
0.0
 40
2.2459547038072141
 50
28.982936255797789
 51
43.658246203900482
  0
LINE
  5
1BD74
  8
0
 10
72.351686738926446
 20
144.52767732550001
 30
0.0
 11
72.513571091526273
 21
144.21760953960001
 31
0.0
  0
POLYLINE
  5
1BD76
  8
0
 66
     1
 10
0.0
 20
0.0
 30
0.0
 70
   128
  0
VERTEX
  5
1D9C3
  8
0
 10
72.513571091526273
 20
143.75449314939999
 30
0.0
  0
VERTEX
  5
1D9C4
  8
0
 10
72.277974419826251
 20
144.28463717459991
 30
0.0
  0
VERTEX
  5
1D9C5
  8
0
 10
72.200438090226498
 20
144.52767732550001
 30
0.0
  0
SEQEND
  5
1D9C6
  8
0
  0
LINE
  5
1BD78
  8
0
 10
72.515657254026337
 20
144.61916556922529
 30
0.0
 11
72.515657254026337
 21
142.61339719349999
 31
0.0
  0
ARC
  5
1BD79
  8
0
 10
71.77905640812628
 20
132.73659982109999
 30
0.0
 40
2.736600000000009
 50
270.0
 51
0.0
  0
LINE
  5
1BD7A
  8
0
 10
62.51635360772638
 20
130.0
 30
0.0
 11
71.779057466026416
 21
130.0
 31
0.0
  0
LINE
  5
1BD7B
  8
0
 10
62.51635360772638
 20
131.99999939649999
 30
0.0
 11
71.779057466026416
 21
131.99999939649999
 31
0.0
  0
ARC
  5
1BD7C
  8
0
 10
71.77905640812628
 20
132.73659982109999
 30
0.0
 40
0.73660000000001
 50
270.0
 51
0.0
  0
LINE
  5
1BD7D
  8
0
 10
72.515657254026337
 20
132.7366001158999
 30
0.0
 11
72.515657254026337
 21
134.90699056529999
 31
0.0
  0
LINE
  5
1BD7E
  8
0
 10
74.515655719226274
 20
132.7366001158999
 30
0.0
 11
74.515655719226274
 21
134.11520060149999
 31
0.0
  0
ARC
  5
1BD8A
  8
0
 10
81.691911148426229
 20
150.2476929533
 30
0.0
 40
1.9866649665444931
 50
270.00205222849792
 51
345.00093246190011
  0
ARC
  5
1BD8B
  8
0
 10
81.691911670126501
 20
150.2476921949
 30
0.0
 40
0.7366640054075628
 50
270.0054939528988
 51
345.00255257699888
  0
ARC
  5
1BD8E
  8
0
 10
71.340791241326315
 20
150.24768658679989
 30
0.0
 40
0.7366583968528842
 50
194.9971127151999
 51
269.99484075490238
  0
ARC
  5
1BD8F
  8
0
 10
71.340799481126396
 20
150.24769740249999
 30
0.0
 40
1.9866694158829781
 50
194.99916599900021
 51
269.99784931050192
  0
ARC
  5
1BD9B
  8
0
 10
71.340660548226424
 20
158.27448524229999
 30
0.0
 40
1.986543316782494
 50
89.998143729099056
 51
164.9989250942003
  0
ARC
  5
1BD9C
  8
0
 10
71.340658213826373
 20
158.27448740919999
 30
0.0
 40
0.7365404812938154
 50
89.994811804600744
 51
164.99713808800101
  0
ARC
  5
1BD9F
  8
0
 10
81.692050858526272
 20
158.2744907048
 30
0.0
 40
1.986537854394486
 50
15.000954014400801
 51
90.001977162297266
  0
ARC
  5
1BDA1
  8
0
 10
81.692052482326275
 20
158.27449194600001
 30
0.0
 40
0.7365359448285
 50
15.00259111379899
 51
90.00545899369736
  0
LINE
  5
1BDDA
  8
0
 10
71.015656080417557
 20
148.2878154833578
 30
0.0
 11
71.015656408126461
 21
145.02767737260001
 31
0.0
  0
LINE
  5
1BDDE
  8
0
 10
71.015656408126461
 20
155.4876773725999
 30
0.0
 11
71.015656408126461
 21
151.4876773725999
 31
0.0
  0
LINE
  5
1BDDF
  8
0
 10
82.015656017226334
 20
160.23449385484969
 30
0.0
 11
82.015656408126461
 21
163.58424683199999
 31
0.0
  0
LINE
  5
1BDE1
  8
0
 10
71.015656408126461
 20
163.58424683199999
 30
0.0
 11
71.015656080271128
 21
160.2342623840338
 31
0.0
  0
LINE
  5
1BDE5
  8
0
 10
71.015656408126461
 20
141.11720687808381
 30
0.0
 11
71.015656076926462
 21
140.3819279466
 31
0.0
  0
LINE
  5
1BDE6
  8
0
 10
71.015656076926462
 20
139.64383315289999
 30
0.0
 11
71.015656076926462
 21
137.1220821700999
 31
0.0
  0
LINE
  5
1BDE8
  8
0
 10
72.513571091526273
 20
163.9017051100077
 30
0.0
 11
72.513571091526273
 21
165.96969321369991
 31
0.0
  0
LINE
  5
1BDEE
  8
0
 10
81.525586627926259
 20
149.51077720149999
 30
0.0
 11
81.525586627926259
 21
159.01077643039989
 31
0.0
  0
ARC
  5
1BDF0
  8
0
 10
77.544293802326365
 20
151.88612988790001
 30
0.0
 40
2.375524126083417
 50
269.54882206990231
 51
269.947226420101
  0
ARC
  5
1BDF2
  8
0
 10
77.537663895426249
 20
150.51060658069991
 30
0.0
 40
1.0000000000000151
 50
181.43254159230079
 51
269.30805456789938
  0
LINE
  5
1BDF3
  8
0
 10
76.537976123926455
 20
158.01060676569989
 30
0.0
 11
76.537976123926455
 21
150.4856065102
 31
0.0
  0
ARC
  5
1BDF4
  8
0
 10
77.537976443326443
 20
158.0106066226999
 30
0.0
 40
1.0
 50
90.709854448201014
 51
180.0
  0
LINE
  5
1BDF7
  8
0
 10
81.525586627926259
 20
159.0110222994999
 30
0.0
 11
81.525586627926259
 21
159.01077643039989
 31
0.0
  0
LINE
  5
1BDFA
  8
0
 10
80.515656702726346
 20
142.6135177269999
 30
0.0
 11
80.515656702726346
 21
144.6183611709919
 31
0.0
  0
POLYLINE
  5
1BE0B
  8
0
 66
     1
 10
0.0
 20
0.0
 30
0.0
 70
   128
  0
VERTEX
  5
1D9C7
  8
0
 10
71.881320410026305
 20
141.9277579942999
 30
0.0
  0
VERTEX
  5
1D9C8
  8
0
 10
71.80645325082628
 20
142.14962080119989
 30
0.0
  0
VERTEX
  5
1D9C9
  8
0
 10
71.715675376826312
 20
142.48848054090001
 30
0.0
  0
VERTEX
  5
1D9CA
  8
0
 10
71.691822343126432
 20
142.62229934219991
 30
0.0
  0
VERTEX
  5
1D9CB
  8
0
 10
71.690626524926529
 20
142.7091883114
 30
0.0
  0
VERTEX
  5
1D9CC
  8
0
 10
71.71417781012633
 20
142.73708585360001
 30
0.0
  0
VERTEX
  5
1D9CD
  8
0
 10
71.729492478626284
 20
142.72565108960001
 30
0.0
  0
SEQEND
  5
1D9CE
  8
0
  0
LINE
  5
1BE31
  8
0
 10
313.50296993908267
 20
165.96969321369991
 30
0.0
 11
311.50296961118278
 21
165.96969321369991
 31
0.0
  0
ARC
  5
1BE33
  8
0
 10
322.89360283744242
 20
146.84405282758919
 30
0.0
 40
13.243493230831231
 50
178.72562013267199
 51
202.65514290805231
  0
ARC
  5
1BE35
  8
0
 10
315.50403813457268
 20
149.2844968917293
 30
0.0
 40
5.2483800172346617
 50
90.011657751903769
 51
152.31677694897471
  0
LINE
  5
1BE3C
  8
0
 10
309.21603438608281
 20
151.5467670932
 30
0.0
 11
308.0086268221828
 21
151.2232433259
 31
0.0
  0
LINE
  5
1BE3E
  8
0
 10
308.0086268221828
 20
157.2993883117999
 30
0.0
 11
309.21603438608281
 21
156.9758636132
 31
0.0
  0
LINE
  5
1BE3F
  8
0
 10
313.00227229648272
 20
166.61531582469999
 30
0.0
 11
313.00227229648272
 21
165.96969321369991
 31
0.0
  0
LINE
  5
1BE42
  8
0
 10
313.50227330978259
 20
167.1153149754
 30
0.0
 11
313.00227229648272
 21
166.61531582469999
 31
0.0
  0
ARC
  5
1BE43
  8
0
 10
310.3942953848827
 20
140.059888376
 30
0.0
 40
0.5000000000140571
 50
150.7511736634965
 51
197.5712587752997
  0
LINE
  5
1BE45
  8
0
 10
309.9176238958828
 20
139.90894250569991
 30
0.0
 11
310.00297029668258
 21
139.63943009259989
 31
0.0
  0
LINE
  5
1BE46
  8
0
 10
310.96000668758279
 20
136.61720661449999
 30
0.0
 11
311.50296961118278
 21
134.9025882034999
 31
0.0
  0
LINE
  5
1BE4B
  8
0
 10
310.00297029668258
 20
140.3844178375
 30
0.0
 11
309.95804329568273
 21
140.30418998559989
 31
0.0
  0
ARC
  5
1BE4F
  8
0
 10
310.50296990588282
 20
151.4876773725999
 30
0.0
 40
0.5
 50
180.0
 51
268.4666622208311
  0
ARC
  5
1BE50
  8
0
 10
310.50296990588282
 20
155.4876773725999
 30
0.0
 40
0.5
 50
90.0
 51
180.0
  0
LINE
  5
1BE52
  8
0
 10
311.50296961118278
 20
155.9876772760999
 30
0.0
 11
310.50296944728279
 21
155.9876772760999
 31
0.0
  0
ARC
  5
1BE54
  8
0
 10
310.50296990588282
 20
150.2985493905
 30
0.0
 40
0.5
 50
104.0234189967306
 51
180.0
  0
ARC
  5
1BE59
  8
0
 10
310.50296990588282
 20
159.58424683199999
 30
0.0
 40
0.5
 50
180.0
 51
270.0
  0
ARC
  5
1BE5A
  8
0
 10
310.50296990588282
 20
163.58424683199999
 30
0.0
 40
0.5
 50
90.0
 51
180.0
  0
LINE
  5
1BE5D
  8
0
 10
311.50296961118278
 20
164.08424742519989
 30
0.0
 11
310.50296944728279
 21
164.08424742519989
 31
0.0
  0
LINE
  5
1BE5E
  8
0
 10
310.50296944728279
 20
159.08424660559999
 30
0.0
 11
311.50296961118278
 21
159.08424660559999
 31
0.0
  0
ARC
  5
1BE61
  8
0
 10
310.50296990588282
 20
137.11720654050001
 30
0.0
 40
0.5
 50
180.0
 51
270.0
  0
ARC
  5
1BE62
  8
0
 10
310.50296990588282
 20
141.11720654050001
 30
0.0
 40
0.5
 50
90.0
 51
180.0
  0
LINE
  5
1BE64
  8
0
 10
310.708355483459
 20
141.61720650269999
 30
0.0
 11
310.50296944728279
 21
141.61720650269999
 31
0.0
  0
LINE
  5
1BE65
  8
0
 10
310.50296944728279
 20
136.61720661449999
 30
0.0
 11
311.50296961118278
 21
136.61720661449999
 31
0.0
  0
LINE
  5
1BE68
  8
0
 10
313.50296993908267
 20
135.94220636409989
 30
0.0
 11
317.50297059468289
 21
135.94220636409989
 31
0.0
  0
LINE
  5
1BE69
  8
0
 10
317.50297059468289
 20
165.97424738110001
 30
0.0
 11
313.50296993908267
 21
165.97424738110001
 31
0.0
  0
LINE
  5
1BE6B
  8
0
 10
315.50297026688281
 20
165.97424738110001
 30
0.0
 11
315.50297026688281
 21
158.8671534508
 31
0.0
  0
ARC
  5
1BE75
  8
0
 10
312.42960819918272
 20
157.67763109169991
 30
0.0
 40
0.927549005586883
 50
182.5387799530003
 51
218.35472937729779
  0
ARC
  5
1BE78
  8
0
 10
316.0502000132829
 20
157.6409660905
 30
0.0
 40
2.5472339113316802
 50
180.09945008060069
 51
191.77917794199831
  0
LINE
  5
1BE79
  8
0
 10
311.50296961118278
 20
152.68110453413479
 30
0.0
 11
311.50296961118278
 21
165.96969321369991
 31
0.0
  0
LINE
  5
1BE7A
  8
0
 10
313.50296993908267
 20
165.96969321369991
 30
0.0
 11
313.50296993908267
 21
157.6365447789
 31
0.0
  0
LINE
  5
1BE7D
  8
0
 10
309.7859739993828
 20
148.35902594029989
 30
0.0
 11
309.7601167594828
 21
148.35625292729989
 31
0.0
  0
POLYLINE
  5
1BE7E
  8
0
 66
     1
 10
0.0
 20
0.0
 30
0.0
 70
   128
  0
VERTEX
  5
1D9CF
  8
0
 10
309.7601167594828
 20
148.35625292729989
 30
0.0
  0
VERTEX
  5
1D9D0
  8
0
 10
309.73574777298268
 20
148.2758052833
 30
0.0
  0
VERTEX
  5
1D9D1
  8
0
 10
309.71572992558282
 20
148.15053028979989
 30
0.0
  0
VERTEX
  5
1D9D2
  8
0
 10
309.69597843638257
 20
147.96335354449999
 30
0.0
  0
VERTEX
  5
1D9D3
  8
0
 10
309.67848819848268
 20
147.73149147629991
 30
0.0
  0
VERTEX
  5
1D9D4
  8
0
 10
309.6646953110826
 20
147.49562518670001
 30
0.0
  0
VERTEX
  5
1D9D5
  8
0
 10
309.65555344868272
 20
147.2861907631
 30
0.0
  0
VERTEX
  5
1D9D6
  8
0
 10
309.65338532978279
 20
147.13859196749999
 30
0.0
  0
VERTEX
  5
1D9D7
  8
0
 10
309.66001820918268
 20
147.04947696999989
 30
0.0
  0
VERTEX
  5
1D9D8
  8
0
 10
309.66234651558261
 20
147.0417120679999
 30
0.0
  0
VERTEX
  5
1D9D9
  8
0
 10
309.68249102288269
 20
147.04969909039991
 30
0.0
  0
VERTEX
  5
1D9DA
  8
0
 10
309.70825140528268
 20
147.12409313769999
 30
0.0
  0
VERTEX
  5
1D9DB
  8
0
 10
309.74041928698261
 20
147.2672909684
 30
0.0
  0
VERTEX
  5
1D9DC
  8
0
 10
309.76930705058271
 20
147.4440182745
 30
0.0
  0
VERTEX
  5
1D9DD
  8
0
 10
309.79526487338262
 20
147.65873935069999
 30
0.0
  0
VERTEX
  5
1D9DE
  8
0
 10
309.81332321818257
 20
147.89698703209999
 30
0.0
  0
VERTEX
  5
1D9DF
  8
0
 10
309.81789414938271
 20
148.11142032959989
 30
0.0
  0
VERTEX
  5
1D9E0
  8
0
 10
309.80837603268259
 20
148.27163156119991
 30
0.0
  0
VERTEX
  5
1D9E1
  8
0
 10
309.79034562758261
 20
148.35061144080001
 30
0.0
  0
VERTEX
  5
1D9E2
  8
0
 10
309.7859739993828
 20
148.35902594029989
 30
0.0
  0
SEQEND
  5
1D9E3
  8
0
  0
POLYLINE
  5
1BE81
  8
0
 66
     1
 10
0.0
 20
0.0
 30
0.0
 70
   128
  0
VERTEX
  5
1D9E4
  8
0
 10
310.91787737958271
 20
149.85072204839989
 30
0.0
  0
VERTEX
  5
1D9E5
  8
0
 10
310.80819179468273
 20
149.87780909979989
 30
0.0
  0
VERTEX
  5
1D9E6
  8
0
 10
310.69245447568278
 20
149.825796131
 30
0.0
  0
VERTEX
  5
1D9E7
  8
0
 10
310.58758196588269
 20
149.72089428449999
 30
0.0
  0
VERTEX
  5
1D9E8
  8
0
 10
310.48018557188288
 20
149.5502708665999
 30
0.0
  0
VERTEX
  5
1D9E9
  8
0
 10
310.39701660328268
 20
149.34232097119991
 30
0.0
  0
VERTEX
  5
1D9EA
  8
0
 10
310.34726721398278
 20
149.12913657719989
 30
0.0
  0
VERTEX
  5
1D9EB
  8
0
 10
310.33211832098277
 20
148.91520619389999
 30
0.0
  0
VERTEX
  5
1D9EC
  8
0
 10
310.35763097158269
 20
148.74120859429999
 30
0.0
  0
VERTEX
  5
1D9ED
  8
0
 10
310.42328362518259
 20
148.6228039673999
 30
0.0
  0
VERTEX
  5
1D9EE
  8
0
 10
310.44403349218283
 20
148.60644249239999
 30
0.0
  0
VERTEX
  5
1D9EF
  8
0
 10
310.55200544348281
 20
148.58873385929999
 30
0.0
  0
VERTEX
  5
1D9F0
  8
0
 10
310.66314202898269
 20
148.63803062589989
 30
0.0
  0
VERTEX
  5
1D9F1
  8
0
 10
310.79034020358267
 20
148.7574787996999
 30
0.0
  0
VERTEX
  5
1D9F2
  8
0
 10
310.90151404198281
 20
148.92464421689999
 30
0.0
  0
VERTEX
  5
1D9F3
  8
0
 10
310.9919789915827
 20
149.1337792203
 30
0.0
  0
VERTEX
  5
1D9F4
  8
0
 10
311.04167063888281
 20
149.3497152068
 30
0.0
  0
VERTEX
  5
1D9F5
  8
0
 10
311.04895916928263
 20
149.54333437610001
 30
0.0
  0
VERTEX
  5
1D9F6
  8
0
 10
311.01457287718267
 20
149.71674989909999
 30
0.0
  0
VERTEX
  5
1D9F7
  8
0
 10
310.94122749918279
 20
149.83219385149991
 30
0.0
  0
VERTEX
  5
1D9F8
  8
0
 10
310.91787737958271
 20
149.85072204839989
 30
0.0
  0
SEQEND
  5
1D9F9
  8
0
  0
POLYLINE
  5
1BE83
  8
0
 66
     1
 10
0.0
 20
0.0
 30
0.0
 70
   128
  0
VERTEX
  5
1D9FA
  8
0
 10
311.27663959908273
 20
152.06232957540001
 30
0.0
  0
VERTEX
  5
1D9FB
  8
0
 10
311.20398526248277
 20
152.07119856029999
 30
0.0
  0
VERTEX
  5
1D9FC
  8
0
 10
311.09949273218263
 20
152.0096819103
 30
0.0
  0
VERTEX
  5
1D9FD
  8
0
 10
310.98417078308279
 20
151.8941969796999
 30
0.0
  0
VERTEX
  5
1D9FE
  8
0
 10
310.8564417545827
 20
151.7228038236
 30
0.0
  0
VERTEX
  5
1D9FF
  8
0
 10
310.74485999698283
 20
151.53361681849989
 30
0.0
  0
VERTEX
  5
1DA00
  8
0
 10
310.65350284028273
 20
151.34224399919989
 30
0.0
  0
VERTEX
  5
1DA01
  8
0
 10
310.58600430538269
 20
151.15554455669999
 30
0.0
  0
VERTEX
  5
1DA02
  8
0
 10
310.55900712658291
 20
151.01720310749999
 30
0.0
  0
VERTEX
  5
1DA03
  8
0
 10
310.57154831638258
 20
150.9275921807
 30
0.0
  0
VERTEX
  5
1DA04
  8
0
 10
310.58403921478271
 20
150.91290894889991
 30
0.0
  0
VERTEX
  5
1DA05
  8
0
 10
310.6516178434826
 20
150.9100022911999
 30
0.0
  0
VERTEX
  5
1DA06
  8
0
 10
310.75066772458263
 20
150.97007725389989
 30
0.0
  0
VERTEX
  5
1DA07
  8
0
 10
310.8769457523826
 20
151.0933499038
 30
0.0
  0
VERTEX
  5
1DA08
  8
0
 10
311.00109105158282
 20
151.25018183139991
 30
0.0
  0
VERTEX
  5
1DA09
  8
0
 10
311.12575975408282
 20
151.44274488089999
 30
0.0
  0
VERTEX
  5
1DA0A
  8
0
 10
311.22496982268291
 20
151.63832448420001
 30
0.0
  0
VERTEX
  5
1DA0B
  8
0
 10
311.28626574928279
 20
151.80753927679999
 30
0.0
  0
VERTEX
  5
1DA0C
  8
0
 10
311.31177839988271
 20
151.95483911779999
 30
0.0
  0
VERTEX
  5
1DA0D
  8
0
 10
311.29128371528282
 20
152.0467047766
 30
0.0
  0
VERTEX
  5
1DA0E
  8
0
 10
311.27663959908273
 20
152.06232957540001
 30
0.0
  0
SEQEND
  5
1DA0F
  8
0
  0
ARC
  5
1BE85
  8
0
 10
315.62279338370519
 20
148.1480396525518
 30
0.0
 40
5.8663728118816509
 50
149.15825474217061
 51
177.9659922077212
  0
POLYLINE
  5
1BE86
  8
0
 66
     1
 10
0.0
 20
0.0
 30
0.0
 70
   128
  0
VERTEX
  5
1DA10
  8
0
 10
312.27374707508261
 20
149.6995097212
 30
0.0
  0
VERTEX
  5
1DA11
  8
0
 10
312.4332416539828
 20
149.6289089508
 30
0.0
  0
VERTEX
  5
1DA12
  8
0
 10
312.61975390068278
 20
149.63099883870001
 30
0.0
  0
VERTEX
  5
1DA13
  8
0
 10
312.80249429098279
 20
149.6971003896999
 30
0.0
  0
VERTEX
  5
1DA14
  8
0
 10
312.98216317948282
 20
149.82814120130001
 30
0.0
  0
VERTEX
  5
1DA15
  8
0
 10
313.11563846818262
 20
149.99772805719991
 30
0.0
  0
VERTEX
  5
1DA16
  8
0
 10
313.20054342198279
 20
150.19112091509999
 30
0.0
  0
VERTEX
  5
1DA17
  8
0
 10
313.2263950740828
 20
150.39790758859999
 30
0.0
  0
VERTEX
  5
1DA18
  8
0
 10
313.18808977658267
 20
150.5702427775
 30
0.0
  0
VERTEX
  5
1DA19
  8
0
 10
313.09190278108281
 20
150.71458101269999
 30
0.0
  0
VERTEX
  5
1DA1A
  8
0
 10
313.05121516038281
 20
150.74941247699999
 30
0.0
  0
VERTEX
  5
1DA1B
  8
0
 10
312.88842742498269
 20
150.82181163129999
 30
0.0
  0
VERTEX
  5
1DA1C
  8
0
 10
312.70023507228279
 20
150.82360535859991
 30
0.0
  0
VERTEX
  5
1DA1D
  8
0
 10
312.50794303768271
 20
150.75056079769999
 30
0.0
  0
VERTEX
  5
1DA1E
  8
0
 10
312.35070039678271
 20
150.62755590299989
 30
0.0
  0
VERTEX
  5
1DA1F
  8
0
 10
312.21514639608267
 20
150.45199554409999
 30
0.0
  0
VERTEX
  5
1DA20
  8
0
 10
312.13126030918289
 20
150.25043871249991
 30
0.0
  0
VERTEX
  5
1DA21
  8
0
 10
312.10755256168272
 20
150.05848381669989
 30
0.0
  0
VERTEX
  5
1DA22
  8
0
 10
312.14288321488272
 20
149.8714770377
 30
0.0
  0
VERTEX
  5
1DA23
  8
0
 10
312.2378874306828
 20
149.729684107
 30
0.0
  0
VERTEX
  5
1DA24
  8
0
 10
312.27374707508261
 20
149.6995097212
 30
0.0
  0
SEQEND
  5
1DA25
  8
0
  0
POLYLINE
  5
1BE88
  8
0
 66
     1
 10
0.0
 20
0.0
 30
0.0
 70
   128
  0
VERTEX
  5
1DA26
  8
0
 10
313.41440861278261
 20
152.90752064439991
 30
0.0
  0
VERTEX
  5
1DA27
  8
0
 10
313.27850629738282
 20
152.96539675439999
 30
0.0
  0
VERTEX
  5
1DA28
  8
0
 10
313.09997734778273
 20
152.96427916729999
 30
0.0
  0
VERTEX
  5
1DA29
  8
0
 10
312.91102317328267
 20
152.9091262444999
 30
0.0
  0
VERTEX
  5
1DA2A
  8
0
 10
312.71078136918283
 20
152.79896102839999
 30
0.0
  0
VERTEX
  5
1DA2B
  8
0
 10
312.54063059738269
 20
152.65306655320001
 30
0.0
  0
VERTEX
  5
1DA2C
  8
0
 10
312.41116930898261
 20
152.4857404828
 30
0.0
  0
VERTEX
  5
1DA2D
  8
0
 10
312.33988587908271
 20
152.31630776079999
 30
0.0
  0
VERTEX
  5
1DA2E
  8
0
 10
312.33556640498273
 20
152.18270115550001
 30
0.0
  0
VERTEX
  5
1DA2F
  8
0
 10
312.38931675608268
 20
152.07311335950001
 30
0.0
  0
VERTEX
  5
1DA30
  8
0
 10
312.41662685918283
 20
152.04884774979999
 30
0.0
  0
VERTEX
  5
1DA31
  8
0
 10
312.54925650708259
 20
151.9988310709
 30
0.0
  0
VERTEX
  5
1DA32
  8
0
 10
312.71899749688282
 20
152.00365718450001
 30
0.0
  0
VERTEX
  5
1DA33
  8
0
 10
312.92057668018271
 20
152.06506580109999
 30
0.0
  0
VERTEX
  5
1DA34
  8
0
 10
313.11026101168272
 20
152.16831967229999
 30
0.0
  0
VERTEX
  5
1DA35
  8
0
 10
313.28831871208263
 20
152.31096196920001
 30
0.0
  0
VERTEX
  5
1DA36
  8
0
 10
313.4187858288829
 20
152.47084677219999
 30
0.0
  0
VERTEX
  5
1DA37
  8
0
 10
313.4889013801826
 20
152.62434642759999
 30
0.0
  0
VERTEX
  5
1DA38
  8
0
 10
313.49861879998281
 20
152.77406211940001
 30
0.0
  0
VERTEX
  5
1DA39
  8
0
 10
313.44036643558269
 20
152.8844573721
 30
0.0
  0
VERTEX
  5
1DA3A
  8
0
 10
313.41440861278261
 20
152.90752064439991
 30
0.0
  0
SEQEND
  5
1DA3B
  8
0
  0
ARC
  5
1BE9D
  8
0
 10
315.51716320658261
 20
142.73439456409989
 30
0.0
 40
4.319947497893021
 50
213.39874808411329
 51
269.81175766440577
  0
POLYLINE
  5
1BEB2
  8
0
 66
     1
 10
0.0
 20
0.0
 30
0.0
 70
   128
  0
VERTEX
  5
1DA3C
  8
0
 10
309.94516114042563
 20
149.6241230099732
 30
0.0
  0
VERTEX
  5
1DA3D
  8
0
 10
309.74287052798257
 20
149.79894330719989
 30
0.0
  0
VERTEX
  5
1DA3E
  8
0
 10
309.61514336218261
 20
150.05747798830001
 30
0.0
  0
SEQEND
  5
1DA3F
  8
0
  0
ARC
  5
1BEB3
  8
0
 10
310.16356812918281
 20
150.12223487630001
 30
0.0
 40
1.79825166243968
 50
192.46957763430049
 51
257.05103080643261
  0
LINE
  5
1BEB8
  8
0
 10
310.32664400688282
 20
159.01102788750001
 30
0.0
 11
311.50296961118278
 21
159.0110222994999
 31
0.0
  0
ARC
  5
1BEBE
  8
0
 10
310.17097563468269
 20
158.3883896788
 30
0.0
 40
1.8081975687476051
 50
95.331221003397133
 51
167.19673157119959
  0
ARC
  5
1BEC4
  8
0
 10
310.32657383168271
 20
158.27449194600001
 30
0.0
 40
0.7365359448286422
 50
89.994541006296132
 51
164.99740888620099
  0
LINE
  5
1BED2
  8
0
 10
310.00296990588282
 20
155.4876773725999
 30
0.0
 11
310.00296990588282
 21
151.4876773725999
 31
0.0
  0
LINE
  5
1BED6
  8
0
 10
310.00296990588282
 20
150.2985493905
 30
0.0
 11
310.00297027488858
 21
149.83087006397079
 31
0.0
  0
LINE
  5
1BEDA
  8
0
 10
310.00296990588282
 20
163.58424683199999
 30
0.0
 11
310.00296990588282
 21
159.58424695790501
 31
0.0
  0
LINE
  5
1BEDD
  8
0
 10
310.00296990588299
 20
137.11720693883251
 30
0.0
 11
310.00297029668258
 21
141.1123308306
 31
0.0
  0
LINE
  5
1BEEB
  8
0
 10
315.50297026688281
 20
135.94220636409989
 30
0.0
 11
315.50297026688281
 21
137.94792257361041
 31
0.0
  0
LINE
  5
1BEEC
  8
0
 10
313.50296993908267
 20
165.97424738110001
 30
0.0
 11
313.50296993908267
 21
165.96969321369991
 31
0.0
  0
LINE
  5
1BEEE
  8
0
 10
310.49303968598241
 20
159.01102709705631
 30
0.0
 11
310.49303968598269
 21
155.9875785559
 31
0.0
  0
ARC
  5
1BEF1
  8
0
 10
310.76636990588258
 20
132.73659982109999
 30
0.0
 40
2.736599999999981
 50
270.0
 51
0.0
  0
LINE
  5
1BEF2
  8
0
 10
310.76636982318269
 20
130.0
 30
0.0
 11
301.50297026688293
 21
130.0
 31
0.0
  0
LINE
  5
1BEF3
  8
0
 10
310.76636982318269
 20
131.99999939649999
 30
0.0
 11
301.50297026688293
 21
131.99999939649999
 31
0.0
  0
ARC
  5
1BEF4
  8
0
 10
310.76636990588258
 20
132.73659982109999
 30
0.0
 40
0.7365999999999815
 50
270.0
 51
0.0
  0
LINE
  5
1BEF5
  8
0
 10
311.50296961118278
 20
140.03788062477309
 30
0.0
 11
311.50296961118278
 21
132.7366001158999
 31
0.0
  0
LINE
  5
1BEF6
  8
0
 10
313.50296993908267
 20
138.4160625294725
 30
0.0
 11
313.50296993908267
 21
132.7366001158999
 31
0.0
  0
ARC
  5
1BF03
  8
0
 10
315.6583823187828
 20
143.1181762320999
 30
0.0
 40
5.172588887491484
 50
195.41939543960001
 51
268.27827126731489
  0
LINE
  5
1BFB7
  8
0
 10
160.51620192940001
 20
134.1154599593925
 30
0.0
 11
153.75620192939999
 21
134.11517135733689
 31
0.0
  0
LINE
  5
1BFB8
  8
0
 10
162.68018312704339
 20
140.3044266233409
 30
0.0
 11
151.59172361710009
 21
140.30395342969999
 31
0.0
  0
LINE
  5
1BFB9
  8
0
 10
151.55132271268101
 20
139.9087047339992
 30
0.0
 11
162.72061860189999
 21
139.90918092429999
 31
0.0
  0
LINE
  5
1BFBA
  8
0
 10
70.972122334426331
 20
140.30418998559989
 30
0.0
 11
82.060583018226453
 21
140.30418998559989
 31
0.0
  0
LINE
  5
1BFBB
  8
0
 10
82.101002418026383
 20
139.90894250569991
 30
0.0
 11
70.931706660026293
 21
139.90894250569991
 31
0.0
  0
LINE
  5
1BFBC
  8
0
 10
179.68798907120001
 20
71.500000557865263
 30
0.0
 11
180.0
 21
71.500000557865263
 31
0.0
  0
LINE
  5
1BFBD
  8
0
 10
179.68798907120001
 20
60.500000557865278
 30
0.0
 11
180.0
 21
60.500000557865278
 31
0.0
  0
LINE
  5
1C685
  8
0
 10
222.7330634555999
 20
153.82714208210001
 30
0.0
 11
244.3839142284998
 21
154.7484026477
 31
0.0
  0
ARC
  5
1C687
  8
0
 10
243.6770216199692
 20
146.95634430196179
 30
0.0
 40
7.8240571587497589
 50
43.693715559968659
 51
84.816337911479764
  0
ARC
  5
1C689
  8
0
 10
243.67788954766141
 20
146.96064038455339
 30
0.0
 40
7.8204622642987927
 50
358.5531536083999
 51
43.675350600696888
  0
LINE
  5
1C87D
  8
0
 10
71.015656408126461
 20
150.2985493905
 30
0.0
 11
71.015656408126461
 21
149.58666243149699
 31
0.0
  0
LINE
  5
1C87E
  8
0
 10
74.516354211226371
 20
167.1153149754
 30
0.0
 11
78.516353004226403
 21
167.1153149754
 31
0.0
  0
LINE
  5
1C87F
  8
0
 10
74.016353197926264
 20
166.61531582469999
 30
0.0
 11
79.016354017426465
 21
166.61531582469999
 31
0.0
  0
LINE
  5
1C8C9
  8
0
 10
69.022707723626354
 20
151.2232433259
 30
0.0
 11
69.421816699678175
 21
149.7335374541274
 31
0.0
  0
LINE
  5
1C8CA
  8
0
 10
70.23011528752636
 20
151.5467670932
 30
0.0
 11
70.62922426363707
 21
150.05706122144639
 31
0.0
  0
LINE
  5
1C8CB
  8
0
 10
82.403482951729757
 20
150.05706122139159
 30
0.0
 11
82.80259192782637
 21
151.5467670932
 31
0.0
  0
LINE
  5
1C8CC
  8
0
 10
83.610890515688666
 20
149.73353745414011
 30
0.0
 11
84.00999949182642
 21
151.2232433259
 31
0.0
  0
LINE
  5
1C8CD
  8
0
 10
82.403482951770684
 20
158.46515364947149
 30
0.0
 11
82.80259192782637
 21
156.9758636132
 31
0.0
  0
LINE
  5
1C8CE
  8
0
 10
83.610890515703446
 20
158.7886764854145
 30
0.0
 11
84.00999949182642
 21
157.2993883117999
 31
0.0
  0
LINE
  5
1C8CF
  8
0
 10
70.629224263688002
 20
158.46515364946009
 30
0.0
 11
70.23011528752636
 21
156.9758636132
 31
0.0
  0
LINE
  5
1C8D0
  8
0
 10
69.421816699726151
 20
158.78867648544389
 30
0.0
 11
69.022707723626354
 21
157.2993883117999
 31
0.0
  0
LINE
  5
1C8D1
  8
0
 10
73.132490861206861
 20
134.11531574068181
 30
0.0
 11
79.900216259626404
 21
134.11531574068181
 31
0.0
  0
LINE
  5
1C8D2
  8
0
 10
72.559415513828753
 20
142.61531573379989
 30
0.0
 11
80.473291604024098
 21
142.61531573379989
 31
0.0
  0
LINE
  5
1C8D3
  8
0
 10
71.340724908321363
 20
149.51102819293359
 30
0.0
 11
81.691982873755933
 21
149.51102819293359
 31
0.0
  0
LINE
  5
1C8D4
  8
0
 10
71.340658213826373
 20
159.01102789049381
 30
0.0
 11
81.692052482326275
 21
159.0110278908285
 31
0.0
  0
LINE
  5
1C8D5
  8
0
 10
71.340660548226424
 20
160.26102855908249
 30
0.0
 11
81.691982307094122
 21
160.2610285580117
 31
0.0
  0
LINE
  5
1C8D7
  8
0
 10
71.340724908285424
 20
148.26102798801659
 30
0.0
 11
81.691982307078661
 21
148.26102798802989
 31
0.0
  0
ARC
  5
1C9C6
  8
0
 10
68.886043286453969
 20
147.00652851731019
 30
0.0
 40
13.35451774887137
 50
337.2391300695038
 51
1.907265661719316
  0
LINE
  5
1C9C7
  8
0
 10
90.516353607726387
 20
131.99999939649999
 30
0.0
 11
90.516353607726387
 21
130.0
 31
0.0
  0
ARC
  5
1C9C8
  8
0
 10
81.517050807326314
 20
145.02767737260001
 30
0.0
 40
0.5
 50
270.0
 51
0.0
  0
LINE
  5
1C9C9
  8
0
 10
81.517050125326477
 20
144.52767732550001
 30
0.0
 11
80.517049961426437
 21
144.52767732550001
 31
0.0
  0
ARC
  5
1C9CA
  8
0
 10
81.517050807326314
 20
151.4876773725999
 30
0.0
 40
0.5
 50
271.13807695080629
 51
0.0
  0
ARC
  5
1C9CB
  8
0
 10
81.517050807326314
 20
155.4876773725999
 30
0.0
 40
0.5
 50
0.0
 51
88.861923049193692
  0
ARC
  5
1C9CC
  8
0
 10
81.517050807326314
 20
150.2985493905
 30
0.0
 40
0.5
 50
0.0
 51
88.861923049193692
  0
ARC
  5
1C9CD
  8
0
 10
81.517050807326314
 20
137.11720654050001
 30
0.0
 40
0.5
 50
270.0
 51
0.0
  0
ARC
  5
1C9CE
  8
0
 10
81.517050807326314
 20
141.11720654050001
 30
0.0
 40
0.5
 50
0.0
 51
90.0
  0
LINE
  5
1C9CF
  8
0
 10
81.325294532426369
 20
141.61720650269999
 30
0.0
 11
81.517050125326477
 21
141.61720650269999
 31
0.0
  0
LINE
  5
1C9D0
  8
0
 10
81.517050125326477
 20
136.61720661449999
 30
0.0
 11
81.058619626426434
 21
136.61720661449999
 31
0.0
  0
POLYLINE
  5
1C9D1
  8
0
 66
     1
 10
0.0
 20
0.0
 30
0.0
 70
   128
  0
VERTEX
  5
1DA40
  8
0
 10
82.127287034620394
 20
148.30932173383289
 30
0.0
  0
VERTEX
  5
1DA41
  8
0
 10
82.127859898526367
 20
148.3014818467
 30
0.0
  0
VERTEX
  5
1DA42
  8
0
 10
82.144232549326262
 20
148.09867704289991
 30
0.0
  0
VERTEX
  5
1DA43
  8
0
 10
82.162847825026347
 20
147.86799589169991
 30
0.0
  0
VERTEX
  5
1DA44
  8
0
 10
82.179816522326277
 20
147.65848230570001
 30
0.0
  0
VERTEX
  5
1DA45
  8
0
 10
82.194807090426366
 20
147.48429890720001
 30
0.0
  0
VERTEX
  5
1DA46
  8
0
 10
82.208322443626443
 20
147.35970145089991
 30
0.0
  0
VERTEX
  5
1DA47
  8
0
 10
82.218503662026251
 20
147.3114407807
 30
0.0
  0
VERTEX
  5
1DA48
  8
0
 10
82.220690407426446
 20
147.30871247129991
 30
0.0
  0
VERTEX
  5
1DA49
  8
0
 10
82.229280926826505
 20
147.34330179169999
 30
0.0
  0
VERTEX
  5
1DA4A
  8
0
 10
82.233162679326355
 20
147.4509924836
 30
0.0
  0
VERTEX
  5
1DA4B
  8
0
 10
82.231225528426421
 20
147.6103566772999
 30
0.0
  0
VERTEX
  5
1DA4C
  8
0
 10
82.221647807026315
 20
147.82179251309989
 30
0.0
  0
VERTEX
  5
1DA4D
  8
0
 10
82.204235800226343
 20
148.04893137889999
 30
0.0
  0
VERTEX
  5
1DA4E
  8
0
 10
82.180088468526264
 20
148.27111933379999
 30
0.0
  0
VERTEX
  5
1DA4F
  8
0
 10
82.172971596668503
 20
148.3201515720842
 30
0.0
  0
SEQEND
  5
1DA50
  8
0
  0
ARC
  5
1C9D2
  8
0
 10
76.900455658426381
 20
146.4326418160999
 30
0.0
 40
4.6596213750966511
 50
320.95068132849428
 51
335.86902581939461
  0
ARC
  5
1C9D3
  8
0
 10
82.928096548526355
 20
141.17514419520001
 30
0.0
 40
2.2459547038072141
 50
136.3417537960988
 51
151.01706374419601
  0
LINE
  5
1C9D4
  8
0
 10
80.681020476526328
 20
144.52767732550001
 30
0.0
 11
80.519136123926273
 21
144.21760953960001
 31
0.0
  0
POLYLINE
  5
1C9D5
  8
0
 66
     1
 10
0.0
 20
0.0
 30
0.0
 70
   128
  0
VERTEX
  5
1DA51
  8
0
 10
80.519136123926273
 20
143.75449314939999
 30
0.0
  0
VERTEX
  5
1DA52
  8
0
 10
80.754732795626296
 20
144.28463717459991
 30
0.0
  0
VERTEX
  5
1DA53
  8
0
 10
80.832269125226503
 20
144.52767732550001
 30
0.0
  0
SEQEND
  5
1DA54
  8
0
  0
ARC
  5
1C9D6
  8
0
 10
81.253650807326267
 20
132.73659982109999
 30
0.0
 40
2.736600000000009
 50
180.0
 51
270.0
  0
LINE
  5
1C9D7
  8
0
 10
90.516353607726387
 20
130.0
 30
0.0
 11
81.253649749426359
 21
130.0
 31
0.0
  0
LINE
  5
1C9D8
  8
0
 10
90.516353607726387
 20
131.99999939649999
 30
0.0
 11
81.253649749426359
 21
131.99999939649999
 31
0.0
  0
ARC
  5
1C9D9
  8
0
 10
81.253650807326267
 20
132.73659982109999
 30
0.0
 40
0.73660000000001
 50
180.0
 51
270.0
  0
LINE
  5
1C9DA
  8
0
 10
80.517049961426437
 20
132.7366001158999
 30
0.0
 11
80.517049961426437
 21
134.90699056529999
 31
0.0
  0
LINE
  5
1C9DB
  8
0
 10
78.517051496226486
 20
132.7366001158999
 30
0.0
 11
78.517051496226486
 21
134.11520060149999
 31
0.0
  0
LINE
  5
1C9DC
  8
0
 10
82.017051135035203
 20
148.2878154833578
 30
0.0
 11
82.017050807326314
 21
145.02767737260001
 31
0.0
  0
LINE
  5
1C9DD
  8
0
 10
82.017050807326314
 20
155.4876773725999
 30
0.0
 11
82.017050807326314
 21
151.4876773725999
 31
0.0
  0
LINE
  5
1C9DE
  8
0
 10
82.017050807326086
 20
141.11720687808381
 30
0.0
 11
82.017051138526298
 21
140.3819279466
 31
0.0
  0
LINE
  5
1C9DF
  8
0
 10
82.017051138526298
 20
139.64383315289999
 30
0.0
 11
82.017051138526298
 21
137.1220821700999
 31
0.0
  0
POLYLINE
  5
1C9E0
  8
0
 66
     1
 10
0.0
 20
0.0
 30
0.0
 70
   128
  0
VERTEX
  5
1DA55
  8
0
 10
81.151386805426455
 20
141.9277579942999
 30
0.0
  0
VERTEX
  5
1DA56
  8
0
 10
81.226253964626267
 20
142.14962080119989
 30
0.0
  0
VERTEX
  5
1DA57
  8
0
 10
81.317031838626448
 20
142.48848054090001
 30
0.0
  0
VERTEX
  5
1DA58
  8
0
 10
81.340884872326342
 20
142.62229934219991
 30
0.0
  0
VERTEX
  5
1DA59
  8
0
 10
81.342080690526473
 20
142.7091883114
 30
0.0
  0
VERTEX
  5
1DA5A
  8
0
 10
81.318529405326444
 20
142.73708585360001
 30
0.0
  0
VERTEX
  5
1DA5B
  8
0
 10
81.303214736826249
 20
142.72565108960001
 30
0.0
  0
SEQEND
  5
1DA5C
  8
0
  0
LINE
  5
1C9E1
  8
0
 10
82.017050807326314
 20
150.2985493905
 30
0.0
 11
82.017050807326314
 21
149.58666243149699
 31
0.0
  0
LINE
  5
1CA30
  8
0
 10
153.17891609693081
 20
142.61514689744479
 30
0.0
 11
161.092792187231
 21
142.6154845693448
 31
0.0
  0
LINE
  5
1CA33
  8
0
 10
155.13620253289989
 20
167.11523121531019
 30
0.0
 11
159.13620132589989
 21
167.11540071601021
 31
0.0
  0
LINE
  5
1CA34
  8
0
 10
154.63622387140001
 20
166.61520971301019
 30
0.0
 11
159.63622282829979
 21
166.61542205451019
 31
0.0
  0
LINE
  5
1CA35
  8
0
 10
313.50227330978259
 20
167.1153149754
 30
0.0
 11
317.50366722398297
 21
167.1153149754
 31
0.0
  0
LINE
  5
1CA38
  8
0
 10
309.21603438608281
 20
156.9758636132
 30
0.0
 11
309.61514336223831
 21
158.4651536494716
 31
0.0
  0
LINE
  5
1CA39
  8
0
 10
308.40773579829221
 20
158.78909371794839
 30
0.0
 11
308.0086268221828
 21
157.2993883117999
 31
0.0
  0
LINE
  5
1CB73
  8
0
 10
313.55660666878271
 20
157.1209729835
 30
0.0
 11
314.81836179040079
 21
154.48789393177461
 31
0.0
  0
LINE
  5
1CB74
  8
0
 10
313.19305931378273
 20
153.99359270929989
 30
0.0
 11
311.70223911458271
 21
157.10206061599999
 31
0.0
  0
LINE
  5
1CB75
  8
0
 10
313.00227229648272
 20
166.61531582469999
 30
0.0
 11
318.00366823728291
 21
166.61531582469999
 31
0.0
  0
LINE
  5
1CB76
  8
0
 10
308.0086268221828
 20
151.2232433259
 30
0.0
 11
308.40773579829192
 21
149.7339542210191
 31
0.0
  0
LINE
  5
1CB77
  8
0
 10
309.21603438608281
 20
151.5467670932
 30
0.0
 11
309.61514336218261
 21
150.05747798830001
 31
0.0
  0
LINE
  5
1CC14
  8
0
 10
317.50297059468289
 20
165.96969321369991
 30
0.0
 11
319.50297092258279
 21
165.96969321369991
 31
0.0
  0
ARC
  5
1CC15
  8
0
 10
308.11233769632332
 20
146.84405282758919
 30
0.0
 40
13.243493230831231
 50
337.3448570919461
 51
1.2743798673279401
  0
ARC
  5
1CC16
  8
0
 10
315.50190239919289
 20
149.2844968917293
 30
0.0
 40
5.2483800172346617
 50
27.683223051025241
 51
89.988342248109248
  0
LINE
  5
1CC17
  8
0
 10
321.78990614768281
 20
151.5467670932
 30
0.0
 11
322.99731371158282
 21
151.2232433259
 31
0.0
  0
LINE
  5
1CC18
  8
0
 10
322.99731371158282
 20
157.2993883117999
 30
0.0
 11
321.78990614768281
 21
156.9758636132
 31
0.0
  0
LINE
  5
1CC19
  8
0
 10
318.00366823728291
 20
166.61531582469999
 30
0.0
 11
318.00366823728291
 21
165.96969321369991
 31
0.0
  0
LINE
  5
1CC1A
  8
0
 10
317.50366722398297
 20
167.1153149754
 30
0.0
 11
318.00366823728291
 21
166.61531582469999
 31
0.0
  0
ARC
  5
1CC1B
  8
0
 10
320.61164514888287
 20
140.059888376
 30
0.0
 40
0.5000000000140571
 50
342.4287412247001
 51
29.248826336505619
  0
LINE
  5
1CC1C
  8
0
 10
321.08831663788283
 20
139.90894250569991
 30
0.0
 11
321.00297023708299
 21
139.63943009259989
 31
0.0
  0
LINE
  5
1CC1D
  8
0
 10
320.04593384618278
 20
136.61720661449999
 30
0.0
 11
319.50297092258279
 21
134.9025882034999
 31
0.0
  0
LINE
  5
1CC1E
  8
0
 10
321.00297023708299
 20
140.3844178375
 30
0.0
 11
321.0478972380829
 21
140.30418998559989
 31
0.0
  0
ARC
  5
1CC1F
  8
0
 10
320.50297062788292
 20
151.4876773725999
 30
0.0
 40
0.5
 50
271.5333377791689
 51
0.0
  0
ARC
  5
1CC20
  8
0
 10
320.50297062788292
 20
155.4876773725999
 30
0.0
 40
0.5
 50
0.0
 51
90.0
  0
LINE
  5
1CC21
  8
0
 10
319.50297092258279
 20
155.9876772760999
 30
0.0
 11
320.50297108648277
 21
155.9876772760999
 31
0.0
  0
ARC
  5
1CC22
  8
0
 10
320.50297062788292
 20
150.2985493905
 30
0.0
 40
0.5
 50
0.0
 51
75.976581003269359
  0
ARC
  5
1CC23
  8
0
 10
320.50297062788292
 20
159.58424683199999
 30
0.0
 40
0.5
 50
270.0
 51
0.0
  0
ARC
  5
1CC24
  8
0
 10
320.50297062788292
 20
163.58424683199999
 30
0.0
 40
0.5
 50
0.0
 51
90.0
  0
LINE
  5
1CC25
  8
0
 10
319.50297092258279
 20
164.08424742519989
 30
0.0
 11
320.50297108648277
 21
164.08424742519989
 31
0.0
  0
LINE
  5
1CC26
  8
0
 10
320.50297108648277
 20
159.08424660559999
 30
0.0
 11
319.50297092258279
 21
159.08424660559999
 31
0.0
  0
ARC
  5
1CC27
  8
0
 10
320.50297062788292
 20
137.11720654050001
 30
0.0
 40
0.5
 50
270.0
 51
0.0
  0
ARC
  5
1CC28
  8
0
 10
320.50297062788292
 20
141.11720654050001
 30
0.0
 40
0.5
 50
0.0
 51
90.0
  0
LINE
  5
1CC29
  8
0
 10
320.29758505030668
 20
141.61720650269999
 30
0.0
 11
320.50297108648277
 21
141.61720650269999
 31
0.0
  0
LINE
  5
1CC2A
  8
0
 10
320.50297108648277
 20
136.61720661449999
 30
0.0
 11
319.50297092258279
 21
136.61720661449999
 31
0.0
  0
LINE
  5
1CC2C
  8
0
 10
315.50297026688281
 20
165.97424738110001
 30
0.0
 11
315.50297026688281
 21
154.53287680032651
 31
0.0
  0
LINE
  5
1CC2E
  8
0
 10
317.81288121998301
 20
153.99359270929989
 30
0.0
 11
319.30370141918303
 21
157.10206061599999
 31
0.0
  0
LINE
  5
1CC2F
  8
0
 10
317.44933386498292
 20
157.1209729835
 30
0.0
 11
316.18757874336478
 21
154.48789393177461
 31
0.0
  0
ARC
  5
1CC30
  8
0
 10
318.57633233458301
 20
157.67763109169991
 30
0.0
 40
0.927549005586883
 50
321.6452706227023
 51
357.46122004699947
  0
ARC
  5
1CC31
  8
0
 10
314.95574052048278
 20
157.6409660905
 30
0.0
 40
2.5472339113316802
 50
348.22082205800348
 51
359.90054991939928
  0
LINE
  5
1CC32
  8
0
 10
319.50297092258279
 20
152.68110453413479
 30
0.0
 11
319.50297092258279
 21
165.96969321369991
 31
0.0
  0
LINE
  5
1CC33
  8
0
 10
317.50297059468289
 20
165.96969321369991
 30
0.0
 11
317.50297059468289
 21
157.6365447789
 31
0.0
  0
LINE
  5
1CC34
  8
0
 10
321.21996653438282
 20
148.35902594029989
 30
0.0
 11
321.24582377428283
 21
148.35625292729989
 31
0.0
  0
POLYLINE
  5
1CC35
  8
0
 66
     1
 10
0.0
 20
0.0
 30
0.0
 70
   128
  0
VERTEX
  5
1DA5D
  8
0
 10
321.24582377428283
 20
148.35625292729989
 30
0.0
  0
VERTEX
  5
1DA5E
  8
0
 10
321.270192760783
 20
148.2758052833
 30
0.0
  0
VERTEX
  5
1DA5F
  8
0
 10
321.29021060818292
 20
148.15053028979989
 30
0.0
  0
VERTEX
  5
1DA60
  8
0
 10
321.30996209738311
 20
147.96335354449999
 30
0.0
  0
VERTEX
  5
1DA61
  8
0
 10
321.327452335283
 20
147.73149147629991
 30
0.0
  0
VERTEX
  5
1DA62
  8
0
 10
321.34124522268303
 20
147.49562518670001
 30
0.0
  0
VERTEX
  5
1DA63
  8
0
 10
321.3503870850829
 20
147.2861907631
 30
0.0
  0
VERTEX
  5
1DA64
  8
0
 10
321.35255520398277
 20
147.13859196749999
 30
0.0
  0
VERTEX
  5
1DA65
  8
0
 10
321.345922324583
 20
147.04947696999989
 30
0.0
  0
VERTEX
  5
1DA66
  8
0
 10
321.34359401818301
 20
147.0417120679999
 30
0.0
  0
VERTEX
  5
1DA67
  8
0
 10
321.32344951088288
 20
147.04969909039991
 30
0.0
  0
VERTEX
  5
1DA68
  8
0
 10
321.29768912848289
 20
147.12409313769999
 30
0.0
  0
VERTEX
  5
1DA69
  8
0
 10
321.26552124678301
 20
147.2672909684
 30
0.0
  0
VERTEX
  5
1DA6A
  8
0
 10
321.23663348318291
 20
147.4440182745
 30
0.0
  0
VERTEX
  5
1DA6B
  8
0
 10
321.210675660383
 20
147.65873935069999
 30
0.0
  0
VERTEX
  5
1DA6C
  8
0
 10
321.19261731558299
 20
147.89698703209999
 30
0.0
  0
VERTEX
  5
1DA6D
  8
0
 10
321.18804638438291
 20
148.11142032959989
 30
0.0
  0
VERTEX
  5
1DA6E
  8
0
 10
321.19756450108298
 20
148.27163156119991
 30
0.0
  0
VERTEX
  5
1DA6F
  8
0
 10
321.21559490618301
 20
148.35061144080001
 30
0.0
  0
VERTEX
  5
1DA70
  8
0
 10
321.21996653438282
 20
148.35902594029989
 30
0.0
  0
SEQEND
  5
1DA71
  8
0
  0
POLYLINE
  5
1CC36
  8
0
 66
     1
 10
0.0
 20
0.0
 30
0.0
 70
   128
  0
VERTEX
  5
1DA72
  8
0
 10
320.08806315418292
 20
149.85072204839989
 30
0.0
  0
VERTEX
  5
1DA73
  8
0
 10
320.19774873908301
 20
149.87780909979989
 30
0.0
  0
VERTEX
  5
1DA74
  8
0
 10
320.31348605808279
 20
149.825796131
 30
0.0
  0
VERTEX
  5
1DA75
  8
0
 10
320.41835856788288
 20
149.72089428449999
 30
0.0
  0
VERTEX
  5
1DA76
  8
0
 10
320.52575496188268
 20
149.5502708665999
 30
0.0
  0
VERTEX
  5
1DA77
  8
0
 10
320.60892393048289
 20
149.34232097119991
 30
0.0
  0
VERTEX
  5
1DA78
  8
0
 10
320.65867331978279
 20
149.12913657719989
 30
0.0
  0
VERTEX
  5
1DA79
  8
0
 10
320.67382221278291
 20
148.91520619389999
 30
0.0
  0
VERTEX
  5
1DA7A
  8
0
 10
320.64830956218287
 20
148.74120859429999
 30
0.0
  0
VERTEX
  5
1DA7B
  8
0
 10
320.58265690858298
 20
148.6228039673999
 30
0.0
  0
VERTEX
  5
1DA7C
  8
0
 10
320.5619070415828
 20
148.60644249239999
 30
0.0
  0
VERTEX
  5
1DA7D
  8
0
 10
320.45393509028281
 20
148.58873385929999
 30
0.0
  0
VERTEX
  5
1DA7E
  8
0
 10
320.34279850478288
 20
148.63803062589989
 30
0.0
  0
VERTEX
  5
1DA7F
  8
0
 10
320.21560033018289
 20
148.7574787996999
 30
0.0
  0
VERTEX
  5
1DA80
  8
0
 10
320.10442649178282
 20
148.92464421689999
 30
0.0
  0
VERTEX
  5
1DA81
  8
0
 10
320.01396154218293
 20
149.1337792203
 30
0.0
  0
VERTEX
  5
1DA82
  8
0
 10
319.96426989488282
 20
149.3497152068
 30
0.0
  0
VERTEX
  5
1DA83
  8
0
 10
319.956981364483
 20
149.54333437610001
 30
0.0
  0
VERTEX
  5
1DA84
  8
0
 10
319.99136765658301
 20
149.71674989909999
 30
0.0
  0
VERTEX
  5
1DA85
  8
0
 10
320.06471303458278
 20
149.83219385149991
 30
0.0
  0
VERTEX
  5
1DA86
  8
0
 10
320.08806315418292
 20
149.85072204839989
 30
0.0
  0
SEQEND
  5
1DA87
  8
0
  0
POLYLINE
  5
1CC37
  8
0
 66
     1
 10
0.0
 20
0.0
 30
0.0
 70
   128
  0
VERTEX
  5
1DA88
  8
0
 10
319.7293009346829
 20
152.06232957540001
 30
0.0
  0
VERTEX
  5
1DA89
  8
0
 10
319.80195527128291
 20
152.07119856029999
 30
0.0
  0
VERTEX
  5
1DA8A
  8
0
 10
319.906447801583
 20
152.0096819103
 30
0.0
  0
VERTEX
  5
1DA8B
  8
0
 10
320.02176975068278
 20
151.8941969796999
 30
0.0
  0
VERTEX
  5
1DA8C
  8
0
 10
320.14949877918298
 20
151.7228038236
 30
0.0
  0
VERTEX
  5
1DA8D
  8
0
 10
320.26108053678291
 20
151.53361681849989
 30
0.0
  0
VERTEX
  5
1DA8E
  8
0
 10
320.3524376934829
 20
151.34224399919989
 30
0.0
  0
VERTEX
  5
1DA8F
  8
0
 10
320.41993622838299
 20
151.15554455669999
 30
0.0
  0
VERTEX
  5
1DA90
  8
0
 10
320.44693340718271
 20
151.01720310749999
 30
0.0
  0
VERTEX
  5
1DA91
  8
0
 10
320.43439221738299
 20
150.9275921807
 30
0.0
  0
VERTEX
  5
1DA92
  8
0
 10
320.42190131898292
 20
150.91290894889991
 30
0.0
  0
VERTEX
  5
1DA93
  8
0
 10
320.35432269028303
 20
150.9100022911999
 30
0.0
  0
VERTEX
  5
1DA94
  8
0
 10
320.255272809183
 20
150.97007725389989
 30
0.0
  0
VERTEX
  5
1DA95
  8
0
 10
320.12899478138303
 20
151.0933499038
 30
0.0
  0
VERTEX
  5
1DA96
  8
0
 10
320.00484948218292
 20
151.25018183139991
 30
0.0
  0
VERTEX
  5
1DA97
  8
0
 10
319.8801807796828
 20
151.44274488089999
 30
0.0
  0
VERTEX
  5
1DA98
  8
0
 10
319.78097071108277
 20
151.63832448420001
 30
0.0
  0
VERTEX
  5
1DA99
  8
0
 10
319.71967478448278
 20
151.80753927679999
 30
0.0
  0
VERTEX
  5
1DA9A
  8
0
 10
319.69416213388291
 20
151.95483911779999
 30
0.0
  0
VERTEX
  5
1DA9B
  8
0
 10
319.71465681848281
 20
152.0467047766
 30
0.0
  0
VERTEX
  5
1DA9C
  8
0
 10
319.7293009346829
 20
152.06232957540001
 30
0.0
  0
SEQEND
  5
1DA9D
  8
0
  0
ARC
  5
1CC38
  8
0
 10
315.38314715006049
 20
148.1480396525518
 30
0.0
 40
5.8663728118816509
 50
2.0340077922785369
 51
30.841745257831729
  0
POLYLINE
  5
1CC39
  8
0
 66
     1
 10
0.0
 20
0.0
 30
0.0
 70
   128
  0
VERTEX
  5
1DA9E
  8
0
 10
318.73219345868301
 20
149.6995097212
 30
0.0
  0
VERTEX
  5
1DA9F
  8
0
 10
318.57269887978282
 20
149.6289089508
 30
0.0
  0
VERTEX
  5
1DAA0
  8
0
 10
318.3861866330829
 20
149.63099883870001
 30
0.0
  0
VERTEX
  5
1DAA1
  8
0
 10
318.20344624278277
 20
149.6971003896999
 30
0.0
  0
VERTEX
  5
1DAA2
  8
0
 10
318.0237773542828
 20
149.82814120130001
 30
0.0
  0
VERTEX
  5
1DAA3
  8
0
 10
317.890302065583
 20
149.99772805719991
 30
0.0
  0
VERTEX
  5
1DAA4
  8
0
 10
317.8053971117829
 20
150.19112091509999
 30
0.0
  0
VERTEX
  5
1DAA5
  8
0
 10
317.77954545968282
 20
150.39790758859999
 30
0.0
  0
VERTEX
  5
1DAA6
  8
0
 10
317.8178507571829
 20
150.5702427775
 30
0.0
  0
VERTEX
  5
1DAA7
  8
0
 10
317.91403775268282
 20
150.71458101269999
 30
0.0
  0
VERTEX
  5
1DAA8
  8
0
 10
317.95472537338293
 20
150.74941247699999
 30
0.0
  0
VERTEX
  5
1DAA9
  8
0
 10
318.11751310878299
 20
150.82181163129999
 30
0.0
  0
VERTEX
  5
1DAAA
  8
0
 10
318.30570546148277
 20
150.82360535859991
 30
0.0
  0
VERTEX
  5
1DAAB
  8
0
 10
318.49799749608292
 20
150.75056079769999
 30
0.0
  0
VERTEX
  5
1DAAC
  8
0
 10
318.65524013698291
 20
150.62755590299989
 30
0.0
  0
VERTEX
  5
1DAAD
  8
0
 10
318.79079413768289
 20
150.45199554409999
 30
0.0
  0
VERTEX
  5
1DAAE
  8
0
 10
318.87468022458279
 20
150.25043871249991
 30
0.0
  0
VERTEX
  5
1DAAF
  8
0
 10
318.8983879720829
 20
150.05848381669989
 30
0.0
  0
VERTEX
  5
1DAB0
  8
0
 10
318.86305731888302
 20
149.8714770377
 30
0.0
  0
VERTEX
  5
1DAB1
  8
0
 10
318.76805310308282
 20
149.729684107
 30
0.0
  0
VERTEX
  5
1DAB2
  8
0
 10
318.73219345868301
 20
149.6995097212
 30
0.0
  0
SEQEND
  5
1DAB3
  8
0
  0
POLYLINE
  5
1CC3A
  8
0
 66
     1
 10
0.0
 20
0.0
 30
0.0
 70
   128
  0
VERTEX
  5
1DAB4
  8
0
 10
317.59153192098302
 20
152.90752064439991
 30
0.0
  0
VERTEX
  5
1DAB5
  8
0
 10
317.72743423638281
 20
152.96539675439999
 30
0.0
  0
VERTEX
  5
1DAB6
  8
0
 10
317.9059631859829
 20
152.96427916729999
 30
0.0
  0
VERTEX
  5
1DAB7
  8
0
 10
318.0949173604829
 20
152.9091262444999
 30
0.0
  0
VERTEX
  5
1DAB8
  8
0
 10
318.2951591645828
 20
152.79896102839999
 30
0.0
  0
VERTEX
  5
1DAB9
  8
0
 10
318.46530993638299
 20
152.65306655320001
 30
0.0
  0
VERTEX
  5
1DABA
  8
0
 10
318.59477122478302
 20
152.4857404828
 30
0.0
  0
VERTEX
  5
1DABB
  8
0
 10
318.66605465468302
 20
152.31630776079999
 30
0.0
  0
VERTEX
  5
1DABC
  8
0
 10
318.6703741287829
 20
152.18270115550001
 30
0.0
  0
VERTEX
  5
1DABD
  8
0
 10
318.61662377768289
 20
152.07311335950001
 30
0.0
  0
VERTEX
  5
1DABE
  8
0
 10
318.5893136745828
 20
152.04884774979999
 30
0.0
  0
VERTEX
  5
1DABF
  8
0
 10
318.45668402668298
 20
151.9988310709
 30
0.0
  0
VERTEX
  5
1DAC0
  8
0
 10
318.2869430368828
 20
152.00365718450001
 30
0.0
  0
VERTEX
  5
1DAC1
  8
0
 10
318.08536385358298
 20
152.06506580109999
 30
0.0
  0
VERTEX
  5
1DAC2
  8
0
 10
317.8956795220829
 20
152.16831967229999
 30
0.0
  0
VERTEX
  5
1DAC3
  8
0
 10
317.717621821683
 20
152.31096196920001
 30
0.0
  0
VERTEX
  5
1DAC4
  8
0
 10
317.58715470488278
 20
152.47084677219999
 30
0.0
  0
VERTEX
  5
1DAC5
  8
0
 10
317.51703915358303
 20
152.62434642759999
 30
0.0
  0
VERTEX
  5
1DAC6
  8
0
 10
317.50732173378287
 20
152.77406211940001
 30
0.0
  0
VERTEX
  5
1DAC7
  8
0
 10
317.56557409818288
 20
152.8844573721
 30
0.0
  0
VERTEX
  5
1DAC8
  8
0
 10
317.59153192098302
 20
152.90752064439991
 30
0.0
  0
SEQEND
  5
1DAC9
  8
0
  0
ARC
  5
1CC3C
  8
0
 10
315.48877732718302
 20
142.73439456409989
 30
0.0
 40
4.319947497893021
 50
270.18824233559741
 51
326.60125191662098
  0
POLYLINE
  5
1CC3D
  8
0
 66
     1
 10
0.0
 20
0.0
 30
0.0
 70
   128
  0
VERTEX
  5
1DACA
  8
0
 10
321.06077939334
 20
149.6241230099732
 30
0.0
  0
VERTEX
  5
1DACB
  8
0
 10
321.26307000578299
 20
149.79894330719989
 30
0.0
  0
VERTEX
  5
1DACC
  8
0
 10
321.39079717158302
 20
150.05747798830001
 30
0.0
  0
SEQEND
  5
1DACD
  8
0
  0
ARC
  5
1CC3E
  8
0
 10
320.84237240458287
 20
150.12223487630001
 30
0.0
 40
1.79825166243968
 50
282.94896919355739
 51
347.5304223656986
  0
LINE
  5
1CC3F
  8
0
 10
320.67929652688281
 20
159.01102788750001
 30
0.0
 11
319.50297092258279
 21
159.0110222994999
 31
0.0
  0
ARC
  5
1CC40
  8
0
 10
320.83496489908288
 20
158.3883896788
 30
0.0
 40
1.8081975687476051
 50
12.8032684287998
 51
84.668778996602867
  0
ARC
  5
1CC41
  8
0
 10
320.67936670208292
 20
158.27449194600001
 30
0.0
 40
0.7365359448286422
 50
15.00259111380101
 51
90.005458993710377
  0
LINE
  5
1CC42
  8
0
 10
321.00297062788292
 20
155.4876773725999
 30
0.0
 11
321.00297062788292
 21
151.4876773725999
 31
0.0
  0
LINE
  5
1CC43
  8
0
 10
321.00297062788292
 20
150.2985493905
 30
0.0
 11
321.00297025887699
 21
149.83087006397079
 31
0.0
  0
LINE
  5
1CC44
  8
0
 10
321.00297062788292
 20
163.58424683199999
 30
0.0
 11
321.00297062788292
 21
159.58424695790501
 31
0.0
  0
LINE
  5
1CC45
  8
0
 10
321.00297062788258
 20
137.11720693883251
 30
0.0
 11
321.00297023708299
 21
141.1123308306
 31
0.0
  0
LINE
  5
1CC48
  8
0
 10
317.50297059468289
 20
165.97424738110001
 30
0.0
 11
317.50297059468289
 21
165.96969321369991
 31
0.0
  0
LINE
  5
1CC49
  8
0
 10
320.51290084778321
 20
159.01102709705631
 30
0.0
 11
320.51290084778287
 21
155.9875785559
 31
0.0
  0
ARC
  5
1CC4A
  8
0
 10
320.2395706278831
 20
132.73659982109999
 30
0.0
 40
2.736599999999981
 50
180.0
 51
270.0
  0
LINE
  5
1CC4B
  8
0
 10
320.23957071058288
 20
130.0
 30
0.0
 11
329.50297026688293
 21
130.0
 31
0.0
  0
LINE
  5
1CC4C
  8
0
 10
320.23957071058288
 20
131.99999939649999
 30
0.0
 11
329.50297026688293
 21
131.99999939649999
 31
0.0
  0
ARC
  5
1CC4D
  8
0
 10
320.2395706278831
 20
132.73659982109999
 30
0.0
 40
0.7365999999999815
 50
180.0
 51
270.0
  0
LINE
  5
1CC4E
  8
0
 10
319.50297092258279
 20
140.03788062477309
 30
0.0
 11
319.50297092258279
 21
132.7366001158999
 31
0.0
  0
LINE
  5
1CC4F
  8
0
 10
317.50297059468289
 20
138.4160625294725
 30
0.0
 11
317.50297059468289
 21
132.7366001158999
 31
0.0
  0
ARC
  5
1CC50
  8
0
 10
315.34755821498288
 20
143.1181762320999
 30
0.0
 40
5.172588887491484
 50
271.72172873268181
 51
344.58060456039919
  0
LINE
  5
1CC51
  8
0
 10
321.78990614768281
 20
156.9758636132
 30
0.0
 11
321.39079717152731
 21
158.4651536494716
 31
0.0
  0
LINE
  5
1CC52
  8
0
 10
322.59820473547347
 20
158.78909371794839
 30
0.0
 11
322.99731371158282
 21
157.2993883117999
 31
0.0
  0
LINE
  5
1CC53
  8
0
 10
322.99731371158282
 20
151.2232433259
 30
0.0
 11
322.5982047354737
 21
149.7339542210191
 31
0.0
  0
LINE
  5
1CC54
  8
0
 10
321.78990614768281
 20
151.5467670932
 30
0.0
 11
321.39079717158302
 21
150.05747798830001
 31
0.0
  0
LINE
  5
1CC55
  8
0
 10
313.50296993908267
 20
134.11531574068181
 30
0.0
 11
317.50297059468289
 21
134.11531574068181
 31
0.0
  0
LINE
  5
1CCF6
  8
0
 10
140.5167149566
 20
66.022320273665272
 30
0.0
 11
140.5163865217782
 21
67.0264510879055
 31
0.0
  0
LINE
  5
1CCF7
  8
0
 10
140.5167149566
 20
65.977680120065301
 30
0.0
 11
140.5163536033831
 21
64.990070271717144
 31
0.0
  0
LINE
  5
1CCF8
  8
0
 10
142.51677481508909
 20
67.018191350285392
 30
0.0
 11
142.51671528439991
 21
66.022320273665272
 31
0.0
  0
LINE
  5
1CCF9
  8
0
 10
142.5167562625675
 20
64.990070271716661
 30
0.0
 11
142.51671528439991
 21
65.977680120065301
 31
0.0
  0
LINE
  5
1CCFC
  8
0
 10
207.94831199568031
 20
69.800731349218793
 30
0.0
 11
212.18496544282721
 21
68.052594173136171
 31
0.0
  0
ARC
  5
1CDFD
  8
0
 10
245.57439638331559
 20
66.000000196864477
 30
0.0
 40
5.9187241264704546
 50
326.7006227409754
 51
33.29937725953004
  0
ARC
  5
1CDFF
  8
0
 10
245.30798317672699
 20
65.688906133681385
 30
0.0
 40
6.3132156288839756
 50
34.331793346819047
 51
53.53009299605209
  0
ARC
  5
1CE00
  8
0
 10
245.67968150467919
 20
66.029235151770877
 30
0.0
 40
5.8193979485994989
 50
54.481390276201353
 51
70.934179556843091
  0
ARC
  5
1CE01
  8
0
 10
245.51389999839651
 20
65.282335644203997
 30
0.0
 40
6.5800577286815738
 50
71.69428226762912
 51
96.389174684967983
  0
LINE
  5
1CE02
  8
0
 10
244.78166347370009
 20
71.821524384765254
 30
0.0
 11
222.18008508900019
 21
70.830956655965267
 31
0.0
  0
LINE
  5
1CE03
  8
0
 10
218.66056306280009
 20
61.322985771465298
 30
0.0
 11
217.78427978969989
 21
61.361373025365289
 31
0.0
  0
ARC
  5
1CE06
  8
0
 10
245.30798317672699
 20
66.311094260049174
 30
0.0
 40
6.3132156288839756
 50
306.46990700394792
 51
325.66820665318102
  0
ARC
  5
1CE07
  8
0
 10
245.67968150467919
 20
65.970765241959697
 30
0.0
 40
5.8193979485994989
 50
289.06582044315689
 51
305.51860972379859
  0
ARC
  5
1CE08
  8
0
 10
245.51389999839651
 20
66.717664749526577
 30
0.0
 40
6.5800577286815738
 50
263.610825315032
 51
288.30571773237079
  0
LINE
  5
1CE09
  8
0
 10
244.78166347370009
 20
60.178476008965319
 30
0.0
 11
222.18008508900019
 21
61.169043737765307
 31
0.0
  0
ARC
  5
1CE0A
  8
0
 10
212.21578522061461
 20
63.26502561906527
 30
0.0
 40
2.734974577824985
 50
90.000266254299831
 51
112.0066649346023
  0
ARC
  5
1CE0B
  8
0
 10
212.21577994760011
 20
63.264870785965272
 30
0.0
 40
0.7361721643595669
 50
90.000494526198665
 51
112.00654575579961
  0
LINE
  5
1CE0C
  8
0
 10
212.21577359360001
 20
64.001042950265273
 30
0.0
 11
215.6284989975
 21
64.001042950265273
 31
0.0
  0
LINE
  5
1CE0D
  8
0
 10
215.6128665969145
 20
66.000000196865287
 30
0.0
 11
212.21577251111469
 21
66.000000196865287
 31
0.0
  0
LINE
  5
1CE0F
  8
0
 10
206.57723752780001
 20
61.999999541165309
 30
0.0
 11
207.6056560687
 21
62.199269044565298
 31
0.0
  0
LINE
  5
1CE10
  8
0
 10
206.85668086629991
 20
64.053636598765294
 30
0.0
 11
206.57723752780001
 21
63.99999986906532
 31
0.0
  0
ARC
  5
1CE11
  8
0
 10
206.93616026950011
 20
64.670150778465299
 30
0.0
 40
2.670151242906496
 50
270.0037098806983
 51
292.27556634549779
  0
LINE
  5
1CE12
  8
0
 10
206.9363331607999
 20
61.999999541165309
 30
0.0
 11
205.50000092010009
 21
61.999999541165309
 31
0.0
  0
LINE
  5
1CE13
  8
0
 10
211.9399270228873
 20
63.94740622058039
 30
0.0
 11
207.6056560687
 21
62.199269044565298
 31
0.0
  0
LINE
  5
1CE14
  8
0
 10
207.14050700880011
 20
64.167682635965249
 30
0.0
 11
206.85668086629991
 21
64.053636598765294
 31
0.0
  0
LINE
  5
1CE15
  8
0
 10
211.1909507379755
 20
65.800730693505699
 30
0.0
 11
207.14050700880011
 21
64.167682635965249
 31
0.0
  0
ARC
  5
1CE16
  8
0
 10
212.45050281999991
 20
63.316931633465273
 30
0.0
 40
0.6841113240484598
 50
90.00831386750157
 51
112.8393965027018
  0
ARC
  5
1CE17
  8
0
 10
242.50306002170311
 20
89.488310740932434
 30
0.0
 40
37.445196239483948
 50
224.1609880343787
 51
228.69004317128849
  0
POLYLINE
  5
1CE18
  8
0
 66
     1
 10
0.0
 20
0.0
 30
0.0
 70
   128
  0
VERTEX
  5
1DACE
  8
0
 10
218.66056306280009
 20
61.322985771465298
 30
0.0
  0
VERTEX
  5
1DACF
  8
0
 10
218.80639327690011
 20
61.332101556865311
 30
0.0
  0
VERTEX
  5
1DAD0
  8
0
 10
219.11297535520001
 20
61.395316007865269
 30
0.0
  0
VERTEX
  5
1DAD1
  8
0
 10
219.4867933355001
 20
61.511088717165293
 30
0.0
  0
VERTEX
  5
1DAD2
  8
0
 10
219.9693935178
 20
61.652677688165262
 30
0.0
  0
VERTEX
  5
1DAD3
  8
0
 10
220.2802801691
 20
61.710142153665267
 30
0.0
  0
VERTEX
  5
1DAD4
  8
0
 10
220.4562479816
 20
61.725179287965297
 30
0.0
  0
VERTEX
  5
1DAD5
  8
0
 10
220.6419797799999
 20
61.725853565465272
 30
0.0
  0
VERTEX
  5
1DAD6
  8
0
 10
220.82559188820011
 20
61.7093356282653
 30
0.0
  0
VERTEX
  5
1DAD7
  8
0
 10
220.99883651360011
 20
61.677627819965309
 30
0.0
  0
VERTEX
  5
1DAD8
  8
0
 10
221.2902510725001
 20
61.586998957565278
 30
0.0
  0
VERTEX
  5
1DAD9
  8
0
 10
221.69267183170001
 20
61.393181416565298
 30
0.0
  0
VERTEX
  5
1DADA
  8
0
 10
221.9602519831999
 20
61.248856219765273
 30
0.0
  0
VERTEX
  5
1DADB
  8
0
 10
222.15343063690011
 20
61.174786272765267
 30
0.0
  0
VERTEX
  5
1DADC
  8
0
 10
222.18008508900019
 20
61.169043737765307
 30
0.0
  0
SEQEND
  5
1DADD
  8
0
  0
ARC
  5
1CE19
  8
0
 10
261.48909154500012
 20
65.976065384665262
 30
0.0
 40
18.17874500687077
 50
179.9210515491003
 51
188.41007916968181
  0
POLYLINE
  5
1CE1A
  8
0
 66
     1
 10
0.0
 20
0.0
 30
0.0
 70
   128
  0
VERTEX
  5
1DADE
  8
0
 10
246.8432167731001
 20
66.001114058665323
 30
0.0
  0
VERTEX
  5
1DADF
  8
0
 10
246.81866711000001
 20
65.089876386665296
 30
0.0
  0
VERTEX
  5
1DAE0
  8
0
 10
246.7416765354001
 20
64.304700675765318
 30
0.0
  0
VERTEX
  5
1DAE1
  8
0
 10
246.59139087419999
 20
63.542834106265261
 30
0.0
  0
VERTEX
  5
1DAE2
  8
0
 10
246.3754655979001
 20
62.905058819165262
 30
0.0
  0
VERTEX
  5
1DAE3
  8
0
 10
246.07356434679991
 20
62.338539022365282
 30
0.0
  0
VERTEX
  5
1DAE4
  8
0
 10
245.78231370070009
 20
61.988771516265317
 30
0.0
  0
VERTEX
  5
1DAE5
  8
0
 10
245.3722113929
 20
61.725725042965259
 30
0.0
  0
VERTEX
  5
1DAE6
  8
0
 10
245.1783547364
 20
61.661352026665249
 30
0.0
  0
VERTEX
  5
1DAE7
  8
0
 10
245.0006248615
 20
61.633308041265302
 30
0.0
  0
VERTEX
  5
1DAE8
  8
0
 10
244.81997063380001
 20
61.632454949765282
 30
0.0
  0
VERTEX
  5
1DAE9
  8
0
 10
244.6334080957001
 20
61.65780927556527
 30
0.0
  0
VERTEX
  5
1DAEA
  8
0
 10
244.4075437449001
 20
61.735477852965268
 30
0.0
  0
VERTEX
  5
1DAEB
  8
0
 10
244.07812749959999
 20
61.97584662156526
 30
0.0
  0
VERTEX
  5
1DAEC
  8
0
 10
243.8311109505
 20
62.330809044965278
 30
0.0
  0
VERTEX
  5
1DAED
  8
0
 10
243.6474392376999
 20
62.771481084965252
 30
0.0
  0
VERTEX
  5
1DAEE
  8
0
 10
243.50582950012
 20
63.317295697384381
 30
0.0
  0
SEQEND
  5
1DAEF
  8
0
  0
ARC
  5
1CE1B
  8
0
 10
226.9300327563999
 20
65.521149647865272
 30
0.0
 40
13.381387987470831
 50
347.63501508460052
 51
2.055529293499454
  0
POLYLINE
  5
1CE1C
  8
0
 66
     1
 10
0.0
 20
0.0
 30
0.0
 70
   128
  0
VERTEX
  5
1DAF0
  8
0
 10
240.00101706009221
 20
62.655680436050062
 30
0.0
  0
VERTEX
  5
1DAF1
  8
0
 10
239.9491833709001
 20
62.534465077665267
 30
0.0
  0
VERTEX
  5
1DAF2
  8
0
 10
239.6996373497
 20
62.103741425465309
 30
0.0
  0
VERTEX
  5
1DAF3
  8
0
 10
239.33533003549999
 20
61.79377119556527
 30
0.0
  0
VERTEX
  5
1DAF4
  8
0
 10
239.11477422339999
 20
61.704777735665282
 30
0.0
  0
VERTEX
  5
1DAF5
  8
0
 10
238.8212660513
 20
61.655724975665279
 30
0.0
  0
VERTEX
  5
1DAF6
  8
0
 10
238.62750997760011
 20
61.658086809665271
 30
0.0
  0
VERTEX
  5
1DAF7
  8
0
 10
238.42292075969999
 20
61.688760849965298
 30
0.0
  0
VERTEX
  5
1DAF8
  8
0
 10
238.18036710840011
 20
61.758863362865249
 30
0.0
  0
VERTEX
  5
1DAF9
  8
0
 10
237.87838390089991
 20
61.909955549365272
 30
0.0
  0
VERTEX
  5
1DAFA
  8
0
 10
237.406490203
 20
62.337587210665262
 30
0.0
  0
VERTEX
  5
1DAFB
  8
0
 10
237.07547208290001
 20
62.864794019065293
 30
0.0
  0
VERTEX
  5
1DAFC
  8
0
 10
236.81904917579999
 20
63.514780807665304
 30
0.0
  0
VERTEX
  5
1DAFD
  8
0
 10
236.66148057199979
 20
64.199155751065277
 30
0.0
  0
VERTEX
  5
1DAFE
  8
0
 10
236.55611818649999
 20
64.97911419286531
 30
0.0
  0
VERTEX
  5
1DAFF
  8
0
 10
236.50776764370019
 20
66.001114058665323
 30
0.0
  0
SEQEND
  5
1DB00
  8
0
  0
ARC
  5
1CE1D
  8
0
 10
217.33528692300001
 20
65.325449973365309
 30
0.0
 40
16.839760101345519
 50
350.27774300139998
 51
2.2995039597004321
  0
POLYLINE
  5
1CE1E
  8
0
 66
     1
 10
0.0
 20
0.0
 30
0.0
 70
   128
  0
VERTEX
  5
1DB01
  8
0
 10
233.9331934414831
 20
62.481681439436933
 30
0.0
  0
VERTEX
  5
1DB02
  8
0
 10
233.73570090160001
 20
62.081685844265273
 30
0.0
  0
VERTEX
  5
1DB03
  8
0
 10
233.43077844010011
 20
61.750939670365298
 30
0.0
  0
VERTEX
  5
1DB04
  8
0
 10
233.07193612680001
 20
61.5766016723653
 30
0.0
  0
VERTEX
  5
1DB05
  8
0
 10
232.81223123890001
 20
61.524209189565269
 30
0.0
  0
VERTEX
  5
1DB06
  8
0
 10
232.48887604100011
 20
61.509069609765262
 30
0.0
  0
VERTEX
  5
1DB07
  8
0
 10
232.19295760610001
 20
61.530499342265259
 30
0.0
  0
VERTEX
  5
1DB08
  8
0
 10
231.86289316040001
 20
61.59289236676527
 30
0.0
  0
VERTEX
  5
1DB09
  8
0
 10
231.4300740324
 20
61.749162706865299
 30
0.0
  0
VERTEX
  5
1DB0A
  8
0
 10
230.7465540431001
 20
62.268259558265278
 30
0.0
  0
VERTEX
  5
1DB0B
  8
0
 10
230.41755130510001
 20
62.747477176965319
 30
0.0
  0
VERTEX
  5
1DB0C
  8
0
 10
230.15112971880009
 20
63.34496903736526
 30
0.0
  0
VERTEX
  5
1DB0D
  8
0
 10
229.96036505320009
 20
64.014528501165316
 30
0.0
  0
VERTEX
  5
1DB0E
  8
0
 10
229.8458459042001
 20
64.63807504196528
 30
0.0
  0
VERTEX
  5
1DB0F
  8
0
 10
229.77418621999999
 20
65.321572679465291
 30
0.0
  0
VERTEX
  5
1DB10
  8
0
 10
229.7430390678
 20
66.001114058665323
 30
0.0
  0
SEQEND
  5
1DB11
  8
0
  0
ARC
  5
1CE1F
  8
0
 10
199.3389823178002
 20
64.825761830865275
 30
0.0
 40
28.637897393325101
 50
355.83310625134851
 51
2.352185331000324
  0
POLYLINE
  5
1CE20
  8
0
 66
     1
 10
0.0
 20
0.0
 30
0.0
 70
   128
  0
VERTEX
  5
1DB12
  8
0
 10
227.90117911578929
 20
62.744877119124141
 30
0.0
  0
VERTEX
  5
1DB13
  8
0
 10
227.7474755607
 20
61.972497585565279
 30
0.0
  0
VERTEX
  5
1DB14
  8
0
 10
227.58808529000001
 20
61.676608953065269
 30
0.0
  0
VERTEX
  5
1DB15
  8
0
 10
227.33671015129991
 20
61.491910922665262
 30
0.0
  0
VERTEX
  5
1DB16
  8
0
 10
226.94039514290009
 20
61.423983979365282
 30
0.0
  0
VERTEX
  5
1DB17
  8
0
 10
226.70898010950009
 20
61.424509245365293
 30
0.0
  0
VERTEX
  5
1DB18
  8
0
 10
226.41113569960001
 20
61.436033430865258
 30
0.0
  0
VERTEX
  5
1DB19
  8
0
 10
226.16167163470001
 20
61.447224202865279
 30
0.0
  0
VERTEX
  5
1DB1A
  8
0
 10
225.91367160899989
 20
61.458005193065262
 30
0.0
  0
VERTEX
  5
1DB1B
  8
0
 10
225.57078098880021
 20
61.475532683865303
 30
0.0
  0
VERTEX
  5
1DB1C
  8
0
 10
225.0639328918999
 20
61.531432527465299
 30
0.0
  0
VERTEX
  5
1DB1D
  8
0
 10
224.6365526877
 20
61.651146593865278
 30
0.0
  0
VERTEX
  5
1DB1E
  8
0
 10
224.28574210030001
 20
61.85258607876527
 30
0.0
  0
VERTEX
  5
1DB1F
  8
0
 10
223.9756414853
 20
62.166687655565262
 30
0.0
  0
VERTEX
  5
1DB20
  8
0
 10
223.71796315530011
 20
62.602172228865278
 30
0.0
  0
VERTEX
  5
1DB21
  8
0
 10
223.5325182043
 20
63.092381316565287
 30
0.0
  0
VERTEX
  5
1DB22
  8
0
 10
223.38204627850001
 20
63.692600089465301
 30
0.0
  0
VERTEX
  5
1DB23
  8
0
 10
223.2165204547
 20
64.865977126565255
 30
0.0
  0
VERTEX
  5
1DB24
  8
0
 10
223.15896844490001
 20
66.001114058665323
 30
0.0
  0
SEQEND
  5
1DB25
  8
0
  0
LINE
  5
1CE22
  8
0
 10
207.94831199568031
 20
62.199269044511773
 30
0.0
 11
212.18496544282721
 21
63.947406220594402
 31
0.0
  0
CIRCLE
  5
1CE23
  8
0
 10
157.1362019293999
 20
66.000000196865287
 30
0.0
 40
3.379999999999999
  0
LINE
  5
1CE6D
  8
0
 10
140.5163945816
 20
231.09299562059999
 30
0.0
 11
140.51635360343241
 21
230.1053839095195
 31
0.0
  0
LINE
  5
1CE6E
  8
0
 10
142.51639490940011
 20
231.09299562059999
 30
0.0
 11
142.51635393122271
 21
230.1053839095967
 31
0.0
  0
POLYLINE
  5
1CEB6
  8
0
 66
     1
 10
0.0
 20
0.0
 30
0.0
 70
   128
  0
VERTEX
  5
1DB26
  8
0
 10
220.75708379970001
 20
226.8018504897253
 30
0.0
  0
VERTEX
  5
1DB27
  8
0
 10
221.04064544659991
 20
226.70934594362529
 30
0.0
  0
VERTEX
  5
1DB28
  8
0
 10
221.44203430040011
 20
226.51618032842529
 30
0.0
  0
VERTEX
  5
1DB29
  8
0
 10
221.71836143359999
 20
226.37364699632531
 30
0.0
  0
VERTEX
  5
1DB2A
  8
0
 10
221.92721238360019
 20
226.29977076442529
 30
0.0
  0
VERTEX
  5
1DB2B
  8
0
 10
222.18357568600001
 20
226.28381348330001
 30
0.0
  0
SEQEND
  5
1DB2C
  8
0
  0
LINE
  5
1CEB7
  8
0
 10
215.64043296499989
 20
228.51642652530001
 30
0.0
 11
215.6284989975
 21
229.11635845090001
 31
0.0
  0
LINE
  5
1CEB9
  8
0
 10
217.7850621006998
 20
226.48771165989999
 30
0.0
 11
217.79946221039989
 21
226.4815016010001
 31
0.0
  0
LINE
  5
1CFA5
  8
0
 10
217.79946221039989
 20
226.4815016010001
 30
0.0
 11
217.7360875718
 21
226.56627430699999
 31
0.0
  0
LINE
  5
1CFA6
  8
0
 10
217.7360875718
 20
226.56627430699999
 30
0.0
 11
215.87426757439999
 21
228.51642652530001
 31
0.0
  0
ARC
  5
1CFB1
  8
0
 10
202.49603050134061
 20
220.11928322100539
 30
0.0
 40
3.0039708684038282
 50
270.07571331539913
 51
359.96865095323528
  0
LINE
  5
1CFB2
  8
0
 10
202.5000004284
 20
217.1153149754
 30
0.0
 11
183.20387631649979
 21
217.1153149754
 31
0.0
  0
ARC
  5
1CFB3
  8
0
 10
183.00359583550079
 20
220.11231603039619
 30
0.0
 40
3.0036856712133599
 50
180.44313492497841
 51
273.8232192423435
  0
LINE
  5
1CFB4
  8
0
 10
180.0
 20
220.08908526600001
 30
0.0
 11
180.0000000000002
 21
225.61531533639999
 31
0.0
  0
LINE
  5
1CFB5
  8
0
 10
205.50000092010029
 20
227.1153150418001
 30
0.0
 11
205.50000092010009
 21
220.11763961619999
 31
0.0
  0
LINE
  5
1D006
  8
0
 10
207.19933865589971
 20
229.16895209925659
 30
0.0
 11
211.43599024035279
 21
230.91708927537849
 31
0.0
  0
LINE
  5
1D007
  8
0
 10
207.94831199568031
 20
227.3145845451466
 30
0.0
 11
212.18496544282721
 21
229.06272172112909
 31
0.0
  0
LINE
  5
1D008
  8
0
 10
190.7588930987001
 20
233.11531602520009
 30
0.0
 11
190.7588930987001
 21
235.11531635300011
 31
0.0
  0
ARC
  5
1D009
  8
0
 10
245.7626553775001
 20
231.18941281420021
 30
0.0
 40
5.7336964152785397
 50
359.25954045387948
 51
80.434028960502189
  0
LINE
  5
1D00A
  8
0
 10
217.79946221039989
 20
235.74912979380011
 30
0.0
 11
218.80639327690011
 21
235.78321433740021
 31
0.0
  0
ARC
  5
1D00C
  8
0
 10
183.68798907120001
 20
236.1153160584002
 30
0.0
 40
0.5
 50
0.0
 51
90.0
  0
ARC
  5
1D00D
  8
0
 10
179.68798907120001
 20
236.1153160584002
 30
0.0
 40
0.5
 50
90.0
 51
180.0
  0
LINE
  5
1D00E
  8
0
 10
179.1879886947001
 20
235.11531635300011
 30
0.0
 11
179.1879886947001
 21
236.11531651700011
 31
0.0
  0
LINE
  5
1D00F
  8
0
 10
184.1879890486
 20
236.11531651700011
 30
0.0
 11
184.1879890486
 21
235.11531635300011
 31
0.0
  0
ARC
  5
1D010
  8
0
 10
191.04798907120019
 20
236.1153160584002
 30
0.0
 40
0.5000000000000285
 50
0.0
 51
90.0
  0
ARC
  5
1D011
  8
0
 10
187.04798907120011
 20
236.1153160584002
 30
0.0
 40
0.5000000000000285
 50
90.0
 51
180.0
  0
LINE
  5
1D012
  8
0
 10
186.54798909089999
 20
235.11531635300011
 30
0.0
 11
186.54798909089999
 21
236.11531651700011
 31
0.0
  0
LINE
  5
1D013
  8
0
 10
191.5479889790999
 20
236.11531651700011
 30
0.0
 11
191.5479889790999
 21
235.11531635300011
 31
0.0
  0
ARC
  5
1D014
  8
0
 10
200.1653174585999
 20
236.1153160584002
 30
0.0
 40
0.5
 50
0.0
 51
90.0
  0
LINE
  5
1D015
  8
0
 10
200.6653173081001
 20
236.11531651700011
 30
0.0
 11
200.6653173081001
 21
235.11531635300011
 31
0.0
  0
ARC
  5
1D016
  8
0
 10
196.92996329059989
 20
236.1153160584002
 30
0.0
 40
0.5
 50
0.0
 51
90.0
  0
ARC
  5
1D017
  8
0
 10
192.92996329059989
 20
236.1153160584002
 30
0.0
 40
0.5
 50
90.0
 51
180.0
  0
LINE
  5
1D018
  8
0
 10
192.42996333159999
 20
235.11531635300011
 30
0.0
 11
192.42996333159999
 21
236.11531651700011
 31
0.0
  0
LINE
  5
1D019
  8
0
 10
197.42996321989989
 20
236.11531651700011
 30
0.0
 11
197.42996321989989
 21
235.11531635300011
 31
0.0
  0
ARC
  5
1D01A
  8
0
 10
203.9478884719999
 20
236.1153160584002
 30
0.0
 40
0.5
 50
0.0
 51
90.0
  0
LINE
  5
1D01B
  8
0
 10
204.44788767019989
 20
236.11531651700011
 30
0.0
 11
204.44788767019989
 21
235.11531635300011
 31
0.0
  0
LINE
  5
1D01C
  8
0
 10
205.12288792060011
 20
233.11531602520009
 30
0.0
 11
205.12288792060011
 21
231.11531569740009
 31
0.0
  0
LINE
  5
1D01D
  8
0
 10
199.31996317580001
 20
233.11531602520009
 30
0.0
 11
199.31996317580001
 21
231.11531569740009
 31
0.0
  0
LINE
  5
1D01E
  8
0
 10
206.9363331607999
 20
235.11531635300011
 30
0.0
 11
177.96798871829989
 21
235.11531635300011
 31
0.0
  0
LINE
  5
1D01F
  8
0
 10
171.9614128833
 20
233.11531605840011
 30
0.0
 11
206.9363331607999
 21
233.11531602520009
 31
0.0
  0
ARC
  5
1D020
  8
0
 10
206.9362068927
 20
232.44306020340019
 30
0.0
 40
0.6722558337187347
 50
66.957357378603518
 51
89.989238277197686
  0
ARC
  5
1D021
  8
0
 10
206.93616026950011
 20
232.44516511570009
 30
0.0
 40
2.6701512429064702
 50
67.724433654502263
 51
89.996290119301634
  0
LINE
  5
1D022
  8
0
 10
211.1909518204609
 20
231.3135421194597
 30
0.0
 11
206.72319524489399
 21
233.11531602540251
 31
0.0
  0
ARC
  5
1D023
  8
0
 10
212.44255099793369
 20
233.7698433581001
 30
0.0
 40
2.6545395709681139
 50
247.71681053242801
 51
270.17163425098221
  0
ARC
  5
1D024
  8
0
 10
212.20777069305149
 20
233.82219573007109
 30
0.0
 40
2.706891862947423
 50
247.93607975697699
 51
270.16939468529671
  0
ARC
  5
1D025
  8
0
 10
212.45050281999991
 20
233.79838426080019
 30
0.0
 40
0.6841113240484598
 50
247.1606034972981
 51
269.9916861324985
  0
LINE
  5
1D026
  8
0
 10
215.88599253364899
 20
233.11427294390009
 30
0.0
 11
212.45040355249989
 21
233.11427294390009
 31
0.0
  0
POLYLINE
  5
1D027
  8
0
 66
     1
 10
0.0
 20
0.0
 30
0.0
 70
   128
  0
VERTEX
  5
1DB2D
  8
0
 10
246.20012735940011
 20
236.83231196480011
 30
0.0
  0
VERTEX
  5
1DB2E
  8
0
 10
245.97029184920009
 20
236.85816920480011
 30
0.0
  0
VERTEX
  5
1DB2F
  8
0
 10
245.7774037680999
 20
236.88253819130011
 30
0.0
  0
VERTEX
  5
1DB30
  8
0
 10
245.63770538189991
 20
236.9025560387002
 30
0.0
  0
VERTEX
  5
1DB31
  8
0
 10
245.52541023119991
 20
236.9223075279001
 30
0.0
  0
VERTEX
  5
1DB32
  8
0
 10
245.47475000840001
 20
236.93979776580011
 30
0.0
  0
VERTEX
  5
1DB33
  8
0
 10
245.50384825090009
 20
236.95359065310021
 30
0.0
  0
VERTEX
  5
1DB34
  8
0
 10
245.6117959879
 20
236.96273251550011
 30
0.0
  0
VERTEX
  5
1DB35
  8
0
 10
245.77126076440001
 20
236.96490063450011
 30
0.0
  0
VERTEX
  5
1DB36
  8
0
 10
245.97557058550001
 20
236.95826775510011
 30
0.0
  0
VERTEX
  5
1DB37
  8
0
 10
246.01527845480001
 20
236.95593944870009
 30
0.0
  0
VERTEX
  5
1DB38
  8
0
 10
246.24617194749999
 20
236.93579494140019
 30
0.0
  0
VERTEX
  5
1DB39
  8
0
 10
246.43518200140011
 20
236.91003455900011
 30
0.0
  0
VERTEX
  5
1DB3A
  8
0
 10
246.59931829199991
 20
236.8778666772001
 30
0.0
  0
VERTEX
  5
1DB3B
  8
0
 10
246.69727852560001
 20
236.84897891360021
 30
0.0
  0
VERTEX
  5
1DB3C
  8
0
 10
246.73988094550009
 20
236.82302109080021
 30
0.0
  0
VERTEX
  5
1DB3D
  8
0
 10
246.70965021469991
 20
236.8049627461001
 30
0.0
  0
VERTEX
  5
1DB3E
  8
0
 10
246.6030137799001
 20
236.80039181490011
 30
0.0
  0
VERTEX
  5
1DB3F
  8
0
 10
246.4316690527001
 20
236.80990993160009
 30
0.0
  0
VERTEX
  5
1DB40
  8
0
 10
246.24152651050011
 20
236.8279403367001
 30
0.0
  0
VERTEX
  5
1DB41
  8
0
 10
246.20012735940011
 20
236.83231196480011
 30
0.0
  0
SEQEND
  5
1DB42
  8
0
  0
POLYLINE
  5
1D028
  8
0
 66
     1
 10
0.0
 20
0.0
 30
0.0
 70
   128
  0
VERTEX
  5
1DB43
  8
0
 10
242.48651584609999
 20
235.4972647794001
 30
0.0
  0
VERTEX
  5
1DB44
  8
0
 10
242.2578090987999
 20
235.50531699440009
 30
0.0
  0
VERTEX
  5
1DB45
  8
0
 10
242.0544641278
 20
235.55375321880021
 30
0.0
  0
VERTEX
  5
1DB46
  8
0
 10
241.9054301642
 20
235.62866694410019
 30
0.0
  0
VERTEX
  5
1DB47
  8
0
 10
241.813739594
 20
235.72632170400021
 30
0.0
  0
VERTEX
  5
1DB48
  8
0
 10
241.80280214170011
 20
235.82136876070021
 30
0.0
  0
VERTEX
  5
1DB49
  8
0
 10
241.85912108049999
 20
235.9102206596001
 30
0.0
  0
VERTEX
  5
1DB4A
  8
0
 10
241.98702147230011
 20
235.9899418720002
 30
0.0
  0
VERTEX
  5
1DB4B
  8
0
 10
242.1578632854
 20
236.0436940857002
 30
0.0
  0
VERTEX
  5
1DB4C
  8
0
 10
242.3670495115
 20
236.0762214579002
 30
0.0
  0
VERTEX
  5
1DB4D
  8
0
 10
242.44154041629989
 20
236.08133069360011
 30
0.0
  0
VERTEX
  5
1DB4E
  8
0
 10
242.66985228279989
 20
236.07734090770009
 30
0.0
  0
VERTEX
  5
1DB4F
  8
0
 10
242.8714389167001
 20
236.04480049690019
 30
0.0
  0
VERTEX
  5
1DB50
  8
0
 10
243.02865734319991
 20
235.98231247740009
 30
0.0
  0
VERTEX
  5
1DB51
  8
0
 10
243.11318418010001
 20
235.90141779860011
 30
0.0
  0
VERTEX
  5
1DB52
  8
0
 10
243.1282306276
 20
235.80082564730009
 30
0.0
  0
VERTEX
  5
1DB53
  8
0
 10
243.06554889299991
 20
235.70277228140009
 30
0.0
  0
VERTEX
  5
1DB54
  8
0
 10
242.95015057549989
 20
235.62004103440009
 30
0.0
  0
VERTEX
  5
1DB55
  8
0
 10
242.77237972239999
 20
235.54613127490009
 30
0.0
  0
VERTEX
  5
1DB56
  8
0
 10
242.5532581471
 20
235.50256959280011
 30
0.0
  0
VERTEX
  5
1DB57
  8
0
 10
242.48651584609999
 20
235.4972647794001
 30
0.0
  0
SEQEND
  5
1DB58
  8
0
  0
POLYLINE
  5
1D029
  8
0
 66
     1
 10
0.0
 20
0.0
 30
0.0
 70
   128
  0
VERTEX
  5
1DB59
  8
0
 10
240.43769186360009
 20
236.20566784520011
 30
0.0
  0
VERTEX
  5
1DB5A
  8
0
 10
240.20971899849999
 20
236.2070964940001
 30
0.0
  0
VERTEX
  5
1DB5B
  8
0
 10
240.00779336319991
 20
236.2317281135002
 30
0.0
  0
VERTEX
  5
1DB5C
  8
0
 10
239.8577572964
 20
236.27282551610011
 30
0.0
  0
VERTEX
  5
1DB5D
  8
0
 10
239.7696169278999
 20
236.3263244100001
 30
0.0
  0
VERTEX
  5
1DB5E
  8
0
 10
239.76226693020001
 20
236.37824750620021
 30
0.0
  0
VERTEX
  5
1DB5F
  8
0
 10
239.8234846256
 20
236.4272425242001
 30
0.0
  0
VERTEX
  5
1DB60
  8
0
 10
239.95584418990009
 20
236.4699399390002
 30
0.0
  0
VERTEX
  5
1DB61
  8
0
 10
240.12362381439999
 20
236.49841605800009
 30
0.0
  0
VERTEX
  5
1DB62
  8
0
 10
240.32916298129999
 20
236.5173591592002
 30
0.0
  0
VERTEX
  5
1DB63
  8
0
 10
240.38832804180021
 20
236.52039899610011
 30
0.0
  0
VERTEX
  5
1DB64
  8
0
 10
240.6163195334
 20
236.52260995590009
 30
0.0
  0
VERTEX
  5
1DB65
  8
0
 10
240.81305583939999
 20
236.50998494700019
 30
0.0
  0
VERTEX
  5
1DB66
  8
0
 10
240.96762185910009
 20
236.4808960177001
 30
0.0
  0
VERTEX
  5
1DB67
  8
0
 10
241.0509417019
 20
236.43952666900009
 30
0.0
  0
VERTEX
  5
1DB68
  8
0
 10
241.0637455246999
 20
236.38523801350021
 30
0.0
  0
VERTEX
  5
1DB69
  8
0
 10
240.99944701419989
 20
236.32932513140011
 30
0.0
  0
VERTEX
  5
1DB6A
  8
0
 10
240.88014459230001
 20
236.2791119434001
 30
0.0
  0
VERTEX
  5
1DB6B
  8
0
 10
240.6994419358
 20
236.2342538603001
 30
0.0
  0
VERTEX
  5
1DB6C
  8
0
 10
240.4942827484999
 20
236.20896845240009
 30
0.0
  0
VERTEX
  5
1DB6D
  8
0
 10
240.43769186360009
 20
236.20566784520011
 30
0.0
  0
SEQEND
  5
1DB6E
  8
0
  0
POLYLINE
  5
1D02A
  8
0
 66
     1
 10
0.0
 20
0.0
 30
0.0
 70
   128
  0
VERTEX
  5
1DB6F
  8
0
 10
242.31497740369991
 20
236.7096158036002
 30
0.0
  0
VERTEX
  5
1DB70
  8
0
 10
242.08646809679999
 20
236.7038416036001
 30
0.0
  0
VERTEX
  5
1DB71
  8
0
 10
241.88708310940001
 20
236.70847772740009
 30
0.0
  0
VERTEX
  5
1DB72
  8
0
 10
241.7390773259001
 20
236.7204936512002
 30
0.0
  0
VERTEX
  5
1DB73
  8
0
 10
241.64648523549999
 20
236.7378702678001
 30
0.0
  0
VERTEX
  5
1DB74
  8
0
 10
241.6311929188
 20
236.75631045480009
 30
0.0
  0
VERTEX
  5
1DB75
  8
0
 10
241.6894192062
 20
236.77403352340019
 30
0.0
  0
VERTEX
  5
1DB76
  8
0
 10
241.81933498010011
 20
236.79000198030019
 30
0.0
  0
VERTEX
  5
1DB77
  8
0
 10
241.98339676480009
 20
236.80244258720009
 30
0.0
  0
VERTEX
  5
1DB78
  8
0
 10
242.1873303315999
 20
236.81375070590019
 30
0.0
  0
VERTEX
  5
1DB79
  8
0
 10
242.22758581860009
 20
236.81561707640009
 30
0.0
  0
VERTEX
  5
1DB7A
  8
0
 10
242.4563819728001
 20
236.8241405406001
 30
0.0
  0
VERTEX
  5
1DB7B
  8
0
 10
242.6427768728999
 20
236.8277950503001
 30
0.0
  0
VERTEX
  5
1DB7C
  8
0
 10
242.80091544609991
 20
236.8256828107001
 30
0.0
  0
VERTEX
  5
1DB7D
  8
0
 10
242.89246818049989
 20
236.81607528710009
 30
0.0
  0
VERTEX
  5
1DB7E
  8
0
 10
242.91127344590001
 20
236.79814173960011
 30
0.0
  0
VERTEX
  5
1DB7F
  8
0
 10
242.8518587909
 20
236.7751324840001
 30
0.0
  0
VERTEX
  5
1DB80
  8
0
 10
242.73177033289991
 20
236.75063124970021
 30
0.0
  0
VERTEX
  5
1DB81
  8
0
 10
242.55190586670011
 20
236.72700173340019
 30
0.0
  0
VERTEX
  5
1DB82
  8
0
 10
242.3600273393001
 20
236.7119757750001
 30
0.0
  0
VERTEX
  5
1DB83
  8
0
 10
242.31497740369991
 20
236.7096158036002
 30
0.0
  0
SEQEND
  5
1DB84
  8
0
  0
POLYLINE
  5
1D02B
  8
0
 66
     1
 10
0.0
 20
0.0
 30
0.0
 70
   128
  0
VERTEX
  5
1DB85
  8
0
 10
248.2523376307999
 20
235.70040858470011
 30
0.0
  0
VERTEX
  5
1DB86
  8
0
 10
248.0506988428001
 20
235.81009416960009
 30
0.0
  0
VERTEX
  5
1DB87
  8
0
 10
247.8778826258999
 20
235.92583148860021
 30
0.0
  0
VERTEX
  5
1DB88
  8
0
 10
247.7492669783
 20
236.0307039984001
 30
0.0
  0
VERTEX
  5
1DB89
  8
0
 10
247.64864316209989
 20
236.13810039240019
 30
0.0
  0
VERTEX
  5
1DB8A
  8
0
 10
247.61171808459989
 20
236.2212693610002
 30
0.0
  0
VERTEX
  5
1DB8B
  8
0
 10
247.64054065569979
 20
236.2710187503001
 30
0.0
  0
VERTEX
  5
1DB8C
  8
0
 10
247.73634022100009
 20
236.28616764330019
 30
0.0
  0
VERTEX
  5
1DB8D
  8
0
 10
247.88629060609989
 20
236.2606549927001
 30
0.0
  0
VERTEX
  5
1DB8E
  8
0
 10
248.07694723830019
 20
236.1950023391002
 30
0.0
  0
VERTEX
  5
1DB8F
  8
0
 10
248.12442978839999
 20
236.17425247210011
 30
0.0
  0
VERTEX
  5
1DB90
  8
0
 10
248.32888862110011
 20
236.06628052080009
 30
0.0
  0
VERTEX
  5
1DB91
  8
0
 10
248.49432503799989
 20
235.95514393530021
 30
0.0
  0
VERTEX
  5
1DB92
  8
0
 10
248.6419843696001
 20
235.8279457607002
 30
0.0
  0
VERTEX
  5
1DB93
  8
0
 10
248.73235618690001
 20
235.7167719223001
 30
0.0
  0
VERTEX
  5
1DB94
  8
0
 10
248.7640546821001
 20
235.62630697270021
 30
0.0
  0
VERTEX
  5
1DB95
  8
0
 10
248.72693588950011
 20
235.5766153254001
 30
0.0
  0
VERTEX
  5
1DB96
  8
0
 10
248.6344965360999
 20
235.56932679490021
 30
0.0
  0
VERTEX
  5
1DB97
  8
0
 10
248.48518690090009
 20
235.6037130870001
 30
0.0
  0
VERTEX
  5
1DB98
  8
0
 10
248.30153381449989
 20
235.67705846510009
 30
0.0
  0
VERTEX
  5
1DB99
  8
0
 10
248.2523376307999
 20
235.70040858470011
 30
0.0
  0
SEQEND
  5
1DB9A
  8
0
  0
POLYLINE
  5
1D02C
  8
0
 66
     1
 10
0.0
 20
0.0
 30
0.0
 70
   128
  0
VERTEX
  5
1DB9B
  8
0
 10
244.47030371049999
 20
234.23625028810011
 30
0.0
  0
VERTEX
  5
1DB9C
  8
0
 10
244.24270337440001
 20
234.27318840400011
 30
0.0
  0
VERTEX
  5
1DB9D
  8
0
 10
244.0509552322001
 20
234.3634540506001
 30
0.0
  0
VERTEX
  5
1DB9E
  8
0
 10
243.91870742659989
 20
234.48105215210009
 30
0.0
  0
VERTEX
  5
1DB9F
  8
0
 10
243.8330108486
 20
234.63375366410011
 30
0.0
  0
VERTEX
  5
1DBA0
  8
0
 10
243.82357468829991
 20
234.7897203930001
 30
0.0
  0
VERTEX
  5
1DBA1
  8
0
 10
243.8836487196001
 20
234.9320711859001
 30
0.0
  0
VERTEX
  5
1DBA2
  8
0
 10
244.0155724249
 20
235.05958973550011
 30
0.0
  0
VERTEX
  5
1DBA3
  8
0
 10
244.19944902879999
 20
235.14600529450021
 30
0.0
  0
VERTEX
  5
1DBA4
  8
0
 10
244.42158063869991
 20
235.18635018850011
 30
0.0
  0
VERTEX
  5
1DBA5
  8
0
 10
244.49300562959999
 20
235.18758325950009
 30
0.0
  0
VERTEX
  5
1DBA6
  8
0
 10
244.7207028231999
 20
235.15442817590011
 30
0.0
  0
VERTEX
  5
1DBA7
  8
0
 10
244.9163401685
 20
235.07274746080009
 30
0.0
  0
VERTEX
  5
1DBA8
  8
0
 10
245.0650239549
 20
234.9448675581001
 30
0.0
  0
VERTEX
  5
1DBA9
  8
0
 10
245.1362924836001
 20
234.80572982810011
 30
0.0
  0
VERTEX
  5
1DBAA
  8
0
 10
245.1456764899001
 20
234.6473286219001
 30
0.0
  0
VERTEX
  5
1DBAB
  8
0
 10
245.0788298807999
 20
234.48977305670019
 30
0.0
  0
VERTEX
  5
1DBAC
  8
0
 10
244.95081773019999
 20
234.36610086940021
 30
0.0
  0
VERTEX
  5
1DBAD
  8
0
 10
244.76232921699989
 20
234.27441961250011
 30
0.0
  0
VERTEX
  5
1DBAE
  8
0
 10
244.5365207456
 20
234.23629685420019
 30
0.0
  0
VERTEX
  5
1DBAF
  8
0
 10
244.47030371049999
 20
234.23625028810011
 30
0.0
  0
SEQEND
  5
1DBB0
  8
0
  0
POLYLINE
  5
1D02D
  8
0
 66
     1
 10
0.0
 20
0.0
 30
0.0
 70
   128
  0
VERTEX
  5
1DBB1
  8
0
 10
246.4969882928001
 20
235.34164636510019
 30
0.0
  0
VERTEX
  5
1DBB2
  8
0
 10
246.2782206199999
 20
235.41430070180019
 30
0.0
  0
VERTEX
  5
1DBB3
  8
0
 10
246.0821660421
 20
235.51879323200021
 30
0.0
  0
VERTEX
  5
1DBB4
  8
0
 10
245.93828042969989
 20
235.6341151812002
 30
0.0
  0
VERTEX
  5
1DBB5
  8
0
 10
245.84515189749999
 20
235.7618442096001
 30
0.0
  0
VERTEX
  5
1DBB6
  8
0
 10
245.8295131288001
 20
235.87342596730019
 30
0.0
  0
VERTEX
  5
1DBB7
  8
0
 10
245.88196521619989
 20
235.96478312390011
 30
0.0
  0
VERTEX
  5
1DBB8
  8
0
 10
246.0066953860001
 20
236.0322816588002
 30
0.0
  0
VERTEX
  5
1DBB9
  8
0
 10
246.17910554630001
 20
236.05927883760009
 30
0.0
  0
VERTEX
  5
1DBBA
  8
0
 10
246.39025872569999
 20
236.04673764780009
 30
0.0
  0
VERTEX
  5
1DBBB
  8
0
 10
246.4586103521001
 20
236.03424674950011
 30
0.0
  0
VERTEX
  5
1DBBC
  8
0
 10
246.67949026449989
 20
235.96666812080019
 30
0.0
  0
VERTEX
  5
1DBBD
  8
0
 10
246.87361886719989
 20
235.86761823970011
 30
0.0
  0
VERTEX
  5
1DBBE
  8
0
 10
247.0272796413999
 20
235.74134021180009
 30
0.0
  0
VERTEX
  5
1DBBF
  8
0
 10
247.1093030832001
 20
235.6171949126001
 30
0.0
  0
VERTEX
  5
1DBC0
  8
0
 10
247.12661450729999
 20
235.4925262101001
 30
0.0
  0
VERTEX
  5
1DBC1
  8
0
 10
247.06765806300001
 20
235.39331614160011
 30
0.0
  0
VERTEX
  5
1DBC2
  8
0
 10
246.95038219910001
 20
235.33202021500011
 30
0.0
  0
VERTEX
  5
1DBC3
  8
0
 10
246.77306583149991
 20
235.30650756440019
 30
0.0
  0
VERTEX
  5
1DBC4
  8
0
 10
246.56354432920011
 20
235.32700224900009
 30
0.0
  0
VERTEX
  5
1DBC5
  8
0
 10
246.4969882928001
 20
235.34164636510019
 30
0.0
  0
SEQEND
  5
1DBC6
  8
0
  0
POLYLINE
  5
1D02E
  8
0
 66
     1
 10
0.0
 20
0.0
 30
0.0
 70
   128
  0
VERTEX
  5
1DBC7
  8
0
 10
244.42049285389999
 20
236.4051124372001
 30
0.0
  0
VERTEX
  5
1DBC8
  8
0
 10
244.2006560227999
 20
236.40317714890011
 30
0.0
  0
VERTEX
  5
1DBC9
  8
0
 10
243.99076944210009
 20
236.42342968960011
 30
0.0
  0
VERTEX
  5
1DBCA
  8
0
 10
243.8316213153
 20
236.46018899160009
 30
0.0
  0
VERTEX
  5
1DBCB
  8
0
 10
243.72841587290009
 20
236.51037237720021
 30
0.0
  0
VERTEX
  5
1DBCC
  8
0
 10
243.70593747120009
 20
236.5618689277002
 30
0.0
  0
VERTEX
  5
1DBCD
  8
0
 10
243.75461583949999
 20
236.61090864920021
 30
0.0
  0
VERTEX
  5
1DBCE
  8
0
 10
243.87752434239999
 20
236.6554742970001
 30
0.0
  0
VERTEX
  5
1DBCF
  8
0
 10
244.04347112400001
 20
236.6870200553002
 30
0.0
  0
VERTEX
  5
1DBD0
  8
0
 10
244.24925243480021
 20
236.70932150560009
 30
0.0
  0
VERTEX
  5
1DBD1
  8
0
 10
244.31754818179999
 20
236.71382910690011
 30
0.0
  0
VERTEX
  5
1DBD2
  8
0
 10
244.53748932109991
 20
236.7195306637002
 30
0.0
  0
VERTEX
  5
1DBD3
  8
0
 10
244.73899772390001
 20
236.7113108106002
 30
0.0
  0
VERTEX
  5
1DBD4
  8
0
 10
244.90626325829999
 20
236.68639793180009
 30
0.0
  0
VERTEX
  5
1DBD5
  8
0
 10
245.00329589470019
 20
236.64719111400009
 30
0.0
  0
VERTEX
  5
1DBD6
  8
0
 10
245.0322078726999
 20
236.5931315639001
 30
0.0
  0
VERTEX
  5
1DBD7
  8
0
 10
244.98119002199999
 20
236.53576023060009
 30
0.0
  0
VERTEX
  5
1DBD8
  8
0
 10
244.86914446569989
 20
236.48469581390009
 30
0.0
  0
VERTEX
  5
1DBD9
  8
0
 10
244.69371309499999
 20
236.43827497140009
 30
0.0
  0
VERTEX
  5
1DBDA
  8
0
 10
244.4894069991999
 20
236.4099925675001
 30
0.0
  0
VERTEX
  5
1DBDB
  8
0
 10
244.42049285389999
 20
236.4051124372001
 30
0.0
  0
SEQEND
  5
1DBDC
  8
0
  0
POLYLINE
  5
1D02F
  8
0
 66
     1
 10
0.0
 20
0.0
 30
0.0
 70
   128
  0
VERTEX
  5
1DBDD
  8
0
 10
228.7057096325
 20
235.67923775990019
 30
0.0
  0
VERTEX
  5
1DBDE
  8
0
 10
228.47815772519991
 20
235.68389437280021
 30
0.0
  0
VERTEX
  5
1DBDF
  8
0
 10
228.2864319347
 20
235.71545689480021
 30
0.0
  0
VERTEX
  5
1DBE0
  8
0
 10
228.14886068920009
 20
235.76373479450021
 30
0.0
  0
VERTEX
  5
1DBE1
  8
0
 10
228.06470265610011
 20
235.8268821903001
 30
0.0
  0
VERTEX
  5
1DBE2
  8
0
 10
228.05852612480001
 20
235.8893012919001
 30
0.0
  0
VERTEX
  5
1DBE3
  8
0
 10
228.12216898419999
 20
235.94667821310011
 30
0.0
  0
VERTEX
  5
1DBE4
  8
0
 10
228.25668549160019
 20
235.99601223250011
 30
0.0
  0
VERTEX
  5
1DBE5
  8
0
 10
228.43195294959989
 20
236.02936848180019
 30
0.0
  0
VERTEX
  5
1DBE6
  8
0
 10
228.64352708679991
 20
236.05018912930009
 30
0.0
  0
VERTEX
  5
1DBE7
  8
0
 10
228.69672050700001
 20
236.0528881021001
 30
0.0
  0
VERTEX
  5
1DBE8
  8
0
 10
228.92405634740001
 20
236.0533407249001
 30
0.0
  0
VERTEX
  5
1DBE9
  8
0
 10
229.11010479550009
 20
236.03745608710011
 30
0.0
  0
VERTEX
  5
1DBEA
  8
0
 10
229.25743630149989
 20
236.00280343670011
 30
0.0
  0
VERTEX
  5
1DBEB
  8
0
 10
229.33345457539991
 20
235.9548645385002
 30
0.0
  0
VERTEX
  5
1DBEC
  8
0
 10
229.34290191159999
 20
235.89189595660019
 30
0.0
  0
VERTEX
  5
1DBED
  8
0
 10
229.2763794027
 20
235.82396715060011
 30
0.0
  0
VERTEX
  5
1DBEE
  8
0
 10
229.15080731730021
 20
235.76233594790011
 30
0.0
  0
VERTEX
  5
1DBEF
  8
0
 10
228.96558588369999
 20
235.70996581690019
 30
0.0
  0
VERTEX
  5
1DBF0
  8
0
 10
228.76008024440009
 20
235.68238563020009
 30
0.0
  0
VERTEX
  5
1DBF1
  8
0
 10
228.7057096325
 20
235.67923775990019
 30
0.0
  0
SEQEND
  5
1DBF2
  8
0
  0
POLYLINE
  5
1D030
  8
0
 66
     1
 10
0.0
 20
0.0
 30
0.0
 70
   128
  0
VERTEX
  5
1DBF3
  8
0
 10
230.6866439245
 20
234.83304179390009
 30
0.0
  0
VERTEX
  5
1DBF4
  8
0
 10
230.45861145479989
 20
234.8447243043002
 30
0.0
  0
VERTEX
  5
1DBF5
  8
0
 10
230.26537319639991
 20
234.90072845600019
 30
0.0
  0
VERTEX
  5
1DBF6
  8
0
 10
230.12606969100011
 20
234.98491070350019
 30
0.0
  0
VERTEX
  5
1DBF7
  8
0
 10
230.03883084280011
 20
235.09654461520009
 30
0.0
  0
VERTEX
  5
1DBF8
  8
0
 10
230.0294095836
 20
235.20933522960021
 30
0.0
  0
VERTEX
  5
1DBF9
  8
0
 10
230.09013554079999
 20
235.31515210050009
 30
0.0
  0
VERTEX
  5
1DBFA
  8
0
 10
230.2219959162
 20
235.40681845630019
 30
0.0
  0
VERTEX
  5
1DBFB
  8
0
 10
230.394476857
 20
235.46733765980019
 30
0.0
  0
VERTEX
  5
1DBFC
  8
0
 10
230.6039424799001
 20
235.50221755290011
 30
0.0
  0
VERTEX
  5
1DBFD
  8
0
 10
230.66205700859999
 20
235.5061291077001
 30
0.0
  0
VERTEX
  5
1DBFE
  8
0
 10
230.88981380679999
 20
235.49846059760009
 30
0.0
  0
VERTEX
  5
1DBFF
  8
0
 10
231.07964714990001
 20
235.45918299930011
 30
0.0
  0
VERTEX
  5
1DC00
  8
0
 10
231.2283607386
 20
235.38654542640009
 30
0.0
  0
VERTEX
  5
1DC01
  8
0
 10
231.30582442499991
 20
235.2948716201002
 30
0.0
  0
VERTEX
  5
1DC02
  8
0
 10
231.3179353438
 20
235.18146447020021
 30
0.0
  0
VERTEX
  5
1DC03
  8
0
 10
231.25424778089999
 20
235.0647939660002
 30
0.0
  0
VERTEX
  5
1DC04
  8
0
 10
231.13136162980001
 20
234.96324255250011
 30
0.0
  0
VERTEX
  5
1DC05
  8
0
 10
230.9483977221
 20
234.8796414502001
 30
0.0
  0
VERTEX
  5
1DC06
  8
0
 10
230.74265366419991
 20
234.8374134221001
 30
0.0
  0
VERTEX
  5
1DC07
  8
0
 10
230.6866439245
 20
234.83304179390009
 30
0.0
  0
SEQEND
  5
1DC08
  8
0
  0
POLYLINE
  5
1D031
  8
0
 66
     1
 10
0.0
 20
0.0
 30
0.0
 70
   128
  0
VERTEX
  5
1DC09
  8
0
 10
234.52885618430011
 20
236.40075198490021
 30
0.0
  0
VERTEX
  5
1DC0A
  8
0
 10
234.30170288310001
 20
236.39735079490021
 30
0.0
  0
VERTEX
  5
1DC0B
  8
0
 10
234.11002179600001
 20
236.40396318510011
 30
0.0
  0
VERTEX
  5
1DC0C
  8
0
 10
233.97226801139999
 20
236.41640565470021
 30
0.0
  0
VERTEX
  5
1DC0D
  8
0
 10
233.89000615100011
 20
236.4323033311002
 30
0.0
  0
VERTEX
  5
1DC0E
  8
0
 10
233.8856922649
 20
236.44680961150021
 30
0.0
  0
VERTEX
  5
1DC0F
  8
0
 10
233.9516448043
 20
236.45893170610009
 30
0.0
  0
VERTEX
  5
1DC10
  8
0
 10
234.0884076617001
 20
236.4692135074001
 30
0.0
  0
VERTEX
  5
1DC11
  8
0
 10
234.26272517069989
 20
236.47786176880021
 30
0.0
  0
VERTEX
  5
1DC12
  8
0
 10
234.47330838069999
 20
236.4870930382001
 30
0.0
  0
VERTEX
  5
1DC13
  8
0
 10
234.52299257739989
 20
236.48923508010009
 30
0.0
  0
VERTEX
  5
1DC14
  8
0
 10
234.74999686699991
 20
236.4987606474001
 30
0.0
  0
VERTEX
  5
1DC15
  8
0
 10
234.9343428574
 20
236.5050787397002
 30
0.0
  0
VERTEX
  5
1DC16
  8
0
 10
235.08130555970001
 20
236.50619260150009
 30
0.0
  0
VERTEX
  5
1DC17
  8
0
 10
235.15764793380001
 20
236.4996956952001
 30
0.0
  0
VERTEX
  5
1DC18
  8
0
 10
235.16552692280021
 20
236.48446670850021
 30
0.0
  0
VERTEX
  5
1DC19
  8
0
 10
235.09693315249999
 20
236.46290286560011
 30
0.0
  0
VERTEX
  5
1DC1A
  8
0
 10
234.9701093696001
 20
236.43979302720021
 30
0.0
  0
VERTEX
  5
1DC1B
  8
0
 10
234.7842099330999
 20
236.41731090030009
 30
0.0
  0
VERTEX
  5
1DC1C
  8
0
 10
234.5808686874
 20
236.40299647230009
 30
0.0
  0
VERTEX
  5
1DC1D
  8
0
 10
234.52885618430011
 20
236.40075198490021
 30
0.0
  0
SEQEND
  5
1DC1E
  8
0
  0
POLYLINE
  5
1D032
  8
0
 66
     1
 10
0.0
 20
0.0
 30
0.0
 70
   128
  0
VERTEX
  5
1DC1F
  8
0
 10
232.60074278339991
 20
235.85407308420011
 30
0.0
  0
VERTEX
  5
1DC20
  8
0
 10
232.3731983266
 20
235.85787288030019
 30
0.0
  0
VERTEX
  5
1DC21
  8
0
 10
232.18058964229999
 20
235.88773667000009
 30
0.0
  0
VERTEX
  5
1DC22
  8
0
 10
232.04185983159999
 20
235.93416682560019
 30
0.0
  0
VERTEX
  5
1DC23
  8
0
 10
231.95783218369999
 20
235.99500454150009
 30
0.0
  0
VERTEX
  5
1DC24
  8
0
 10
231.9519238732
 20
236.0551772930001
 30
0.0
  0
VERTEX
  5
1DC25
  8
0
 10
232.0155071280999
 20
236.1107344099002
 30
0.0
  0
VERTEX
  5
1DC26
  8
0
 10
232.1497963926999
 20
236.15862487930011
 30
0.0
  0
VERTEX
  5
1DC27
  8
0
 10
232.32409527520011
 20
236.19092314620019
 30
0.0
  0
VERTEX
  5
1DC28
  8
0
 10
232.5346971116999
 20
236.21113657140009
 30
0.0
  0
VERTEX
  5
1DC29
  8
0
 10
232.5891422294001
 20
236.2138262310001
 30
0.0
  0
VERTEX
  5
1DC2A
  8
0
 10
232.81649669629999
 20
236.21423228760011
 30
0.0
  0
VERTEX
  5
1DC2B
  8
0
 10
233.00340941170001
 20
236.1987183162002
 30
0.0
  0
VERTEX
  5
1DC2C
  8
0
 10
233.15139656880001
 20
236.1651012965001
 30
0.0
  0
VERTEX
  5
1DC2D
  8
0
 10
233.2282493077
 20
236.11859477240009
 30
0.0
  0
VERTEX
  5
1DC2E
  8
0
 10
233.23749547820009
 20
236.0577868589001
 30
0.0
  0
VERTEX
  5
1DC2F
  8
0
 10
233.1705669127
 20
235.99311023140021
 30
0.0
  0
VERTEX
  5
1DC30
  8
0
 10
233.0460416338999
 20
235.9347535588002
 30
0.0
  0
VERTEX
  5
1DC31
  8
0
 10
232.86164721470001
 20
235.8844304748001
 30
0.0
  0
VERTEX
  5
1DC32
  8
0
 10
232.6553555390999
 20
235.8572656580001
 30
0.0
  0
VERTEX
  5
1DC33
  8
0
 10
232.60074278339991
 20
235.85407308420011
 30
0.0
  0
SEQEND
  5
1DC34
  8
0
  0
POLYLINE
  5
1D033
  8
0
 66
     1
 10
0.0
 20
0.0
 30
0.0
 70
   128
  0
VERTEX
  5
1DC35
  8
0
 10
238.5120446048002
 20
235.29031372750009
 30
0.0
  0
VERTEX
  5
1DC36
  8
0
 10
238.2836805842
 20
235.29814242500009
 30
0.0
  0
VERTEX
  5
1DC37
  8
0
 10
238.08690330009989
 20
235.34708528900009
 30
0.0
  0
VERTEX
  5
1DC38
  8
0
 10
237.9440086148
 20
235.42262486300021
 30
0.0
  0
VERTEX
  5
1DC39
  8
0
 10
237.8555031679
 20
235.5226991989002
 30
0.0
  0
VERTEX
  5
1DC3A
  8
0
 10
237.84590309480001
 20
235.62220170280011
 30
0.0
  0
VERTEX
  5
1DC3B
  8
0
 10
237.90437152609999
 20
235.7153190591001
 30
0.0
  0
VERTEX
  5
1DC3C
  8
0
 10
238.0335869454
 20
235.79770385400019
 30
0.0
  0
VERTEX
  5
1DC3D
  8
0
 10
238.2041493617001
 20
235.85288657920009
 30
0.0
  0
VERTEX
  5
1DC3E
  8
0
 10
238.41236328700009
 20
235.88590196450019
 30
0.0
  0
VERTEX
  5
1DC3F
  8
0
 10
238.48000710829999
 20
235.8905623027002
 30
0.0
  0
VERTEX
  5
1DC40
  8
0
 10
238.7079650722001
 20
235.8857250132001
 30
0.0
  0
VERTEX
  5
1DC41
  8
0
 10
238.90301754689989
 20
235.8519273170001
 30
0.0
  0
VERTEX
  5
1DC42
  8
0
 10
239.05487528070009
 20
235.7879678078001
 30
0.0
  0
VERTEX
  5
1DC43
  8
0
 10
239.1353303753001
 20
235.7056500681002
 30
0.0
  0
VERTEX
  5
1DC44
  8
0
 10
239.14766108609999
 20
235.60337408560011
 30
0.0
  0
VERTEX
  5
1DC45
  8
0
 10
239.08377608280011
 20
235.5021765747002
 30
0.0
  0
VERTEX
  5
1DC46
  8
0
 10
238.9660084806001
 20
235.4153065302001
 30
0.0
  0
VERTEX
  5
1DC47
  8
0
 10
238.7866543792
 20
235.33887847440019
 30
0.0
  0
VERTEX
  5
1DC48
  8
0
 10
238.5724390112
 20
235.29537453430009
 30
0.0
  0
VERTEX
  5
1DC49
  8
0
 10
238.5120446048002
 20
235.29031372750009
 30
0.0
  0
SEQEND
  5
1DC4A
  8
0
  0
POLYLINE
  5
1D034
  8
0
 66
     1
 10
0.0
 20
0.0
 30
0.0
 70
   128
  0
VERTEX
  5
1DC4B
  8
0
 10
236.50600930670001
 20
236.03012099050019
 30
0.0
  0
VERTEX
  5
1DC4C
  8
0
 10
236.27840524540011
 20
236.03305279390011
 30
0.0
  0
VERTEX
  5
1DC4D
  8
0
 10
236.08323356129989
 20
236.06055288690021
 30
0.0
  0
VERTEX
  5
1DC4E
  8
0
 10
235.94118451700001
 20
236.10438278990009
 30
0.0
  0
VERTEX
  5
1DC4F
  8
0
 10
235.85633357980009
 20
236.16168520530019
 30
0.0
  0
VERTEX
  5
1DC50
  8
0
 10
235.85035076359989
 20
236.21807678720009
 30
0.0
  0
VERTEX
  5
1DC51
  8
0
 10
235.91362854459999
 20
236.2704171159001
 30
0.0
  0
VERTEX
  5
1DC52
  8
0
 10
236.04777252299999
 20
236.31551734290011
 30
0.0
  0
VERTEX
  5
1DC53
  8
0
 10
236.21953820809989
 20
236.3455226936002
 30
0.0
  0
VERTEX
  5
1DC54
  8
0
 10
236.4281395636001
 20
236.36446765740021
 30
0.0
  0
VERTEX
  5
1DC55
  8
0
 10
236.48280447350001
 20
236.36702506920011
 30
0.0
  0
VERTEX
  5
1DC56
  8
0
 10
236.71031912789999
 20
236.3674348511002
 30
0.0
  0
VERTEX
  5
1DC57
  8
0
 10
236.89898272970001
 20
236.35271622920021
 30
0.0
  0
VERTEX
  5
1DC58
  8
0
 10
237.04910447820001
 20
236.3209395029001
 30
0.0
  0
VERTEX
  5
1DC59
  8
0
 10
237.128561195
 20
236.27672775770009
 30
0.0
  0
VERTEX
  5
1DC5A
  8
0
 10
237.13845929129999
 20
236.21927446800009
 30
0.0
  0
VERTEX
  5
1DC5B
  8
0
 10
237.07171699029999
 20
236.1594910093001
 30
0.0
  0
VERTEX
  5
1DC5C
  8
0
 10
236.9489202462
 20
236.1058244773001
 30
0.0
  0
VERTEX
  5
1DC5D
  8
0
 10
236.76582967860011
 20
236.05889513270009
 30
0.0
  0
VERTEX
  5
1DC5E
  8
0
 10
236.5603948198
 20
236.03321298140011
 30
0.0
  0
VERTEX
  5
1DC5F
  8
0
 10
236.50600930670001
 20
236.03012099050019
 30
0.0
  0
SEQEND
  5
1DC60
  8
0
  0
POLYLINE
  5
1D035
  8
0
 66
     1
 10
0.0
 20
0.0
 30
0.0
 70
   128
  0
VERTEX
  5
1DC61
  8
0
 10
238.41586505989989
 20
236.5464704402001
 30
0.0
  0
VERTEX
  5
1DC62
  8
0
 10
238.18843981250009
 20
236.54321826180009
 30
0.0
  0
VERTEX
  5
1DC63
  8
0
 10
237.99515312529999
 20
236.5502050438001
 30
0.0
  0
VERTEX
  5
1DC64
  8
0
 10
237.8550263308
 20
236.56362726470019
 30
0.0
  0
VERTEX
  5
1DC65
  8
0
 10
237.7706969343001
 20
236.58144532820009
 30
0.0
  0
VERTEX
  5
1DC66
  8
0
 10
237.7643043361
 20
236.59884615920009
 30
0.0
  0
VERTEX
  5
1DC67
  8
0
 10
237.82910576090009
 20
236.6145855107001
 30
0.0
  0
VERTEX
  5
1DC68
  8
0
 10
237.9645833932
 20
236.6285423108001
 30
0.0
  0
VERTEX
  5
1DC69
  8
0
 10
238.13527991990011
 20
236.63962691210011
 30
0.0
  0
VERTEX
  5
1DC6A
  8
0
 10
238.34305798630001
 20
236.64993106500009
 30
0.0
  0
VERTEX
  5
1DC6B
  8
0
 10
238.38971352199999
 20
236.65192595800011
 30
0.0
  0
VERTEX
  5
1DC6C
  8
0
 10
238.61704936250001
 20
236.65992043100019
 30
0.0
  0
VERTEX
  5
1DC6D
  8
0
 10
238.80042677740019
 20
236.66321731290009
 30
0.0
  0
VERTEX
  5
1DC6E
  8
0
 10
238.95069381220009
 20
236.6604494222002
 30
0.0
  0
VERTEX
  5
1DC6F
  8
0
 10
239.0323223732
 20
236.65013223070011
 30
0.0
  0
VERTEX
  5
1DC70
  8
0
 10
239.04176225879999
 20
236.63158587300009
 30
0.0
  0
VERTEX
  5
1DC71
  8
0
 10
238.97401040419999
 20
236.6085002490002
 30
0.0
  0
VERTEX
  5
1DC72
  8
0
 10
238.84963413700009
 20
236.58501788160009
 30
0.0
  0
VERTEX
  5
1DC73
  8
0
 10
238.66561224680001
 20
236.5625581064001
 30
0.0
  0
VERTEX
  5
1DC74
  8
0
 10
238.46475204449979
 20
236.54855101490011
 30
0.0
  0
VERTEX
  5
1DC75
  8
0
 10
238.41586505989989
 20
236.5464704402001
 30
0.0
  0
SEQEND
  5
1DC76
  8
0
  0
POLYLINE
  5
1D036
  8
0
 66
     1
 10
0.0
 20
0.0
 30
0.0
 70
   128
  0
VERTEX
  5
1DC77
  8
0
 10
234.58907550199999
 20
235.05626305120009
 30
0.0
  0
VERTEX
  5
1DC78
  8
0
 10
234.3609797023
 20
235.06552412290009
 30
0.0
  0
VERTEX
  5
1DC79
  8
0
 10
234.16653072460011
 20
235.11777876990021
 30
0.0
  0
VERTEX
  5
1DC7A
  8
0
 10
234.02574455360011
 20
235.1978576102002
 30
0.0
  0
VERTEX
  5
1DC7B
  8
0
 10
233.9382300339
 20
235.30430591780009
 30
0.0
  0
VERTEX
  5
1DC7C
  8
0
 10
233.9292111060999
 20
235.41101313310011
 30
0.0
  0
VERTEX
  5
1DC7D
  8
0
 10
233.98915475230001
 20
235.51116011220009
 30
0.0
  0
VERTEX
  5
1DC7E
  8
0
 10
234.12008380509999
 20
235.59918872200009
 30
0.0
  0
VERTEX
  5
1DC7F
  8
0
 10
234.29256102070011
 20
235.65804830870019
 30
0.0
  0
VERTEX
  5
1DC80
  8
0
 10
234.5020638965
 20
235.6924979307002
 30
0.0
  0
VERTEX
  5
1DC81
  8
0
 10
234.56195538860021
 20
235.69666280530009
 30
0.0
  0
VERTEX
  5
1DC82
  8
0
 10
234.78978669269989
 20
235.6906744011001
 30
0.0
  0
VERTEX
  5
1DC83
  8
0
 10
234.98102074490001
 20
235.65436213390009
 30
0.0
  0
VERTEX
  5
1DC84
  8
0
 10
235.13055762270011
 20
235.58618373350009
 30
0.0
  0
VERTEX
  5
1DC85
  8
0
 10
235.208583828
 20
235.49949995360009
 30
0.0
  0
VERTEX
  5
1DC86
  8
0
 10
235.2207655273001
 20
235.39185396510021
 30
0.0
  0
VERTEX
  5
1DC87
  8
0
 10
235.15728285530011
 20
235.2815648832001
 30
0.0
  0
VERTEX
  5
1DC88
  8
0
 10
235.03607308490001
 20
235.18537229970019
 30
0.0
  0
VERTEX
  5
1DC89
  8
0
 10
234.8543422483001
 20
235.10413861950011
 30
0.0
  0
VERTEX
  5
1DC8A
  8
0
 10
234.6465381047999
 20
235.0610817142001
 30
0.0
  0
VERTEX
  5
1DC8B
  8
0
 10
234.58907550199999
 20
235.05626305120009
 30
0.0
  0
SEQEND
  5
1DC8C
  8
0
  0
POLYLINE
  5
1D037
  8
0
 66
     1
 10
0.0
 20
0.0
 30
0.0
 70
   128
  0
VERTEX
  5
1DC8D
  8
0
 10
249.8434128426
 20
234.34453888910019
 30
0.0
  0
VERTEX
  5
1DC8E
  8
0
 10
249.99456649640001
 20
234.1850443103001
 30
0.0
  0
VERTEX
  5
1DC8F
  8
0
 10
250.12430345640001
 20
233.99853206360021
 30
0.0
  0
VERTEX
  5
1DC90
  8
0
 10
250.21550973870009
 20
233.81579167330011
 30
0.0
  0
VERTEX
  5
1DC91
  8
0
 10
250.26875531300021
 20
233.63612278480011
 30
0.0
  0
VERTEX
  5
1DC92
  8
0
 10
250.2700740656999
 20
233.50264749610011
 30
0.0
  0
VERTEX
  5
1DC93
  8
0
 10
250.22632053119989
 20
233.41774254220019
 30
0.0
  0
VERTEX
  5
1DC94
  8
0
 10
250.1369731687
 20
233.3918908902001
 30
0.0
  0
VERTEX
  5
1DC95
  8
0
 10
250.02379512409999
 20
233.4301961877002
 30
0.0
  0
VERTEX
  5
1DC96
  8
0
 10
249.88648837429989
 20
233.5263831832001
 30
0.0
  0
VERTEX
  5
1DC97
  8
0
 10
249.84158745030001
 20
233.56707080380011
 30
0.0
  0
VERTEX
  5
1DC98
  8
0
 10
249.6947290562
 20
233.7298585393001
 30
0.0
  0
VERTEX
  5
1DC99
  8
0
 10
249.56367706879999
 20
233.91805089200011
 30
0.0
  0
VERTEX
  5
1DC9A
  8
0
 10
249.4652437232001
 20
234.11034292660011
 30
0.0
  0
VERTEX
  5
1DC9B
  8
0
 10
249.4153434596999
 20
234.2675855674002
 30
0.0
  0
VERTEX
  5
1DC9C
  8
0
 10
249.40676039079989
 20
234.4031395682002
 30
0.0
  0
VERTEX
  5
1DC9D
  8
0
 10
249.4496608339
 20
234.48702565510021
 30
0.0
  0
VERTEX
  5
1DC9E
  8
0
 10
249.53272735699991
 20
234.51073340260021
 30
0.0
  0
VERTEX
  5
1DC9F
  8
0
 10
249.65717812999989
 20
234.47540274940019
 30
0.0
  0
VERTEX
  5
1DCA0
  8
0
 10
249.80150705200009
 20
234.38039853350011
 30
0.0
  0
VERTEX
  5
1DCA1
  8
0
 10
249.8434128426
 20
234.34453888910019
 30
0.0
  0
SEQEND
  5
1DCA2
  8
0
  0
POLYLINE
  5
1D038
  8
0
 66
     1
 10
0.0
 20
0.0
 30
0.0
 70
   128
  0
VERTEX
  5
1DCA3
  8
0
 10
228.80236228919989
 20
233.29759634220011
 30
0.0
  0
VERTEX
  5
1DCA4
  8
0
 10
228.57368906959999
 20
233.3178879984001
 30
0.0
  0
VERTEX
  5
1DCA5
  8
0
 10
228.37853973730009
 20
233.40117431360011
 30
0.0
  0
VERTEX
  5
1DCA6
  8
0
 10
228.23600267989991
 20
233.52548911350021
 30
0.0
  0
VERTEX
  5
1DCA7
  8
0
 10
228.14516147600011
 20
233.69090131600009
 30
0.0
  0
VERTEX
  5
1DCA8
  8
0
 10
228.1325662695001
 20
233.85788000310021
 30
0.0
  0
VERTEX
  5
1DCA9
  8
0
 10
228.1890565715
 20
234.01569261330019
 30
0.0
  0
VERTEX
  5
1DCAA
  8
0
 10
228.3167483471
 20
234.1552475758001
 30
0.0
  0
VERTEX
  5
1DCAB
  8
0
 10
228.48867421969999
 20
234.24887715960011
 30
0.0
  0
VERTEX
  5
1DCAC
  8
0
 10
228.6989519558999
 20
234.3009008386002
 30
0.0
  0
VERTEX
  5
1DCAD
  8
0
 10
228.7565114163001
 20
234.30591507930009
 30
0.0
  0
VERTEX
  5
1DCAE
  8
0
 10
228.98485308510001
 20
234.28876384280011
 30
0.0
  0
VERTEX
  5
1DCAF
  8
0
 10
229.17320003730021
 20
234.22398290710009
 30
0.0
  0
VERTEX
  5
1DCB0
  8
0
 10
229.32524031019989
 20
234.10854361140019
 30
0.0
  0
VERTEX
  5
1DCB1
  8
0
 10
229.40753942349991
 20
233.9654179581002
 30
0.0
  0
VERTEX
  5
1DCB2
  8
0
 10
229.42383384329989
 20
233.79411979690011
 30
0.0
  0
VERTEX
  5
1DCB3
  8
0
 10
229.36428507789989
 20
233.6236765899001
 30
0.0
  0
VERTEX
  5
1DCB4
  8
0
 10
229.24592142920011
 20
233.4791241505001
 30
0.0
  0
VERTEX
  5
1DCB5
  8
0
 10
229.06656360249991
 20
233.3615185984001
 30
0.0
  0
VERTEX
  5
1DCB6
  8
0
 10
228.86137088760009
 20
233.30333701450019
 30
0.0
  0
VERTEX
  5
1DCB7
  8
0
 10
228.80236228919989
 20
233.29759634220011
 30
0.0
  0
SEQEND
  5
1DCB8
  8
0
  0
POLYLINE
  5
1D039
  8
0
 66
     1
 10
0.0
 20
0.0
 30
0.0
 70
   128
  0
VERTEX
  5
1DCB9
  8
0
 10
226.7906161211001
 20
234.6297117241001
 30
0.0
  0
VERTEX
  5
1DCBA
  8
0
 10
226.5625799261
 20
234.6431954124001
 30
0.0
  0
VERTEX
  5
1DCBB
  8
0
 10
226.36982968069989
 20
234.70198794380011
 30
0.0
  0
VERTEX
  5
1DCBC
  8
0
 10
226.23096203430009
 20
234.78935903990009
 30
0.0
  0
VERTEX
  5
1DCBD
  8
0
 10
226.14386102179989
 20
234.9048300006001
 30
0.0
  0
VERTEX
  5
1DCBE
  8
0
 10
226.13455897190011
 20
235.02122110800011
 30
0.0
  0
VERTEX
  5
1DCBF
  8
0
 10
226.19541531429991
 20
235.13009830490009
 30
0.0
  0
VERTEX
  5
1DCC0
  8
0
 10
226.3274805806
 20
235.2244356938001
 30
0.0
  0
VERTEX
  5
1DCC1
  8
0
 10
226.5013957582
 20
235.28694233970009
 30
0.0
  0
VERTEX
  5
1DCC2
  8
0
 10
226.71237012369991
 20
235.32224691590019
 30
0.0
  0
VERTEX
  5
1DCC3
  8
0
 10
226.76719894629991
 20
235.32578221640011
 30
0.0
  0
VERTEX
  5
1DCC4
  8
0
 10
226.99497064569999
 20
235.31656398550021
 30
0.0
  0
VERTEX
  5
1DCC5
  8
0
 10
227.18189826230011
 20
235.27543491800009
 30
0.0
  0
VERTEX
  5
1DCC6
  8
0
 10
227.33099555589999
 20
235.1997221180001
 30
0.0
  0
VERTEX
  5
1DCC7
  8
0
 10
227.40968486289989
 20
235.1036319800001
 30
0.0
  0
VERTEX
  5
1DCC8
  8
0
 10
227.4219820462001
 20
234.9858196743001
 30
0.0
  0
VERTEX
  5
1DCC9
  8
0
 10
227.35816409809991
 20
234.86536427520011
 30
0.0
  0
VERTEX
  5
1DCCA
  8
0
 10
227.23500600080001
 20
234.7610431083001
 30
0.0
  0
VERTEX
  5
1DCCB
  8
0
 10
227.05165838819991
 20
234.67587179620011
 30
0.0
  0
VERTEX
  5
1DCCC
  8
0
 10
226.846257057
 20
234.6338263073001
 30
0.0
  0
VERTEX
  5
1DCCD
  8
0
 10
226.7906161211001
 20
234.6297117241001
 30
0.0
  0
SEQEND
  5
1DCCE
  8
0
  0
POLYLINE
  5
1D03A
  8
0
 66
     1
 10
0.0
 20
0.0
 30
0.0
 70
   128
  0
VERTEX
  5
1DCCF
  8
0
 10
240.52057212220009
 20
234.0958403714001
 30
0.0
  0
VERTEX
  5
1DCD0
  8
0
 10
240.29166420920001
 20
234.11315179550019
 30
0.0
  0
VERTEX
  5
1DCD1
  8
0
 10
240.0964366458
 20
234.1901498206002
 30
0.0
  0
VERTEX
  5
1DCD2
  8
0
 10
239.95541205629999
 20
234.30430947920021
 30
0.0
  0
VERTEX
  5
1DCD3
  8
0
 10
239.86606469370011
 20
234.45602006400011
 30
0.0
  0
VERTEX
  5
1DCD4
  8
0
 10
239.85546251759999
 20
234.6058586903001
 30
0.0
  0
VERTEX
  5
1DCD5
  8
0
 10
239.9101907573002
 20
234.74551237300011
 30
0.0
  0
VERTEX
  5
1DCD6
  8
0
 10
240.03606831650001
 20
234.87505003000021
 30
0.0
  0
VERTEX
  5
1DCD7
  8
0
 10
240.21129479629991
 20
234.9649971642001
 30
0.0
  0
VERTEX
  5
1DCD8
  8
0
 10
240.42410200459989
 20
235.01556425470011
 30
0.0
  0
VERTEX
  5
1DCD9
  8
0
 10
240.49728160719999
 20
235.02204253450009
 30
0.0
  0
VERTEX
  5
1DCDA
  8
0
 10
240.72570150710001
 20
235.00895372710019
 30
0.0
  0
VERTEX
  5
1DCDB
  8
0
 10
240.92589860780001
 20
234.94856677130011
 30
0.0
  0
VERTEX
  5
1DCDC
  8
0
 10
241.07359146700011
 20
234.8433478095001
 30
0.0
  0
VERTEX
  5
1DCDD
  8
0
 10
241.1465959809
 20
234.7201282450001
 30
0.0
  0
VERTEX
  5
1DCDE
  8
0
 10
241.16061424829991
 20
234.56849589130019
 30
0.0
  0
VERTEX
  5
1DCDF
  8
0
 10
241.10099470240019
 20
234.41051191770009
 30
0.0
  0
VERTEX
  5
1DCE0
  8
0
 10
240.98239636050019
 20
234.27576816760021
 30
0.0
  0
VERTEX
  5
1DCE1
  8
0
 10
240.80304970959989
 20
234.16373564980009
 30
0.0
  0
VERTEX
  5
1DCE2
  8
0
 10
240.58694189409991
 20
234.1026036360002
 30
0.0
  0
VERTEX
  5
1DCE3
  8
0
 10
240.52057212220009
 20
234.0958403714001
 30
0.0
  0
SEQEND
  5
1DCE4
  8
0
  0
POLYLINE
  5
1D03B
  8
0
 66
     1
 10
0.0
 20
0.0
 30
0.0
 70
   128
  0
VERTEX
  5
1DCE5
  8
0
 10
236.60404404619999
 20
233.8249614753002
 30
0.0
  0
VERTEX
  5
1DCE6
  8
0
 10
236.37520691380001
 20
233.84112364730009
 30
0.0
  0
VERTEX
  5
1DCE7
  8
0
 10
236.1796776019001
 20
233.91858174580011
 30
0.0
  0
VERTEX
  5
1DCE8
  8
0
 10
236.03775149209989
 20
234.03495795210009
 30
0.0
  0
VERTEX
  5
1DCE9
  8
0
 10
235.94641109930009
 20
234.1910010495001
 30
0.0
  0
VERTEX
  5
1DCEA
  8
0
 10
235.93291064720009
 20
234.3489496328001
 30
0.0
  0
VERTEX
  5
1DCEB
  8
0
 10
235.9879108332
 20
234.49861689590011
 30
0.0
  0
VERTEX
  5
1DCEC
  8
0
 10
236.11433973530001
 20
234.6324982413002
 30
0.0
  0
VERTEX
  5
1DCED
  8
0
 10
236.28525232889999
 20
234.7229128995001
 30
0.0
  0
VERTEX
  5
1DCEE
  8
0
 10
236.4943007192999
 20
234.77509676600019
 30
0.0
  0
VERTEX
  5
1DCEF
  8
0
 10
236.5623766741999
 20
234.78176689820009
 30
0.0
  0
VERTEX
  5
1DCF0
  8
0
 10
236.7907071672
 20
234.76965039150019
 30
0.0
  0
VERTEX
  5
1DCF1
  8
0
 10
236.9870970212001
 20
234.70973841030019
 30
0.0
  0
VERTEX
  5
1DCF2
  8
0
 10
237.13711818680011
 20
234.60252455550011
 30
0.0
  0
VERTEX
  5
1DCF3
  8
0
 10
237.21439560869999
 20
234.4732830592001
 30
0.0
  0
VERTEX
  5
1DCF4
  8
0
 10
237.23050748930001
 20
234.31391327760019
 30
0.0
  0
VERTEX
  5
1DCF5
  8
0
 10
237.1722513995999
 20
234.15016441720019
 30
0.0
  0
VERTEX
  5
1DCF6
  8
0
 10
237.05410381780001
 20
234.0091025748001
 30
0.0
  0
VERTEX
  5
1DCF7
  8
0
 10
236.8752973339999
 20
233.89292194620009
 30
0.0
  0
VERTEX
  5
1DCF8
  8
0
 10
236.66589131580011
 20
233.83174150370019
 30
0.0
  0
VERTEX
  5
1DCF9
  8
0
 10
236.60404404619999
 20
233.8249614753002
 30
0.0
  0
SEQEND
  5
1DCFA
  8
0
  0
POLYLINE
  5
1D03C
  8
0
 66
     1
 10
0.0
 20
0.0
 30
0.0
 70
   128
  0
VERTEX
  5
1DCFB
  8
0
 10
232.6992953382001
 20
233.54790232260009
 30
0.0
  0
VERTEX
  5
1DCFC
  8
0
 10
232.4705699644999
 20
233.56603517310009
 30
0.0
  0
VERTEX
  5
1DCFD
  8
0
 10
232.27511888370009
 20
233.64634498140009
 30
0.0
  0
VERTEX
  5
1DCFE
  8
0
 10
232.13261535390009
 20
233.76686743580021
 30
0.0
  0
VERTEX
  5
1DCFF
  8
0
 10
232.04153573139999
 20
233.92778880080019
 30
0.0
  0
VERTEX
  5
1DD00
  8
0
 10
232.0285121165
 20
234.09042938730019
 30
0.0
  0
VERTEX
  5
1DD01
  8
0
 10
232.0843616686
 20
234.2447923787002
 30
0.0
  0
VERTEX
  5
1DD02
  8
0
 10
232.211639937
 20
234.38213638150009
 30
0.0
  0
VERTEX
  5
1DD03
  8
0
 10
232.38351365550011
 20
234.4747936644001
 30
0.0
  0
VERTEX
  5
1DD04
  8
0
 10
232.59360885240019
 20
234.52715261960009
 30
0.0
  0
VERTEX
  5
1DD05
  8
0
 10
232.65407031400011
 20
234.5327629067001
 30
0.0
  0
VERTEX
  5
1DD06
  8
0
 10
232.8823821805002
 20
234.51799026810011
 30
0.0
  0
VERTEX
  5
1DD07
  8
0
 10
233.0727147124
 20
234.45598281110011
 30
0.0
  0
VERTEX
  5
1DD08
  8
0
 10
233.2243675551999
 20
234.34463760930009
 30
0.0
  0
VERTEX
  5
1DD09
  8
0
 10
233.30560868599991
 20
234.2070216604001
 30
0.0
  0
VERTEX
  5
1DD0A
  8
0
 10
233.32214524969999
 20
234.0404862829001
 30
0.0
  0
VERTEX
  5
1DD0B
  8
0
 10
233.26305096969989
 20
233.87304565990021
 30
0.0
  0
VERTEX
  5
1DD0C
  8
0
 10
233.14508220180011
 20
233.73056820710011
 30
0.0
  0
VERTEX
  5
1DD0D
  8
0
 10
232.96616395929999
 20
233.61368722400019
 30
0.0
  0
VERTEX
  5
1DD0E
  8
0
 10
232.7595705352
 20
233.55416081030009
 30
0.0
  0
VERTEX
  5
1DD0F
  8
0
 10
232.6992953382001
 20
233.54790232260009
 30
0.0
  0
SEQEND
  5
1DD10
  8
0
  0
POLYLINE
  5
1D03D
  8
0
 66
     1
 10
0.0
 20
0.0
 30
0.0
 70
   128
  0
VERTEX
  5
1DD11
  8
0
 10
248.12446704129999
 20
233.20387735150021
 30
0.0
  0
VERTEX
  5
1DD12
  8
0
 10
247.94716184960001
 20
233.33977966690011
 30
0.0
  0
VERTEX
  5
1DD13
  8
0
 10
247.80352210620001
 20
233.51830861650021
 30
0.0
  0
VERTEX
  5
1DD14
  8
0
 10
247.7112503907999
 20
233.70726279100009
 30
0.0
  0
VERTEX
  5
1DD15
  8
0
 10
247.66926264390011
 20
233.90750459510019
 30
0.0
  0
VERTEX
  5
1DD16
  8
0
 10
247.6913498901001
 20
234.0776553669001
 30
0.0
  0
VERTEX
  5
1DD17
  8
0
 10
247.77227064590011
 20
234.2071166553001
 30
0.0
  0
VERTEX
  5
1DD18
  8
0
 10
247.90859764440009
 20
234.27840008520019
 30
0.0
  0
VERTEX
  5
1DD19
  8
0
 10
248.06532060719999
 20
234.2827195593002
 30
0.0
  0
VERTEX
  5
1DD1A
  8
0
 10
248.24755063280011
 20
234.22896920820011
 30
0.0
  0
VERTEX
  5
1DD1B
  8
0
 10
248.3022192679
 20
234.20165910500009
 30
0.0
  0
VERTEX
  5
1DD1C
  8
0
 10
248.48470261319989
 20
234.0690294572002
 30
0.0
  0
VERTEX
  5
1DD1D
  8
0
 10
248.6314790509
 20
233.89928846740011
 30
0.0
  0
VERTEX
  5
1DD1E
  8
0
 10
248.73357808209991
 20
233.6977092840001
 30
0.0
  0
VERTEX
  5
1DD1F
  8
0
 10
248.76972084859989
 20
233.50802495260021
 30
0.0
  0
VERTEX
  5
1DD20
  8
0
 10
248.74340912320011
 20
233.32996725220011
 30
0.0
  0
VERTEX
  5
1DD21
  8
0
 10
248.6544976196999
 20
233.19950013540009
 30
0.0
  0
VERTEX
  5
1DD22
  8
0
 10
248.52402305230001
 20
233.12938458400021
 30
0.0
  0
VERTEX
  5
1DD23
  8
0
 10
248.35061823950011
 20
233.1196671643001
 30
0.0
  0
VERTEX
  5
1DD24
  8
0
 10
248.17247858269999
 20
233.17791952870019
 30
0.0
  0
VERTEX
  5
1DD25
  8
0
 10
248.12446704129999
 20
233.20387735150021
 30
0.0
  0
SEQEND
  5
1DD26
  8
0
  0
ARC
  5
1D03E
  8
0
 10
243.56165201170671
 20
206.34559740702019
 30
0.0
 40
39.097763970456072
 50
131.2454057354598
 51
135.57264164553021
  0
LINE
  5
1D03F
  8
0
 10
217.79946221039989
 20
235.74912979380011
 30
0.0
 11
217.7360875718
 21
235.66435708780011
 31
0.0
  0
LINE
  5
1D040
  8
0
 10
217.7360875718
 20
235.66435708780011
 30
0.0
 11
215.87426757439999
 21
233.71420486950009
 31
0.0
  0
POLYLINE
  5
1D041
  8
0
 66
     1
 10
0.0
 20
0.0
 30
0.0
 70
   128
  0
VERTEX
  5
1DD27
  8
0
 10
218.80639327690011
 20
235.78321433740021
 30
0.0
  0
VERTEX
  5
1DD28
  8
0
 10
219.11297535520001
 20
235.7199998864001
 30
0.0
  0
VERTEX
  5
1DD29
  8
0
 10
219.4867933355001
 20
235.60422717710011
 30
0.0
  0
VERTEX
  5
1DD2A
  8
0
 10
219.9693935178
 20
235.46263820610019
 30
0.0
  0
VERTEX
  5
1DD2B
  8
0
 10
220.26968544350001
 20
235.40713138060011
 30
0.0
  0
SEQEND
  5
1DD2C
  8
0
  0
ARC
  5
1D042
  8
0
 10
328.89546853742331
 20
-1954.309067077706
 30
0.0
 40
2192.853909818386
 50
92.176593179963064
 51
92.789313422207726
  0
ARC
  5
1D043
  8
0
 10
170.68749061708439
 20
232.24703992068879
 30
0.0
 40
51.934026464596322
 50
358.75133589461211
 51
2.1908124745069171
  0
POLYLINE
  5
1D044
  8
0
 66
     1
 10
0.0
 20
0.0
 30
0.0
 70
   128
  0
VERTEX
  5
1DD2D
  8
0
 10
222.58355638009971
 20
234.2323517718014
 30
0.0
  0
VERTEX
  5
1DD2E
  8
0
 10
222.5288951955001
 20
234.75759535210011
 30
0.0
  0
VERTEX
  5
1DD2F
  8
0
 10
222.44462912900011
 20
235.14785117590009
 30
0.0
  0
VERTEX
  5
1DD30
  8
0
 10
222.32499515629999
 20
235.3888253041001
 30
0.0
  0
VERTEX
  5
1DD31
  8
0
 10
222.15029394250001
 20
235.48773734950009
 30
0.0
  0
VERTEX
  5
1DD32
  8
0
 10
222.1185023150999
 20
235.48889591480011
 30
0.0
  0
SEQEND
  5
1DD33
  8
0
  0
POLYLINE
  5
1D045
  8
0
 66
     1
 10
0.0
 20
0.0
 30
0.0
 70
   128
  0
VERTEX
  5
1DD34
  8
0
 10
218.74598396939999
 20
235.33993831950011
 30
0.0
  0
VERTEX
  5
1DD35
  8
0
 10
218.61524490639999
 20
235.32041221040021
 30
0.0
  0
VERTEX
  5
1DD36
  8
0
 10
218.2736693136001
 20
235.1441501000001
 30
0.0
  0
VERTEX
  5
1DD37
  8
0
 10
218.00151823089999
 20
234.79276209250011
 30
0.0
  0
VERTEX
  5
1DD38
  8
0
 10
217.77791699390011
 20
234.22657198390019
 30
0.0
  0
VERTEX
  5
1DD39
  8
0
 10
217.6667021773001
 20
233.7690877088001
 30
0.0
  0
VERTEX
  5
1DD3A
  8
0
 10
217.57340786979989
 20
233.21311607140021
 30
0.0
  0
VERTEX
  5
1DD3B
  8
0
 10
217.46970510110009
 20
232.15775623100021
 30
0.0
  0
VERTEX
  5
1DD3C
  8
0
 10
217.42902741745479
 20
231.11531569740009
 30
0.0
  0
SEQEND
  5
1DD3D
  8
0
  0
LINE
  5
1D046
  8
0
 10
215.64043296499989
 20
233.71420486950009
 30
0.0
 11
215.87426757439999
 21
233.71420486950009
 31
0.0
  0
LINE
  5
1D047
  8
0
 10
215.64043296499989
 20
233.71420486950009
 30
0.0
 11
215.6284989975
 21
233.11427294390009
 31
0.0
  0
LINE
  5
1D048
  8
0
 10
183.68798883432351
 20
236.61531605840011
 30
0.0
 11
179.68798907120001
 21
236.6153160584002
 31
0.0
  0
LINE
  5
1D049
  8
0
 10
187.04798907120011
 20
236.6153160584002
 30
0.0
 11
191.04798907120019
 21
236.6153160584002
 31
0.0
  0
LINE
  5
1D04A
  8
0
 10
196.66267728429989
 20
236.61531566760021
 30
0.0
 11
196.7619208805001
 21
236.61531566760021
 31
0.0
  0
LINE
  5
1D04B
  8
0
 10
192.92996329059989
 20
236.6153160584002
 30
0.0
 11
203.9478884442469
 21
236.6153160584002
 31
0.0
  0
LINE
  5
1D04C
  8
0
 10
167.5124297104
 20
236.12524627820011
 30
0.0
 11
164.00229169049999
 21
236.12524627820011
 31
0.0
  0
LINE
  5
1D04D
  8
0
 10
150.26796406130001
 20
236.12524627820011
 30
0.0
 11
144.5163542591001
 21
236.12524627820011
 31
0.0
  0
ARC
  5
1D04E
  8
0
 10
144.51635241000011
 20
232.12524711320009
 30
0.0
 40
4.0000000000000107
 50
90.0
 51
179.7633752746016
  0
ARC
  5
1D04F
  8
0
 10
144.51635241000011
 20
232.12524711320009
 30
0.0
 40
2.0000000000000191
 50
90.0
 51
179.7633752746016
  0
LINE
  5
1D050
  8
0
 10
144.5163542591001
 20
234.1252478131002
 30
0.0
 11
149.18560331679981
 21
234.1252478131002
 31
0.0
  0
LINE
  5
1D051
  8
0
 10
165.0846524349999
 20
234.1252478131002
 30
0.0
 11
167.5124297104
 21
234.1252478131002
 31
0.0
  0
ARC
  5
1D052
  8
0
 10
167.51242993849991
 20
233.38864711320011
 30
0.0
 40
0.73660000000001
 50
45.000000052203269
 51
90.0
  0
LINE
  5
1D053
  8
0
 10
168.03328489879999
 20
233.9095013507002
 30
0.0
 11
170.0259389542
 21
231.91684729540009
 31
0.0
  0
ARC
  5
1D054
  8
0
 10
171.96100887730151
 20
233.85191806864319
 30
0.0
 40
2.7366023712434551
 50
225.0000099274697
 51
269.99997057953738
  0
ARC
  5
1D055
  8
0
 10
171.9614128833
 20
233.85191605840009
 30
0.0
 40
0.73660000000001
 50
225.00000005220329
 51
270.0
  0
LINE
  5
1D056
  8
0
 10
169.44790428499999
 20
235.3237146803001
 30
0.0
 11
171.4405583404
 21
233.3310606249002
 31
0.0
  0
ARC
  5
1D057
  8
0
 10
167.51283828106671
 20
233.3886515930904
 30
0.0
 40
2.7365947156093471
 50
44.999978044792201
 51
90.008554198685445
  0
ARC
  5
1D058
  8
0
 10
144.3091995667998
 20
232.12580788310021
 30
0.0
 40
3.792846004767116
 50
179.75894029100081
 51
180.00846552430039
  0
ARC
  5
1D059
  8
0
 10
144.51968420470001
 20
232.12576249440019
 30
0.0
 40
2.003330339675605
 50
179.7785201540996
 51
180.01472939990211
  0
LINE
  5
1D05B
  8
0
 10
142.51639490940011
 20
231.13763577420019
 30
0.0
 11
140.5163945816
 21
231.13763577420019
 31
0.0
  0
LINE
  5
1D05C
  8
0
 10
177.96798871829989
 20
233.11531602520009
 30
0.0
 11
177.96798871829989
 21
235.11531635300011
 31
0.0
  0
ARC
  5
1D05D
  8
0
 10
186.00000008739991
 20
239.91299360810009
 30
0.0
 40
2.1499999999999759
 50
180.0
 51
359.99999999829993
  0
LINE
  5
1D05E
  8
0
 10
183.84999997909989
 20
239.91299293120019
 30
0.0
 11
183.84999997909989
 21
240.61299360470019
 31
0.0
  0
ARC
  5
1D05F
  8
0
 10
186.00000008739991
 20
240.61299360780021
 30
0.0
 40
2.1499999999999759
 50
359.99999999709809
 51
180.0
  0
LINE
  5
1D060
  8
0
 10
188.15000009600001
 20
240.61299360470019
 30
0.0
 11
188.15000009600001
 21
239.91299293120019
 31
0.0
  0
ARC
  5
1D061
  8
0
 10
199.50000008739991
 20
239.9129936078001
 30
0.0
 40
2.1500000000000061
 50
180.0
 51
0.0
  0
LINE
  5
1D062
  8
0
 10
197.3499998636
 20
239.91299293120019
 30
0.0
 11
197.3499998636
 21
240.61299360470019
 31
0.0
  0
ARC
  5
1D063
  8
0
 10
199.50000008739991
 20
240.61299360780021
 30
0.0
 40
2.1500000000000621
 50
0.0
 51
180.0
  0
LINE
  5
1D064
  8
0
 10
201.65000000970011
 20
240.61299360470019
 30
0.0
 11
201.65000000970011
 21
239.91299293120019
 31
0.0
  0
POLYLINE
  5
1D065
  8
0
 66
     1
 10
0.0
 20
0.0
 30
0.0
 70
   128
  0
VERTEX
  5
1DD3E
  8
0
 10
217.27829903575019
 20
231.11531569740009
 30
0.0
  0
VERTEX
  5
1DD3F
  8
0
 10
217.29916876179999
 20
231.86607345120009
 30
0.0
  0
VERTEX
  5
1DD40
  8
0
 10
217.3375299386
 20
232.5904375233001
 30
0.0
  0
VERTEX
  5
1DD41
  8
0
 10
217.39621071139999
 20
233.25204721770021
 30
0.0
  0
VERTEX
  5
1DD42
  8
0
 10
217.47328883029991
 20
233.8403785892001
 30
0.0
  0
VERTEX
  5
1DD43
  8
0
 10
217.6787106506001
 20
234.7717942961001
 30
0.0
  0
VERTEX
  5
1DD44
  8
0
 10
217.95819683000011
 20
235.39104930240021
 30
0.0
  0
VERTEX
  5
1DD45
  8
0
 10
218.32475049419989
 20
235.72114541310009
 30
0.0
  0
VERTEX
  5
1DD46
  8
0
 10
218.80639327690011
 20
235.78321433740021
 30
0.0
  0
SEQEND
  5
1DD47
  8
0
  0
POLYLINE
  5
1D066
  8
0
 66
     1
 10
0.0
 20
0.0
 30
0.0
 70
   128
  0
VERTEX
  5
1DD48
  8
0
 10
222.18357568600001
 20
235.9468179115002
 30
0.0
  0
VERTEX
  5
1DD49
  8
0
 10
222.4170731566999
 20
235.86541845580021
 30
0.0
  0
VERTEX
  5
1DD4A
  8
0
 10
222.57911210879999
 20
235.49995257640009
 30
0.0
  0
VERTEX
  5
1DD4B
  8
0
 10
222.67627140499991
 20
234.8380709358002
 30
0.0
  0
VERTEX
  5
1DD4C
  8
0
 10
222.7262349985001
 20
233.87093900820011
 30
0.0
  0
VERTEX
  5
1DD4D
  8
0
 10
222.73803299289989
 20
233.2727486559001
 30
0.0
  0
VERTEX
  5
1DD4E
  8
0
 10
222.742641177
 20
232.5996781059001
 30
0.0
  0
VERTEX
  5
1DD4F
  8
0
 10
222.73906117300001
 20
231.8717638322002
 30
0.0
  0
VERTEX
  5
1DD50
  8
0
 10
222.7330760087284
 20
231.11531569740009
 30
0.0
  0
SEQEND
  5
1DD51
  8
0
  0
ARC
  5
1D067
  8
0
 10
97.177542024742095
 20
231.11531569739981
 30
0.0
 40
118.7251737464848
 50
358.74569755779157
 51
1.254302442208366
  0
LINE
  5
1D068
  8
0
 10
140.5163945816
 20
231.13763577420019
 30
0.0
 11
140.51635360343241
 21
232.12524748528071
 31
0.0
  0
LINE
  5
1D069
  8
0
 10
142.51639490940011
 20
231.13763577420019
 30
0.0
 11
142.51635393122271
 21
232.1252474852034
 31
0.0
  0
POLYLINE
  5
1D06A
  8
0
 66
     1
 10
0.0
 20
0.0
 30
0.0
 70
   128
  0
VERTEX
  5
1DD52
  8
0
 10
220.75708379970001
 20
235.42878090507489
 30
0.0
  0
VERTEX
  5
1DD53
  8
0
 10
221.04064544659991
 20
235.52128545117489
 30
0.0
  0
VERTEX
  5
1DD54
  8
0
 10
221.44203430040011
 20
235.71445106637489
 30
0.0
  0
VERTEX
  5
1DD55
  8
0
 10
221.71836143359999
 20
235.85698439847479
 30
0.0
  0
VERTEX
  5
1DD56
  8
0
 10
221.92721238360019
 20
235.93086063037481
 30
0.0
  0
VERTEX
  5
1DD57
  8
0
 10
222.18357568600001
 20
235.9468179115002
 30
0.0
  0
SEQEND
  5
1DD58
  8
0
  0
LINE
  5
1D06B
  8
0
 10
217.7850621006998
 20
235.7429197349002
 30
0.0
 11
217.79946221039989
 21
235.74912979380011
 31
0.0
  0
ARC
  5
1D06C
  8
0
 10
202.49603050134061
 20
242.1113481737948
 30
0.0
 40
3.0039708684038282
 50
0.0313490467643179
 51
89.924286684600943
  0
LINE
  5
1D06D
  8
0
 10
202.5000004284
 20
245.11531641940019
 30
0.0
 11
183.20387631649979
 21
245.11531641940019
 31
0.0
  0
ARC
  5
1D06E
  8
0
 10
183.00359583550079
 20
242.118315364404
 30
0.0
 40
3.0036856712133599
 50
86.176780757656516
 51
179.55686507502071
  0
LINE
  5
1D06F
  8
0
 10
180.0
 20
242.1415461288002
 30
0.0
 11
180.0000000000002
 21
236.61531605840011
 31
0.0
  0
LINE
  5
1D070
  8
0
 10
205.50000092010029
 20
235.11531635300011
 30
0.0
 11
205.50000092010009
 21
242.1129917786001
 31
0.0
  0
LINE
  5
1D071
  8
0
 10
207.19933865589971
 20
233.0616792955436
 30
0.0
 11
211.43599024035279
 21
231.3135421194217
 31
0.0
  0
LINE
  5
1D072
  8
0
 10
207.94831199568031
 20
234.9160468496537
 30
0.0
 11
212.18496544282721
 21
233.16790967367101
 31
0.0
  0
ARC
  5
1D078
  8
0
 10
160.24175873052121
 20
69.512737768387154
 30
0.0
 40
3.9991756676435228
 50
24.57023255309235
 51
63.612511865239227
  0
ARC
  5
1D079
  8
0
 10
154.03064512827859
 20
62.487262625343419
 30
0.0
 40
3.9991756676435228
 50
204.57023255309309
 51
243.61251186523921
  0
ARC
  5
1D07A
  8
0
 10
157.13620192915431
 20
87.895047034194235
 30
0.0
 40
29.39863259262993
 50
260.43918278742018
 51
279.56081721338899
  0
ARC
  5
1D07B
  8
0
 10
160.24175873052121
 20
62.487262625343419
 30
0.0
 40
3.9991756676435228
 50
296.3874881347607
 51
335.42976744691049
  0
ARC
  5
1D07E
  8
0
 10
157.1358815544001
 20
231.11531569740001
 30
0.0
 40
8.5000000000000036
 50
322.49017689769892
 51
37.509823102301667
  0
ARC
  5
1D07F
  8
0
 10
157.1358815544001
 20
231.11531569740001
 30
0.0
 40
8.5000000000002363
 50
142.490176897699
 51
217.509823102301
  0
ARC
  5
1D080
  8
0
 10
154.03032475327879
 20
234.62805326892189
 30
0.0
 40
3.9991756676435228
 50
116.3874881347608
 51
155.42976744690691
  0
ARC
  5
1D081
  8
0
 10
157.13588155415459
 20
209.22026886007109
 30
0.0
 40
29.39863259262993
 50
80.439182786611013
 51
99.560817212579806
  0
ARC
  5
1D082
  8
0
 10
160.2414383555215
 20
234.62805326892189
 30
0.0
 40
3.9991756676435228
 50
24.570232553089419
 51
63.612511865239227
  0
ARC
  5
1D083
  8
0
 10
154.03032475327879
 20
227.60257812587821
 30
0.0
 40
3.9991756676435228
 50
204.57023255309309
 51
243.61251186523921
  0
ARC
  5
1D084
  8
0
 10
157.13588155415459
 20
253.01036253472901
 30
0.0
 40
29.39863259262993
 50
260.43918278742018
 51
279.56081721338899
  0
ARC
  5
1D085
  8
0
 10
160.2414383555215
 20
227.60257812587821
 30
0.0
 40
3.9991756676435228
 50
296.3874881347607
 51
335.42976744691049
  0
LINE
  5
1D092
  8
0
 10
157.13633309432089
 20
144.9512196557144
 30
0.0
 11
157.13633309432839
 21
147.82121790774781
 31
0.0
  0
LINE
  5
1D093
  8
0
 10
153.23633309432191
 20
144.5362190388889
 30
0.0
 11
161.03633309431979
 21
144.5362190388889
 31
0.0
  0
LINE
  5
1D094
  8
0
 10
153.13633309432109
 20
148.17848349765461
 30
0.0
 11
153.23633309432239
 21
148.2362185245743
 31
0.0
  0
ARC
  5
1D095
  8
0
 10
155.13633309432109
 20
142.40177449132699
 30
0.0
 40
5.7767090063276196
 50
69.743841999659551
 51
110.25615800034041
  0
ARC
  5
1D096
  8
0
 10
155.13633309432109
 20
150.3706630721361
 30
0.0
 40
5.7767090063276196
 50
249.74384199965951
 51
290.25615800034041
  0
LINE
  5
1D097
  8
0
 10
153.13633309432109
 20
144.5939540658085
 30
0.0
 11
153.23633309432239
 21
144.53621903888879
 31
0.0
  0
LINE
  5
1D098
  8
0
 10
153.13633309432061
 20
148.17848349765461
 30
0.0
 11
153.13633309432109
 21
144.5939540658085
 31
0.0
  0
LINE
  5
1D099
  8
0
 10
161.13633309432109
 20
148.17848349765461
 30
0.0
 11
161.13633309432089
 21
144.5939540658085
 31
0.0
  0
LINE
  5
1D09A
  8
0
 10
161.13633309432109
 20
144.5939540658085
 30
0.0
 11
161.03633309431939
 21
144.53621903888879
 31
0.0
  0
ARC
  5
1D09B
  8
0
 10
159.13633309432109
 20
150.3706630721361
 30
0.0
 40
5.7767090063276196
 50
249.74384199965951
 51
290.25615800034041
  0
ARC
  5
1D09C
  8
0
 10
159.13633309432109
 20
142.40177449132699
 30
0.0
 40
5.7767090063276196
 50
69.743841999659551
 51
110.25615800034041
  0
LINE
  5
1D09D
  8
0
 10
157.136333322421
 20
160.67620972735031
 30
0.0
 11
157.1363333224283
 21
163.54620797938369
 31
0.0
  0
LINE
  5
1D09E
  8
0
 10
161.03633332241949
 20
163.96120859621021
 30
0.0
 11
153.2363333224223
 21
163.96120859621021
 31
0.0
  0
LINE
  5
1D09F
  8
0
 10
153.136333322421
 20
163.9034735692905
 30
0.0
 11
153.2363333224223
 21
163.96120859621021
 31
0.0
  0
ARC
  5
1D0A0
  8
0
 10
155.136333322421
 20
158.1267645629629
 30
0.0
 40
5.7767090063276196
 50
69.743841999659551
 51
110.25615800034041
  0
ARC
  5
1D0A1
  8
0
 10
155.136333322421
 20
166.09565314377201
 30
0.0
 40
5.7767090063276196
 50
249.74384199965951
 51
290.25615800034041
  0
LINE
  5
1D0A2
  8
0
 10
153.136333322421
 20
160.31894413744439
 30
0.0
 11
153.2363333224223
 21
160.2612091105247
 31
0.0
  0
LINE
  5
1D0A3
  8
0
 10
153.1363333224206
 20
163.9034735692905
 30
0.0
 11
153.136333322421
 21
160.31894413744439
 31
0.0
  0
LINE
  5
1D0A4
  8
0
 10
161.136333322421
 20
163.9034735692905
 30
0.0
 11
161.136333322421
 21
160.31894413744439
 31
0.0
  0
LINE
  5
1D0A5
  8
0
 10
161.136333322421
 20
160.31894413744439
 30
0.0
 11
161.03633332241949
 21
160.2612091105247
 31
0.0
  0
ARC
  5
1D0A6
  8
0
 10
159.136333322421
 20
166.09565314377201
 30
0.0
 40
5.7767090063276196
 50
249.74384199965951
 51
290.25615800034041
  0
ARC
  5
1D0A7
  8
0
 10
159.136333322421
 20
158.1267645629629
 30
0.0
 40
5.7767090063276196
 50
69.743841999659551
 51
110.25615800034041
  0
LINE
  5
1D0A8
  8
0
 10
161.136333322421
 20
163.9034735692905
 30
0.0
 11
161.03633332241949
 21
163.96120859621021
 31
0.0
  0
CIRCLE
  5
1D0AA
  8
3
 10
157.1362019293999
 20
231.11531569740001
 30
0.0
 40
2.067000733868027
  0
CIRCLE
  5
1D0AB
  8
0
 10
157.1362019293999
 20
231.11531569740001
 30
0.0
 40
2.5000000000000231
  0
LINE
  5
1D0AC
  8
0
 10
157.1362019293999
 20
235.73411785091719
 30
0.0
 11
153.1362019293999
 21
233.4247167741587
 31
0.0
  0
LINE
  5
1D0AD
  8
0
 10
161.1362019293999
 20
233.4247167741587
 30
0.0
 11
157.1362019293999
 21
235.73411785091719
 31
0.0
  0
LINE
  5
1D0AE
  8
0
 10
161.1362019293999
 20
228.80591462064169
 30
0.0
 11
161.1362019293999
 21
233.4247167741587
 31
0.0
  0
LINE
  5
1D0AF
  8
0
 10
157.1362019293999
 20
226.49651354388331
 30
0.0
 11
161.1362019293999
 21
228.80591462064169
 31
0.0
  0
LINE
  5
1D0B0
  8
0
 10
153.1362019293999
 20
228.80591462064169
 30
0.0
 11
157.1362019293999
 21
226.49651354388331
 31
0.0
  0
LINE
  5
1D0B1
  8
0
 10
153.1362019293999
 20
233.4247167741587
 30
0.0
 11
153.1362019293999
 21
228.80591462064169
 31
0.0
  0
LINE
  5
1D0B5
  8
0
 10
81.135123581177155
 20
163.54602742740579
 30
0.0
 11
81.135123581177353
 21
160.67602917537349
 31
0.0
  0
LINE
  5
1D0B6
  8
0
 10
78.825722504418991
 20
160.6760291753902
 30
0.0
 11
78.825722504418991
 21
163.5460274273978
 31
0.0
  0
LINE
  5
1D0B7
  8
0
 10
74.20692035090201
 20
163.54602742739581
 30
0.0
 11
74.206920350909968
 21
160.676029175379
 31
0.0
  0
LINE
  5
1D0B8
  8
0
 10
72.616321427659386
 20
163.96102804423251
 30
0.0
 11
80.416321427662979
 21
163.96102804423239
 31
0.0
  0
LINE
  5
1D0B9
  8
0
 10
71.897519274143406
 20
163.5460274274059
 30
0.0
 11
71.897519274143406
 21
160.67602917537349
 31
0.0
  0
LINE
  5
1D0BA
  8
0
 10
81.135123581177353
 20
163.5460274274059
 30
0.0
 11
80.416321427663206
 21
163.96102804423239
 31
0.0
  0
ARC
  5
1D0BB
  8
0
 10
79.980423042798066
 20
161.85863481856831
 30
0.0
 40
2.044658198744437
 50
64.384247466677536
 51
124.38424746792781
  0
ARC
  5
1D0BC
  8
0
 10
79.980423042798066
 20
162.363421784211
 30
0.0
 40
2.044658198744437
 50
235.61575253207221
 51
295.61575253332251
  0
LINE
  5
1D0BD
  8
0
 10
81.135123581177353
 20
160.67602917537349
 30
0.0
 11
80.416321427663206
 21
160.26102855854691
 31
0.0
  0
ARC
  5
1D0BE
  8
0
 10
76.516321427673105
 20
167.96149799550261
 30
0.0
 40
7.6427344100359971
 50
252.41204622577669
 51
287.58795377402521
  0
LINE
  5
1D0BF
  8
0
 10
71.897519274143406
 20
160.67602917537349
 30
0.0
 11
72.616321427657567
 21
160.26102855854691
 31
0.0
  0
ARC
  5
1D0C0
  8
0
 10
73.052219812522694
 20
162.363421784211
 30
0.0
 40
2.044658198744437
 50
244.38424746667749
 51
304.38424746792782
  0
ARC
  5
1D0C1
  8
0
 10
76.516321427673105
 20
156.26055860727681
 30
0.0
 40
7.6427344100359971
 50
72.412046225974876
 51
107.58795377422329
  0
ARC
  5
1D0C2
  8
0
 10
73.052219812522694
 20
161.85863481856831
 30
0.0
 40
2.044658198744437
 50
55.615752532072193
 51
115.61575253332239
  0
LINE
  5
1D0C3
  8
0
 10
71.897519274143406
 20
163.5460274274059
 30
0.0
 11
72.616321427657567
 21
163.96102804423239
 31
0.0
  0
LINE
  5
1D0C4
  8
0
 10
80.416353607684414
 20
144.56102850233779
 30
0.0
 11
72.616353607678093
 21
144.56102850233779
 31
0.0
  0
LINE
  5
1D0C5
  8
0
 10
81.135155761198121
 20
147.84602737119661
 30
0.0
 11
81.135155761198348
 21
144.9760291191642
 31
0.0
  0
LINE
  5
1D0C6
  8
0
 10
78.825754684439744
 20
144.97602911918099
 30
0.0
 11
78.825754684439744
 21
147.84602737118851
 31
0.0
  0
LINE
  5
1D0C7
  8
0
 10
74.206952530922763
 20
147.84602737118649
 30
0.0
 11
74.206952530930948
 21
144.97602911916979
 31
0.0
  0
LINE
  5
1D0C8
  8
0
 10
71.897551454164386
 20
147.84602737119661
 30
0.0
 11
71.897551454164386
 21
144.9760291191642
 31
0.0
  0
LINE
  5
1D0C9
  8
0
 10
81.135155761198348
 20
147.84602737119661
 30
0.0
 11
80.416353607683945
 21
148.26102798802319
 31
0.0
  0
ARC
  5
1D0CA
  8
0
 10
79.980455222819046
 20
146.1586347623591
 30
0.0
 40
2.044658198744437
 50
64.384247466677536
 51
124.38424746792781
  0
ARC
  5
1D0CB
  8
0
 10
79.980455222819046
 20
146.66342172800179
 30
0.0
 40
2.044658198744437
 50
235.61575253207221
 51
295.61575253332251
  0
LINE
  5
1D0CC
  8
0
 10
81.135155761198348
 20
144.9760291191642
 30
0.0
 11
80.416353607683945
 21
144.56102850233759
 31
0.0
  0
ARC
  5
1D0CD
  8
0
 10
76.5163536076941
 20
152.26149793929329
 30
0.0
 40
7.6427344100359971
 50
252.41204622577669
 51
287.58795377402521
  0
LINE
  5
1D0CE
  8
0
 10
71.897551454164386
 20
144.9760291191642
 30
0.0
 11
72.616353607678533
 21
144.56102850233759
 31
0.0
  0
ARC
  5
1D0CF
  8
0
 10
73.052251992543688
 20
146.66342172800179
 30
0.0
 40
2.044658198744437
 50
244.38424746667749
 51
304.38424746792782
  0
ARC
  5
1D0D0
  8
0
 10
76.5163536076941
 20
140.56055855106749
 30
0.0
 40
7.6427344100359971
 50
72.412046225974876
 51
107.58795377422329
  0
ARC
  5
1D0D1
  8
0
 10
73.052251992543688
 20
146.1586347623591
 30
0.0
 40
2.044658198744437
 50
55.615752532072193
 51
115.61575253332239
  0
LINE
  5
1D0D2
  8
0
 10
71.897551454164386
 20
147.84602737119661
 30
0.0
 11
72.616353607678533
 21
148.26102798802319
 31
0.0
  0
LINE
  5
1D0D7
  8
3
 10
155.0692019293997
 20
142.61522755279009
 30
0.0
 11
155.0692019293997
 21
144.5362190388889
 31
0.0
  0
LINE
  5
1D0D8
  8
3
 10
159.20320192940011
 20
142.6154039436785
 30
0.0
 11
159.20320192940011
 21
144.5362190388889
 31
0.0
  0
LINE
  5
1D0D9
  8
3
 10
159.20320192940039
 20
163.96120859621021
 30
0.0
 11
159.20320192940011
 21
167.0483161438612
 31
0.0
  0
LINE
  5
1D0DA
  8
3
 10
155.0692019293997
 20
163.96120859621021
 30
0.0
 11
155.0692019293997
 21
167.0483160038618
 31
0.0
  0
LINE
  5
1D0DB
  8
3
 10
74.449353607726152
 20
142.6152265625299
 30
0.0
 11
74.449353607726152
 21
144.53621804862871
 31
0.0
  0
LINE
  5
1D0DC
  8
3
 10
74.449353607726152
 20
163.96120760594999
 30
0.0
 11
74.449353607726152
 21
167.04831501360161
 31
0.0
  0
LINE
  5
1D0DD
  8
3
 10
78.583353607726622
 20
142.61540295341831
 30
0.0
 11
78.583353607726622
 21
144.53621804862871
 31
0.0
  0
LINE
  5
1D0DE
  8
3
 10
78.583353607726835
 20
163.96120760594999
 30
0.0
 11
78.583353607726622
 21
167.0483151536011
 31
0.0
  0
LINE
  5
1D12D
  8
3
 10
313.43527270628238
 20
165.96969321369991
 30
0.0
 11
313.43527270628238
 21
167.04831501360161
 31
0.0
  0
LINE
  5
1D12E
  8
3
 10
317.56927270628279
 20
165.96969321369991
 30
0.0
 11
317.56927270628279
 21
167.0483151536011
 31
0.0
  0
ARC
  5
1D18A
  8
0
 10
315.59780069533122
 20
146.11955221564011
 30
0.0
 40
6.9218232120147647
 50
248.304922890912
 51
269.21501125672899
  0
ARC
  5
1D18B
  8
0
 10
315.07607932089348
 20
144.41388030987869
 30
0.0
 40
5.1461753926901341
 50
228.5398083818769
 51
246.681800907103
  0
ARC
  5
1D18C
  8
0
 10
315.15059841025351
 20
144.44937301445989
 30
0.0
 40
5.2222134199618573
 50
212.8844656237834
 51
228.18491935457109
  0
LINE
  5
1D18D
  8
0
 10
310.76515537848269
 20
141.613989016
 30
0.0
 11
310.7061542307826
 21
141.7024208885
 31
0.0
  0
LINE
  5
1D18E
  8
0
 10
310.7061542307826
 20
141.7024208885
 30
0.0
 11
310.67197841758269
 21
141.74287556199999
 31
0.0
  0
ARC
  5
1D18F
  8
0
 10
315.40813983843441
 20
146.11955221564011
 30
0.0
 40
6.9218232120147647
 50
270.78498874328079
 51
291.69507710909141
  0
ARC
  5
1D190
  8
0
 10
315.92986121287208
 20
144.41388030987869
 30
0.0
 40
5.1461753926901341
 50
293.31819909288652
 51
311.46019161811847
  0
ARC
  5
1D191
  8
0
 10
315.85534212351217
 20
144.44937301445989
 30
0.0
 40
5.2222134199618573
 50
311.81508064542459
 51
327.11553437622229
  0
LINE
  5
1D192
  8
0
 10
320.24078515528299
 20
141.613989016
 30
0.0
 11
320.29978630298302
 21
141.7024208885
 31
0.0
  0
LINE
  5
1D193
  8
0
 10
320.29978630298302
 20
141.7024208885
 30
0.0
 11
320.33396211618287
 21
141.74287556199999
 31
0.0
  0
ARC
  5
1D195
  8
0
 10
226.99732179779019
 20
117.2283072159929
 30
0.0
 40
24.729642926374709
 50
73.228908658799455
 51
83.409351719354646
  0
ARC
  5
1D196
  8
0
 10
246.07162255814501
 20
159.40426983870981
 30
0.0
 40
21.60918133221389
 50
243.7312009061904
 51
254.37175006359709
  0
ARC
  5
1D197
  8
0
 10
242.13154700153021
 20
148.40898207224359
 30
0.0
 40
10.04504954451229
 50
277.36067036537611
 51
297.97290133977089
  0
LINE
  5
1D23E
  8
1
 10
76.516353607726387
 20
172.1153149754
 30
0.0
 11
76.516353607726387
 21
125.0
 31
0.0
  0
LINE
  5
1D23F
  8
1
 10
315.50297026688281
 20
172.1153149754
 30
0.0
 11
315.50297026688281
 21
125.0
 31
0.0
  0
LINE
  5
1D2E1
  8
1
 10
186.0000000874544
 20
133.99999939649999
 30
0.0
 11
186.0000000874544
 21
128.0
 31
0.0
  0
LINE
  5
1D2E2
  8
1
 10
199.50000008739991
 20
133.99999939649999
 30
0.0
 11
199.50000008739991
 21
128.0
 31
0.0
  0
LINE
  5
1D32D
  8
1
 10
85.316353607726342
 20
133.99999939649999
 30
0.0
 11
85.316353607726342
 21
128.0
 31
0.0
  0
LINE
  5
1D32E
  8
1
 10
67.716353607726433
 20
133.99999939649999
 30
0.0
 11
67.716353607726433
 21
128.0
 31
0.0
  0
LINE
  5
1D32F
  8
1
 10
86.016353607726387
 20
133.99999939649999
 30
0.0
 11
86.016353607726387
 21
128.0
 31
0.0
  0
LINE
  5
1D330
  8
1
 10
67.016353607726387
 20
133.99999939649999
 30
0.0
 11
67.016353607726387
 21
128.0
 31
0.0
  0
LINE
  5
1D331
  8
1
 10
306.00297026688281
 20
133.99999939649999
 30
0.0
 11
306.00297026688281
 21
128.0
 31
0.0
  0
LINE
  5
1D332
  8
1
 10
325.00297026688281
 20
133.99999939649999
 30
0.0
 11
325.00297026688281
 21
128.0
 31
0.0
  0
LINE
  5
1D333
  8
1
 10
306.70297026688291
 20
133.99999939649999
 30
0.0
 11
306.70297026688291
 21
128.0
 31
0.0
  0
LINE
  5
1D334
  8
1
 10
324.30297026688282
 20
133.99999939649999
 30
0.0
 11
324.30297026688282
 21
128.0
 31
0.0
  0
LINE
  5
1D335
  8
1
 10
186.00000008739991
 20
244.7629936078001
 30
0.0
 11
186.00000008739991
 21
235.76299360802159
 31
0.0
  0
LINE
  5
1D336
  8
1
 10
181.85000008739991
 20
240.61299360780021
 30
0.0
 11
190.1500000874
 21
240.61299360780021
 31
0.0
  0
LINE
  5
1D337
  8
1
 10
181.8500000874005
 20
239.91299360802159
 30
0.0
 11
190.1500000874006
 21
239.91299360802159
 31
0.0
  0
LINE
  5
1D338
  8
1
 10
199.50000008739991
 20
244.76299360780021
 30
0.0
 11
199.50000008739991
 21
235.7629936080217
 31
0.0
  0
LINE
  5
1D339
  8
1
 10
195.35000008739991
 20
240.61299360780021
 30
0.0
 11
203.6500000874
 21
240.61299360780021
 31
0.0
  0
LINE
  5
1D33A
  8
1
 10
195.3500000874005
 20
239.91299360802171
 30
0.0
 11
203.6500000874006
 21
239.91299360802171
 31
0.0
  0
LINE
  5
1D33B
  8
1
 10
186.00000008736799
 20
226.46763778670001
 30
0.0
 11
186.00000008736799
 21
217.46763778692139
 31
0.0
  0
LINE
  5
1D33C
  8
1
 10
181.85000008736799
 20
222.3176377867
 30
0.0
 11
190.150000087368
 21
222.3176377867
 31
0.0
  0
LINE
  5
1D33D
  8
1
 10
181.8500000873687
 20
221.61763778692139
 30
0.0
 11
190.1500000873686
 21
221.61763778692139
 31
0.0
  0
LINE
  5
1D33E
  8
1
 10
199.50000008739991
 20
226.467637787
 30
0.0
 11
199.50000008739991
 21
217.46763778722149
 31
0.0
  0
LINE
  5
1D33F
  8
1
 10
195.35000008739991
 20
222.31763778700011
 30
0.0
 11
203.6500000874
 21
222.31763778700011
 31
0.0
  0
LINE
  5
1D340
  8
1
 10
195.3500000874005
 20
221.6176377872215
 30
0.0
 11
203.6500000874006
 21
221.6176377872215
 31
0.0
  0
LINE
  5
1D341
  8
1
 10
186.00000008739991
 20
79.647678107365266
 30
0.0
 11
186.00000008739991
 21
70.647678107586728
 31
0.0
  0
LINE
  5
1D342
  8
1
 10
181.85000008739991
 20
75.497678107365289
 30
0.0
 11
190.1500000874
 21
75.497678107365289
 31
0.0
  0
LINE
  5
1D343
  8
1
 10
181.8500000874005
 20
74.797678107586705
 30
0.0
 11
190.1500000874006
 21
74.797678107586705
 31
0.0
  0
LINE
  5
1D344
  8
1
 10
199.50000008734551
 20
79.647678107365323
 30
0.0
 11
199.50000008734551
 21
70.647678107586785
 31
0.0
  0
LINE
  5
1D345
  8
1
 10
195.35000008734551
 20
75.497678107365346
 30
0.0
 11
203.6500000873456
 21
75.497678107365346
 31
0.0
  0
LINE
  5
1D346
  8
1
 10
195.3500000873461
 20
74.797678107586762
 30
0.0
 11
203.65000008734609
 21
74.797678107586762
 31
0.0
  0
LINE
  5
1D347
  8
1
 10
186.00000008731351
 20
61.352323008165293
 30
0.0
 11
186.00000008731351
 21
52.35232300838674
 31
0.0
  0
LINE
  5
1D348
  8
1
 10
181.8500000873135
 20
57.202323008165308
 30
0.0
 11
190.1500000873136
 21
57.202323008165308
 31
0.0
  0
LINE
  5
1D349
  8
1
 10
181.8500000873141
 20
56.502323008386732
 30
0.0
 11
190.1500000873142
 21
56.502323008386732
 31
0.0
  0
LINE
  5
1D34A
  8
1
 10
199.50000008734551
 20
61.352323008465241
 30
0.0
 11
199.50000008734551
 21
52.35232300868671
 31
0.0
  0
LINE
  5
1D34B
  8
1
 10
195.35000008734551
 20
57.202323008465271
 30
0.0
 11
203.6500000873456
 21
57.202323008465271
 31
0.0
  0
LINE
  5
1D34C
  8
1
 10
195.3500000873461
 20
56.502323008686687
 30
0.0
 11
203.65000008734609
 21
56.502323008686687
 31
0.0
  0
LINE
  5
1D34D
  8
1
 10
157.1362019293999
 20
238.73411834048269
 30
0.0
 11
157.1362019293999
 21
223.4965130543174
 31
0.0
  0
LINE
  5
1D34E
  8
1
 10
157.1362019293999
 20
73.618802839947904
 30
0.0
 11
157.1362019293999
 21
58.381197553782641
 31
0.0
  0
LINE
  5
1D353
  8
1
 10
256.49587299066138
 20
231.11531569741879
 30
0.0
 11
135.5163945816
 21
231.11531569741879
 31
0.0
  0
LINE
  5
1D354
  8
1
 10
256.49587299066138
 20
66.000000196884002
 30
0.0
 11
135.5163945816
 21
66.000000196884002
 31
0.0
  0
LINE
  5
1D357
  8
1
 10
157.13607480383661
 20
170.11531596296669
 30
0.0
 11
157.13633000723519
 21
131.11531566109869
 31
0.0
  0
LINE
  5
1D3B4
  8
0
 10
218.74598396939999
 20
235.33993831950011
 30
0.0
 11
222.1185023150999
 21
235.48889591480011
 31
0.0
  0
LINE
  5
1D3B5
  8
0
 10
218.74598396939999
 20
226.89069307530011
 30
0.0
 11
222.1185023150999
 21
226.7417354800001
 31
0.0
  0
LINE
  5
1D3B6
  8
0
 10
212.18496544282741
 20
153.4775366261035
 30
0.0
 11
207.94831199565041
 21
157.10206061595679
 31
0.0
  0
ARC
  5
1D3B8
  8
0
 10
242.19686248330461
 20
146.37740054661839
 30
0.0
 40
8.4884580859723844
 50
257.79432918999021
 51
276.75623277480878
  0
LINE
  5
1D3B9
  8
0
 10
229.55914383749999
 20
141.37279544489999
 30
0.0
 11
228.07190736749999
 21
141.51981297879991
 31
0.0
  0
LINE
  5
1D439
  8
0
 10
301.50297026688281
 20
131.99999939649999
 30
0.0
 11
301.50297026688281
 21
130.0
 31
0.0
  0
LINE
  5
1D43A
  8
0
 10
329.50297026688281
 20
131.99999939649999
 30
0.0
 11
329.50297026688281
 21
130.0
 31
0.0
  0
ENDSEC
  0
EOF
