  0
SECTION
  2
HEADER
  9
$ACADVER
  1
AC1009
  9
$INSBASE
 10
0.0
 20
0.0
 30
0.0
  9
$EXTMIN
 10
0.0
 20
-2.960436562073669
 30
0.0
  9
$EXTMAX
 10
328.5000000013150157
 20
206.5
 30
0.0
  9
$LIMMIN
 10
0.0
 20
0.0
  9
$LIMMAX
 10
420.0
 20
297.0
  9
$ORTHOMODE
 70
     1
  9
$REGENMODE
 70
     1
  9
$FILLMODE
 70
     1
  9
$QTEXTMODE
 70
     0
  9
$MIRRTEXT
 70
     0
  9
$DRAGMODE
 70
     2
  9
$LTSCALE
 40
10.0
  9
$OSMODE
 70
    37
  9
$ATTMODE
 70
     1
  9
$TEXTSIZE
 40
2.5
  9
$TRACEWID
 40
1.0
  9
$TEXTSTYLE
  7
STANDARD
  9
$CLAYER
  8
0
  9
$CELTYPE
  6
BYLAYER
  9
$CECOLOR
 62
   256
  9
$DIMSCALE
 40
1.0
  9
$DIMASZ
 40
2.5
  9
$DIMEXO
 40
0.625
  9
$DIMDLI
 40
3.75
  9
$DIMRND
 40
0.0
  9
$DIMDLE
 40
0.0
  9
$DIMEXE
 40
1.25
  9
$DIMTP
 40
0.0
  9
$DIMTM
 40
0.0
  9
$DIMTXT
 40
2.5
  9
$DIMCEN
 40
2.5
  9
$DIMTSZ
 40
0.0
  9
$DIMTOL
 70
     0
  9
$DIMLIM
 70
     0
  9
$DIMTIH
 70
     0
  9
$DIMTOH
 70
     0
  9
$DIMSE1
 70
     0
  9
$DIMSE2
 70
     0
  9
$DIMTAD
 70
     1
  9
$DIMZIN
 70
     8
  9
$DIMBLK
  1

  9
$DIMASO
 70
     1
  9
$DIMSHO
 70
     1
  9
$DIMPOST
  1

  9
$DIMAPOST
  1

  9
$DIMALT
 70
     0
  9
$DIMALTD
 70
     3
  9
$DIMALTF
 40
0.03937007874016
  9
$DIMLFAC
 40
1.0
  9
$DIMTOFL
 70
     1
  9
$DIMTVP
 40
0.0
  9
$DIMTIX
 70
     0
  9
$DIMSOXD
 70
     0
  9
$DIMSAH
 70
     0
  9
$DIMBLK1
  1

  9
$DIMBLK2
  1

  9
$DIMSTYLE
  2
ISO-25
  9
$DIMCLRD
 70
     0
  9
$DIMCLRE
 70
     0
  9
$DIMCLRT
 70
     0
  9
$DIMTFAC
 40
1.0
  9
$DIMGAP
 40
0.625
  9
$LUNITS
 70
     2
  9
$LUPREC
 70
     1
  9
$SKETCHINC
 40
1.0
  9
$FILLETRAD
 40
2.0
  9
$AUNITS
 70
     0
  9
$AUPREC
 70
     1
  9
$MENU
  1
.
  9
$ELEVATION
 40
0.0
  9
$PELEVATION
 40
0.0
  9
$THICKNESS
 40
0.0
  9
$LIMCHECK
 70
     0
  9
$BLIPMODE
 70
     0
  9
$CHAMFERA
 40
0.0
  9
$CHAMFERB
 40
0.0
  9
$SKPOLY
 70
     0
  9
$TDCREATE
 40
2454083.4444560189731419
  9
$TDUPDATE
 40
2460571.6584953698329628
  9
$TDINDWG
 40
2.5162395949
  9
$TDUSRTIMER
 40
2.5162395949
  9
$USRTIMER
 70
     1
  9
$ANGBASE
 50
0.0
  9
$ANGDIR
 70
     0
  9
$PDMODE
 70
     0
  9
$PDSIZE
 40
0.0
  9
$PLINEWID
 40
0.0
  9
$COORDS
 70
     1
  9
$SPLFRAME
 70
     0
  9
$SPLINETYPE
 70
     6
  9
$SPLINESEGS
 70
     8
  9
$ATTDIA
 70
     1
  9
$ATTREQ
 70
     1
  9
$HANDLING
 70
     1
  9
$HANDSEED
  5
13321
  9
$SURFTAB1
 70
     6
  9
$SURFTAB2
 70
     6
  9
$SURFTYPE
 70
     6
  9
$SURFU
 70
     6
  9
$SURFV
 70
     6
  9
$UCSNAME
  2

  9
$UCSORG
 10
0.0
 20
0.0
 30
0.0
  9
$UCSXDIR
 10
1.0
 20
0.0
 30
0.0
  9
$UCSYDIR
 10
0.0
 20
1.0
 30
0.0
  9
$PUCSNAME
  2

  9
$PUCSORG
 10
0.0
 20
0.0
 30
0.0
  9
$PUCSXDIR
 10
1.0
 20
0.0
 30
0.0
  9
$PUCSYDIR
 10
0.0
 20
1.0
 30
0.0
  9
$USERI1
 70
     0
  9
$USERI2
 70
     0
  9
$USERI3
 70
     0
  9
$USERI4
 70
     0
  9
$USERI5
 70
     0
  9
$USERR1
 40
0.0
  9
$USERR2
 40
0.0
  9
$USERR3
 40
0.0
  9
$USERR4
 40
0.0
  9
$USERR5
 40
0.0
  9
$WORLDVIEW
 70
     1
  9
$SHADEDGE
 70
     3
  9
$SHADEDIF
 70
    70
  9
$TILEMODE
 70
     1
  9
$MAXACTVP
 70
    64
  9
$PLIMCHECK
 70
     0
  9
$PEXTMIN
 10
0.0
 20
0.0
 30
0.0
  9
$PEXTMAX
 10
0.0
 20
0.0
 30
0.0
  9
$PLIMMIN
 10
0.0
 20
0.0
  9
$PLIMMAX
 10
12.0
 20
9.0
  9
$UNITMODE
 70
     0
  9
$VISRETAIN
 70
     1
  9
$PLINEGEN
 70
     0
  9
$PSLTSCALE
 70
     1
  0
ENDSEC
  0
SECTION
  2
TABLES
  0
TABLE
  2
VPORT
 70
     1
  0
VPORT
  2
*ACTIVE
 70
     0
 10
0.0
 20
0.0
 11
1.0
 21
1.0
 12
469.7044334975369111
 22
200.0
 13
0.0
 23
0.0
 14
10.0
 24
10.0
 15
10.0
 25
10.0
 16
0.0
 26
0.0
 36
1.0
 17
0.0
 27
0.0
 37
0.0
 40
400.0
 41
2.3485221674876842
 42
50.0
 43
0.0
 44
0.0
 50
0.0
 51
0.0
 71
     0
 72
  1000
 73
     1
 74
     3
 75
     0
 76
     0
 77
     0
 78
     0
  0
ENDTAB
  0
TABLE
  2
LTYPE
 70
     2
  0
LTYPE
  2
CONTINUOUS
 70
     0
  3
Solid line
 72
    65
 73
     0
 40
0.0
  0
LTYPE
  2
CENTER
 70
     0
  3
____ _ ____ _ ____ _ ____ _ ____ _ ____ _ ____
 72
    65
 73
     4
 40
2.0
 49
1.25
 49
-0.25
 49
0.25
 49
-0.25
  0
ENDTAB
  0
TABLE
  2
LAYER
 70
     4
  0
LAYER
  2
0
 70
     0
 62
     7
  6
CONTINUOUS
  0
LAYER
  2
DEFPOINTS
 70
     0
 62
     7
  6
CONTINUOUS
  0
LAYER
  2
1
 70
     0
 62
     1
  6
CENTER
  0
LAYER
  2
3
 70
     0
 62
     3
  6
CONTINUOUS
  0
ENDTAB
  0
TABLE
  2
STYLE
 70
     2
  0
STYLE
  2
STANDARD
 70
     0
 40
0.0
 41
1.0
 50
0.0
 71
     0
 42
2.5
  3
txt
  4

  0
STYLE
  2
STANDARD1
 70
     0
 40
0.0
 41
1.0
 50
0.0
 71
     0
 42
3.0
  3
txt
  4

  0
ENDTAB
  0
TABLE
  2
VIEW
 70
     3
  0
VIEW
  2
OLE1
 70
     0
 40
17.336203194614189
 10
1078.2627039085309661
 20
377.6744486595430885
 41
31.0749116297020009
 11
0.0
 21
0.0
 31
1.0
 12
0.0
 22
0.0
 32
0.0
 42
50.0
 43
0.0
 44
0.0
 50
0.0
 71
     0
  0
VIEW
  2
OLE2
 70
     0
 40
50.523198253338478
 10
1031.7677389415230209
 20
579.9283567158205415
 41
90.5621550086675455
 11
0.0
 21
0.0
 31
1.0
 12
0.0
 22
0.0
 32
0.0
 42
50.0
 43
0.0
 44
0.0
 50
0.0
 71
     0
  0
VIEW
  2
OLE3
 70
     0
 40
95.502301876216066
 10
202.0430959360805048
 20
425.5599226159864088
 41
146.7053432435849061
 11
0.0
 21
0.0
 31
1.0
 12
0.0
 22
0.0
 32
0.0
 42
50.0
 43
0.0
 44
0.0
 50
0.0
 71
     0
  0
ENDTAB
  0
TABLE
  2
UCS
 70
     0
  0
ENDTAB
  0
TABLE
  2
APPID
 70
    44
  0
APPID
  2
ACAD
 70
     0
  0
APPID
  2
_FTCNV
 70
     0
  0
APPID
  2
DCO15
 70
     0
  0
APPID
  2
GENIUS_GENOREF_13
 70
     0
  0
APPID
  2
GENIUS_GENOENT_13
 70
     0
  0
APPID
  2
GENIUS_GENBH_13
 70
     0
  0
APPID
  2
GENIUS_GENOBJ_13
 70
     0
  0
APPID
  2
GENIUS_GENODEF_13
 70
     0
  0
APPID
  2
GENIUS_GENOLIS_13
 70
     0
  0
APPID
  2
GENIUS_GENOBJ-NBEHI-BHF_13
 70
     0
  0
APPID
  2
GENIUS_GENOBJ-NBEHI-BHB_13
 70
     0
  0
APPID
  2
GENIUS_GENOBJ-F-PART_13
 70
     0
  0
APPID
  2
GENIUS_GEFSTDP_13
 70
     0
  0
APPID
  2
GENIUS_GENOBJ-N-RSSYM_13
 70
     0
  0
APPID
  2
GENIUS_GENSYMENT_13
 70
     0
  0
APPID
  2
GENIUS_GENOBJ-N-TIT_13
 70
     0
  0
APPID
  2
GENIUS_GENTITLE_13
 70
     0
  0
APPID
  2
GENIUS_GENZVEED_13
 70
     0
  0
APPID
  2
GENIUS_GENOBJ-N-LEADER_13
 70
     0
  0
APPID
  2
GENIUS_GENOBJ-N-FIL_13
 70
     0
  0
APPID
  2
GENIUS_GENOBJ-N-SEC_13
 70
     0
  0
APPID
  2
GENIUS_GENOBJ-N-CRS_13
 70
     0
  0
APPID
  2
GENIUS_GENOBJ-N-ZOO_13
 70
     0
  0
APPID
  2
GENIUS_GENZOO_13
 70
     0
  0
APPID
  2
GENIUS_GENOBJ-F-TOL_13
 70
     0
  0
APPID
  2
GENIUS_GENFIL_13
 70
     0
  0
APPID
  2
GENIUS_GENOBJ-N-CHA_13
 70
     0
  0
APPID
  2
_CALL_MAC$
 70
     0
  0
APPID
  2
ASM_BASE
 70
     0
  0
APPID
  2
ASM_EXPLO_VER_2_00
 70
     0
  0
APPID
  2
ASM_CADM_VER_12_00
 70
     0
  0
APPID
  2
ASM_BASEFORO
 70
     0
  0
APPID
  2
ASM_BASETRAVI
 70
     0
  0
APPID
  2
ASM_BASETRAVI1
 70
     0
  0
APPID
  2
ASM_GRUPPI
 70
     0
  0
APPID
  2
ASM_CADM_ALBERO
 70
     0
  0
APPID
  2
ASM_GOLE
 70
     0
  0
APPID
  2
ACAD_MLEADERVER
 70
     0
  0
APPID
  2
ACAD_EXEMPT_FROM_CAD_STANDARDS
 70
     0
  0
APPID
  2
ACAD_DSTYLE_DIMJAG
 70
     0
  0
APPID
  2
ACAD_DSTYLE_DIMTALN
 70
     0
  0
APPID
  2
ACAD_NAV_VCDISPLAY
 70
     0
  0
APPID
  2
ACAECLAYERSTANDARD
 70
     0
  0
APPID
  2
ACCMTRANSPARENCY
 70
     0
  0
ENDTAB
  0
TABLE
  2
DIMSTYLE
 70
     2
  0
DIMSTYLE
  2
ISO-25
 70
     0
  3

  4

  5

  6

  7

 40
1.0
 41
2.5
 42
0.625
 43
3.75
 44
1.25
 45
0.0
 46
0.0
 47
0.0
 48
0.0
140
2.5
141
2.5
142
0.0
143
0.03937007874016
144
1.0
145
0.0
146
1.0
147
0.625
 71
     0
 72
     0
 73
     0
 74
     0
 75
     0
 76
     0
 77
     1
 78
     8
170
     0
171
     3
172
     1
173
     0
174
     0
175
     0
176
     0
177
     0
178
     0
  0
DIMSTYLE
  2
STANDARD
 70
     0
  3

  4

  5

  6

  7

 40
1.0
 41
0.18
 42
0.0625
 43
0.38
 44
0.18
 45
0.0
 46
0.0
 47
0.0
 48
0.0
140
0.18
141
0.09
142
0.0
143
25.3999999999999986
144
1.0
145
0.0
146
1.0
147
0.09
 71
     0
 72
     0
 73
     1
 74
     1
 75
     0
 76
     0
 77
     0
 78
     0
170
     0
171
     2
172
     0
173
     0
174
     0
175
     0
176
     0
177
     0
178
     0
  0
ENDTAB
  0
ENDSEC
  0
SECTION
  2
BLOCKS
  0
BLOCK
  8
0
  2
$MODEL_SPACE
 70
     0
 10
0.0
 20
0.0
 30
0.0
  3
$MODEL_SPACE
  1

  0
ENDBLK
  5
21
  8
0
  0
BLOCK
 67
     1
  8
0
  2
$PAPER_SPACE
 70
     0
 10
0.0
 20
0.0
 30
0.0
  3
$PAPER_SPACE
  1

  0
ENDBLK
  5
53
 67
     1
  8
0
  0
ENDSEC
  0
SECTION
  2
ENTITIES
  0
TEXT
  5
C317
  8
0
 62
     3
 10
0.0
 20
0.0
 30
0.0
 40
10.0
  1
ST-H215U-S
  7
STANDARD1
  0
LINE
  5
12C3C
  8
0
 10
183.520886592585299
 20
191.4999999993391953
 30
0.0
 11
183.520886592585299
 21
186.4999999993393089
 31
0.0
  0
LINE
  5
12C3D
  8
0
 10
168.1494010177596863
 20
186.4999999993430038
 30
0.0
 11
168.1494010177596863
 21
183.9999999993430038
 31
0.0
  0
LINE
  5
12C3E
  8
0
 10
168.1494010177596863
 20
193.9999999993430038
 30
0.0
 11
168.1494010177596863
 21
191.4999999993430038
 31
0.0
  0
ARC
  5
12C3F
  8
0
 10
175.4929999999907011
 20
182.9999999993430038
 30
0.0
 40
0.5
 50
270.0000000000007958
 51
0.0
  0
ARC
  5
12C40
  8
0
 10
170.9929999999907864
 20
182.9999999993430038
 30
0.0
 40
0.5
 50
180.0
 51
270.0000000000007958
  0
LINE
  5
12C41
  8
0
 10
175.9929999999907011
 20
182.9999999993430038
 30
0.0
 11
175.9929999999907011
 21
183.9999999993430038
 31
0.0
  0
LINE
  5
12C42
  8
0
 10
170.4929999999907864
 20
183.9999999993430038
 30
0.0
 11
170.4929999999907864
 21
182.9999999993430038
 31
0.0
  0
LINE
  5
12C43
  8
0
 10
170.4929999999907864
 20
194.9999999993430038
 30
0.0
 11
170.4929999999907864
 21
193.9999999993430038
 31
0.0
  0
LINE
  5
12C44
  8
0
 10
175.9929999999907011
 20
193.9999999993430038
 30
0.0
 11
175.9929999999907011
 21
194.9999999993430038
 31
0.0
  0
ARC
  5
12C45
  8
0
 10
175.4929999999907864
 20
194.9999999993430038
 30
0.0
 40
0.5
 50
359.9999999999976126
 51
90.0
  0
ARC
  5
12C46
  8
0
 10
170.9929999999907864
 20
194.9999999993430038
 30
0.0
 40
0.5
 50
90.0
 51
179.9999999999967031
  0
LINE
  5
12C47
  8
0
 10
190.3226682416018889
 20
182.9999999993430038
 30
0.0
 11
190.3226682416018889
 21
183.9999999993430038
 31
0.0
  0
LINE
  5
12C48
  8
0
 10
184.8226682416018889
 20
183.9999999993430038
 30
0.0
 11
184.8226682416018889
 21
182.9999999993430038
 31
0.0
  0
LINE
  5
12C49
  8
0
 10
184.8226682416018889
 20
194.9999999993428901
 30
0.0
 11
184.8226682416018889
 21
193.9999999993430038
 31
0.0
  0
LINE
  5
12C4A
  8
0
 10
190.3226682416018889
 20
193.9999999993430038
 30
0.0
 11
190.3226682416018889
 21
194.9999999993430038
 31
0.0
  0
ARC
  5
12C4B
  8
0
 10
189.8226682416018889
 20
182.9999999993430038
 30
0.0
 40
0.5
 50
269.9999999999976126
 51
0.0
  0
ARC
  5
12C4C
  8
0
 10
185.3226682416018889
 20
182.9999999993430038
 30
0.0
 40
0.5
 50
180.0
 51
270.0000000000040927
  0
ARC
  5
12C4D
  8
0
 10
189.8226682416018889
 20
194.9999999993428901
 30
0.0
 40
0.5
 50
0.0000000000032569
 51
90.0
  0
ARC
  5
12C4E
  8
0
 10
185.3226682416018889
 20
194.9999999993428901
 30
0.0
 40
0.5
 50
90.0
 51
180.0
  0
ARC
  5
12C50
  8
0
 10
197.507000000000005
 20
194.9999999993420943
 30
0.0
 40
0.5
 50
90.0000000000032543
 51
180.0000000000040075
  0
ARC
  5
12C51
  8
0
 10
202.007000000000005
 20
194.9999999993420943
 30
0.0
 40
0.5
 50
359.9999999999976126
 51
89.9999999999967457
  0
ARC
  5
12C52
  8
0
 10
197.507000000000005
 20
182.9999999993420943
 30
0.0
 40
0.5
 50
180.0
 51
270.0000000000007958
  0
ARC
  5
12C53
  8
0
 10
202.007000000000005
 20
182.9999999993420943
 30
0.0
 40
0.5
 50
270.0000000000040927
 51
0.0
  0
LINE
  5
12C54
  8
0
 10
202.507000000000005
 20
182.9999999993420943
 30
0.0
 11
202.507000000000005
 21
183.988035581441892
 31
0.0
  0
LINE
  5
12C55
  8
0
 10
197.007000000000005
 20
183.9999999993420943
 30
0.0
 11
197.007000000000005
 21
182.9999999993420943
 31
0.0
  0
LINE
  5
12C56
  8
0
 10
197.007000000000005
 20
194.9999999993420943
 30
0.0
 11
197.007000000000005
 21
193.9999999993430038
 31
0.0
  0
LINE
  5
12C57
  8
0
 10
202.507000000000005
 20
194.0116565502385129
 30
0.0
 11
202.507000000000005
 21
194.9999999993420943
 31
0.0
  0
ARC
  5
12C5E
  8
0
 10
128.2530341360055104
 20
188.9999999993376036
 30
0.0
 40
4.9999999999693463
 50
60.0000000000000995
 51
120.0000000000007958
  0
ARC
  5
12C61
  8
0
 10
128.2530341360055104
 20
188.9999999993376036
 30
0.0
 40
4.9999999999693028
 50
240.0000000000005116
 51
300.0000000000009095
  0
LINE
  5
12C70
  8
0
 10
135.9200610321776139
 20
182.5799767460019893
 30
0.0
 11
120.5860072398330942
 21
182.5799767460019893
 31
0.0
  0
LINE
  5
12C72
  8
0
 10
122.5850810539642026
 20
180.2100116260054108
 30
0.0
 11
133.920987218046605
 21
180.2100116260054108
 31
0.0
  0
LINE
  5
12C75
  8
0
 10
120.5860072398330942
 20
195.4200232526733032
 30
0.0
 11
135.9200610321776139
 21
195.4200232526733032
 31
0.0
  0
LINE
  5
12C76
  8
0
 10
133.920987218046605
 20
197.7899883726697965
 30
0.0
 11
122.5850810539643021
 21
197.7899883726697965
 31
0.0
  0
ARC
  5
12C77
  8
0
 10
128.2530341360053967
 20
188.9999999993376036
 30
0.0
 40
10.0000000000000302
 50
140.0587095865261915
 51
219.9412904134744906
  0
ARC
  5
12C78
  8
0
 10
128.2530341360053967
 20
188.9999999993376036
 30
0.0
 40
9.9999999999999858
 50
320.0587095865266178
 51
39.9412904134737801
  0
ARC
  5
12C79
  8
0
 10
128.2530341360055104
 20
180.2702859718536104
 30
0.0
 40
18.4137357522417417
 50
72.0726306826168042
 51
107.9273693173831958
  0
ARC
  5
12C7A
  8
0
 10
128.2530341360053967
 20
197.7297140268225064
 30
0.0
 40
18.4137357522425802
 50
252.0726306826184953
 51
287.9273693173831816
  0
CIRCLE
  5
12C7B
  8
0
 10
128.2530341360063062
 20
188.9999999993424069
 30
0.0
 40
3.0
  0
LINE
  5
12C7C
  8
0
 10
190.5550223528751985
 20
191.4999999993391953
 30
0.0
 11
190.5550223528751985
 21
186.4999999993393089
 31
0.0
  0
ARC
  5
12C7D
  8
0
 10
144.9408985357196116
 20
186.2349646198314872
 30
0.0
 40
3.2366000000000379
 50
270.0000000000007958
 51
315.8000000000006935
  0
LINE
  5
12C7E
  8
0
 10
144.9408985357196116
 20
182.9983646198315057
 30
0.0
 11
136.2518073401573986
 21
182.9983646198315057
 31
0.0
  0
LINE
  5
12C7F
  8
0
 10
120.2542609318533948
 20
182.9983646198315057
 30
0.0
 11
111.592999995517701
 21
182.9983646198315057
 31
0.0
  0
ARC
  5
12C80
  8
0
 10
111.592999995517701
 20
188.8983646198315967
 30
0.0
 40
5.9000000000000616
 50
180.0
 51
270.0000000000007958
  0
LINE
  5
12C81
  8
0
 10
105.6929999955176953
 20
188.8983646198315967
 30
0.0
 11
105.6929999955176953
 21
189.101635378849096
 31
0.0
  0
ARC
  5
12C82
  8
0
 10
111.592999995517701
 20
189.101635378849096
 30
0.0
 40
5.9000000000000341
 50
89.9999999999979678
 51
180.0
  0
LINE
  5
12C83
  8
0
 10
144.9408985357196116
 20
195.0016353788491017
 30
0.0
 11
136.2518073401533911
 21
195.0016353788491017
 31
0.0
  0
LINE
  5
12C84
  8
0
 10
120.2542609318574023
 20
195.0016353788491017
 30
0.0
 11
111.5929999955178999
 21
195.0016353788491017
 31
0.0
  0
ARC
  5
12C85
  8
0
 10
144.9408985357196116
 20
191.7650353788490918
 30
0.0
 40
3.236600000000009
 50
44.2000000000004292
 51
90.0
  0
LINE
  5
12C86
  8
0
 10
149.7132835180375139
 20
191.4999999993399058
 30
0.0
 11
147.2612514084412112
 21
194.0214799507481018
 31
0.0
  0
LINE
  5
12C87
  8
0
 10
200.0725407791096018
 20
191.4999999993399058
 30
0.0
 11
149.7132835180375139
 21
191.4999999993399058
 31
0.0
  0
LINE
  5
12C88
  8
0
 10
175.942999999998591
 20
186.4999999993405879
 30
0.0
 11
175.9429999999987899
 21
191.4999999993399058
 31
0.0
  0
LINE
  5
12C89
  8
0
 10
200.0725407790492056
 20
186.4999999993430038
 30
0.0
 11
149.7132835180372865
 21
186.4999999993405879
 31
0.0
  0
LINE
  5
12C8A
  8
0
 10
149.7132835180372865
 20
186.4999999993405879
 30
0.0
 11
147.2612514084410122
 21
183.9785200479325056
 31
0.0
  0
ARC
  5
12C8B
  8
0
 10
111.592999995517701
 20
188.8983646198315967
 30
0.0
 40
3.4000000000000901
 50
180.0000000000015064
 51
270.0000000000007958
  0
LINE
  5
12C8C
  8
0
 10
145.2520505578222014
 20
185.4983646198315057
 30
0.0
 11
137.6199199402090017
 21
185.4983646198315057
 31
0.0
  0
LINE
  5
12C8D
  8
0
 10
118.886148331801806
 20
185.4983646198315057
 30
0.0
 11
111.592999995517701
 21
185.4983646198315057
 31
0.0
  0
LINE
  5
12C8E
  8
0
 10
147.7040826674185041
 20
188.0198445712397017
 30
0.0
 11
145.2520505578222014
 21
185.4983646198315057
 31
0.0
  0
ARC
  5
12C8F
  8
0
 10
150.024435540140189
 20
185.7633999993406064
 30
0.0
 40
3.2366000000000619
 50
89.9999999999992042
 51
135.8000000000006082
  0
ARC
  5
12C90
  8
0
 10
150.0244355401403027
 20
192.2365999993398873
 30
0.0
 40
3.2366000000000632
 50
224.1999999999993065
 51
269.9999999999992042
  0
LINE
  5
12C91
  8
0
 10
147.7040826674187031
 20
189.9801554274409057
 30
0.0
 11
145.2520505578222867
 21
192.5016353788491017
 31
0.0
  0
LINE
  5
12C92
  8
0
 10
145.2520505578222867
 20
192.5016353788491017
 30
0.0
 11
137.6199199402070974
 21
192.5016353788491017
 31
0.0
  0
LINE
  5
12C93
  8
0
 10
118.886148331803696
 20
192.5016353788491017
 30
0.0
 11
111.5929999955178005
 21
192.5016353788491017
 31
0.0
  0
ARC
  5
12C94
  8
0
 10
111.592999995517701
 20
189.101635378849096
 30
0.0
 40
3.4000000000000341
 50
89.9999999999983658
 51
180.0
  0
LINE
  5
12C95
  8
0
 10
108.1929999955176953
 20
188.8983646198315967
 30
0.0
 11
108.1929999955176953
 21
189.101635378849096
 31
0.0
  0
LINE
  5
12C96
  8
0
 10
177.9429999999987047
 20
186.4999999993405879
 30
0.0
 11
177.9429999999987047
 21
191.4999999993399058
 31
0.0
  0
LINE
  5
12C99
  8
0
 10
174.3809665734293048
 20
183.9999999993430038
 30
0.0
 11
174.3809665734293048
 21
186.4999999993430038
 31
0.0
  0
LINE
  5
12C9B
  8
0
 10
174.3809665734293048
 20
191.4999999993430038
 30
0.0
 11
174.3809665734293048
 21
193.9999999993430038
 31
0.0
  0
LINE
  5
12C9D
  8
0
 10
174.504123128996298
 20
183.9999999993430038
 30
0.0
 11
174.504123128996298
 21
186.4999999993430038
 31
0.0
  0
LINE
  5
12C9E
  8
0
 10
199.7030711123481979
 20
183.9999999993430038
 30
0.0
 11
199.7030711123481979
 21
186.4999999993430038
 31
0.0
  0
LINE
  5
12CA0
  8
0
 10
200.5457735183246086
 20
183.9999999993430038
 30
0.0
 11
168.0
 21
183.9999999993420943
 31
0.0
  0
LINE
  5
12CA2
  8
0
 10
174.504123128996298
 20
191.4999999993430038
 30
0.0
 11
174.504123128996298
 21
193.9999999993430038
 31
0.0
  0
LINE
  5
12CA4
  8
0
 10
199.7030711123481979
 20
191.4999999993430038
 30
0.0
 11
199.7030711123481979
 21
193.9999999993430038
 31
0.0
  0
LINE
  5
12CA6
  8
0
 10
168.0
 20
193.9999999993430038
 30
0.0
 11
200.5457735257587046
 21
193.9999999993430038
 31
0.0
  0
LINE
  5
12CA7
  8
0
 10
171.0569604601002993
 20
182.4999999993430038
 30
0.0
 11
170.9929999999907011
 21
182.4999999993430038
 31
0.0
  0
LINE
  5
12CA8
  8
0
 10
175.4929999999907011
 20
182.4999999993430038
 30
0.0
 11
171.0569604601002993
 21
182.4999999993430038
 31
0.0
  0
LINE
  5
12CA9
  8
0
 10
170.9929999999907864
 20
195.499999999343089
 30
0.0
 11
175.4929999999907864
 21
195.4999999993430038
 31
0.0
  0
LINE
  5
12CB7
  8
0
 10
208.5433649721279039
 20
192.8627635449911963
 30
0.0
 11
208.5433649721277902
 21
185.1372364536946975
 31
0.0
  0
LINE
  5
12CC6
  8
0
 10
200.0725407790492056
 20
184.981403372253709
 30
0.0
 11
200.0725407790492056
 21
186.4999999993430038
 31
0.0
  0
LINE
  5
12CC9
  8
0
 10
200.0725407790492056
 20
191.4999999993430038
 30
0.0
 11
200.0725407790492056
 21
193.0185966264322985
 31
0.0
  0
LINE
  5
12CCA
  8
0
 10
208.2424780960888029
 20
184.8841769535376898
 30
0.0
 11
208.2424770194151904
 21
193.1158238879002909
 31
0.0
  0
LINE
  5
12CD3
  8
0
 10
207.1866963470602911
 20
182.9244669084019961
 30
0.0
 11
207.9892598098674057
 21
182.9244669084019961
 31
0.0
  0
LINE
  5
12CD4
  8
0
 10
207.9892598098674057
 20
195.0755330902838978
 30
0.0
 11
207.1866963470604048
 21
195.0755330902838125
 31
0.0
  0
LINE
  5
12CDD
  8
0
 10
206.8656663817029937
 20
183.8794948559250031
 30
0.0
 11
207.9937325207685888
 21
183.8794948559250031
 31
0.0
  0
LINE
  5
12CDE
  8
0
 10
205.4941197484345992
 20
183.9279396486894029
 30
0.0
 11
206.8656663817029937
 21
183.8794948559250031
 31
0.0
  0
LINE
  5
12CE0
  8
0
 10
206.86587093490391
 20
194.1205051427608055
 30
0.0
 11
205.4941197484345992
 21
194.0720603499964909
 31
0.0
  0
LINE
  5
12CE1
  8
0
 10
207.9937303217714089
 20
194.1205051427608907
 30
0.0
 11
206.86587093490391
 21
194.1205051427608055
 31
0.0
  0
LINE
  5
12CE3
  8
0
 10
189.8226682416018889
 20
182.4999999993430038
 30
0.0
 11
185.3226682416018889
 21
182.4999999993430038
 31
0.0
  0
LINE
  5
12CE4
  8
0
 10
185.3226682416018889
 20
195.4999999993428901
 30
0.0
 11
189.8226682416018889
 21
195.4999999993428901
 31
0.0
  0
LINE
  5
12CEF
  8
0
 10
244.2932940012335052
 20
179.2505676431051995
 30
0.0
 11
239.5379172601292055
 21
179.2505676431051995
 31
0.0
  0
LINE
  5
12CF0
  8
0
 10
239.5269904854667118
 20
198.7494323555806091
 30
0.0
 11
244.2932940012335052
 21
198.7494323555806091
 31
0.0
  0
LINE
  5
12CF8
  8
0
 10
168.0
 20
183.9999999993420943
 30
0.0
 11
168.0
 21
186.4999999993420943
 31
0.0
  0
LINE
  5
12CF9
  8
0
 10
168.0
 20
193.9999999993430038
 30
0.0
 11
168.0
 21
191.499999999343089
 31
0.0
  0
LINE
  5
12CFB
  8
0
 10
197.507000000000005
 20
195.4999999993420943
 30
0.0
 11
202.007000000000005
 21
195.4999999993420943
 31
0.0
  0
LINE
  5
12CFC
  8
0
 10
202.007000000000005
 20
182.4999999993420943
 30
0.0
 11
197.507000000000005
 21
182.4999999993420943
 31
0.0
  0
LINE
  5
12CFD
  8
0
 10
177.9429999999987047
 20
188.9999999993430038
 30
0.0
 11
183.520886592585299
 21
188.9999999993430038
 31
0.0
  0
LINE
  5
12D02
  8
0
 10
173.0
 20
175.4999999986850128
 30
0.0
 11
173.8000000000000114
 21
175.4999999986850128
 31
0.0
  0
ARC
  5
12D03
  8
0
 10
173.8000000000000114
 20
177.9999999986850128
 30
0.0
 40
2.5
 50
270.0000000000007958
 51
90.0
  0
LINE
  5
12D04
  8
0
 10
173.8000000000000114
 20
180.4999999986850128
 30
0.0
 11
173.0
 21
180.4999999986850128
 31
0.0
  0
ARC
  5
12D05
  8
0
 10
173.0
 20
177.9999999986850128
 30
0.0
 40
2.5
 50
90.0
 51
270.0000000000007958
  0
LINE
  5
12D06
  8
0
 10
170.6999999999999886
 20
171.4999999986850128
 30
0.0
 11
202.3000000000000114
 21
171.4999999986850128
 31
0.0
  0
ARC
  5
12D07
  8
0
 10
170.6999999999999886
 20
173.4999999986850128
 30
0.0
 40
2.000000000000056
 50
180.0
 51
270.0000000000007958
  0
ARC
  5
12D08
  8
0
 10
202.3000000000000114
 20
173.4999999986850128
 30
0.0
 40
2.000000000000056
 50
270.0000000000007958
 51
0.0
  0
LINE
  5
12D09
  8
0
 10
204.3000000000000114
 20
183.9596130808469923
 30
0.0
 11
204.3000000000000114
 21
173.4999999986850128
 31
0.0
  0
LINE
  5
12D0A
  8
0
 10
168.6999999999999886
 20
173.4999999986850128
 30
0.0
 11
168.6999999999999886
 21
183.9999999993430038
 31
0.0
  0
ARC
  5
12D11
  8
0
 10
170.6999999999999886
 20
204.5
 30
0.0
 40
2.0
 50
90.0
 51
180.0
  0
LINE
  5
12D12
  8
0
 10
202.3000000000000114
 20
206.5
 30
0.0
 11
170.6999999999999886
 21
206.5
 31
0.0
  0
ARC
  5
12D13
  8
0
 10
202.3000000000000114
 20
204.5
 30
0.0
 40
2.0
 50
0.0
 51
90.0
  0
LINE
  5
12D16
  8
0
 10
204.3000000000000114
 20
204.5
 30
0.0
 11
204.3000000000000114
 21
194.0402701387463082
 31
0.0
  0
LINE
  5
12D17
  8
0
 10
168.6999999999999886
 20
193.9999999993430038
 30
0.0
 11
168.6999999999999886
 21
204.5
 31
0.0
  0
LINE
  5
12D27
  8
1
 10
260.2465173225886019
 20
188.9999999993428901
 30
0.0
 11
100.3855002224817952
 21
188.9999999993418101
 31
0.0
  0
LINE
  5
12D28
  8
0
 10
118.6530341360052034
 20
126.9999999999992042
 30
0.0
 11
118.6530341360052034
 21
124.9999999999992042
 31
0.0
  0
LINE
  5
12D29
  8
0
 10
138.6530341360052034
 20
124.9999999999992042
 30
0.0
 11
138.6530341360052034
 21
126.9999999999992042
 31
0.0
  0
LINE
  5
12D2A
  8
0
 10
118.6530341360052034
 20
141.0000000000052012
 30
0.0
 11
118.6530341360052034
 21
139.0000000000052012
 31
0.0
  0
LINE
  5
12D2B
  8
0
 10
138.6530341360052034
 20
139.0000000000052012
 30
0.0
 11
138.6530341360052034
 21
141.0000000000052012
 31
0.0
  0
LINE
  5
12D2C
  8
0
 10
121.153034135995199
 20
107.9693769939563026
 30
0.0
 11
123.1530341360140994
 21
99.9693769938805445
 31
0.0
  0
LINE
  5
12D2D
  8
0
 10
134.153034135998098
 20
99.9693769938805445
 30
0.0
 11
136.1530341360171121
 21
107.9693769939563026
 31
0.0
  0
LINE
  5
12D2E
  8
0
 10
136.1530341360171121
 20
107.9693769939563026
 30
0.0
 11
134.1530341360223133
 21
112.9693769938805019
 31
0.0
  0
LINE
  5
12D2F
  8
0
 10
123.1530341359899978
 20
112.9693769938805019
 30
0.0
 11
121.153034135995199
 21
107.9693769939563026
 31
0.0
  0
LINE
  5
12D30
  8
0
 10
125.6530341360060987
 20
154.4693769938805019
 30
0.0
 11
125.6530341360060987
 21
145.8499999999482952
 31
0.0
  0
LINE
  5
12D31
  8
0
 10
125.6530341360060987
 20
120.1500000000237947
 30
0.0
 11
125.6530341360060987
 21
112.9693769938805019
 31
0.0
  0
LINE
  5
12D32
  8
0
 10
131.6530341360061129
 20
112.9693769938805019
 30
0.0
 11
131.6530341360061129
 21
120.1500000000237947
 31
0.0
  0
LINE
  5
12D33
  8
0
 10
131.6530341360061129
 20
145.8499999999484089
 30
0.0
 11
131.6530341360061129
 21
154.4693769938805872
 31
0.0
  0
ARC
  5
12D34
  8
0
 10
252.0808121704870075
 20
120.4777976047344055
 30
0.0
 40
2.0000000000000231
 50
255.740552205268699
 51
345.740552205267818
  0
LINE
  5
12D35
  8
0
 10
254.0191927845910129
 20
119.985171382466504
 30
0.0
 11
254.142349340158006
 21
120.4697665359925054
 31
0.0
  0
ARC
  5
12D36
  8
0
 10
252.2039687260540006
 20
120.9623927582604068
 30
0.0
 40
1.9999999999999889
 50
345.7405522052669085
 51
75.7405522052677895
  0
LINE
  5
12D37
  8
0
 10
134.3209872180464117
 20
126.3682999999992944
 30
0.0
 11
122.9850810539639951
 21
126.3682999999992944
 31
0.0
  0
ARC
  5
12D38
  8
0
 10
128.6530341360052034
 20
116.6545648402634043
 30
0.0
 40
11.2464368976893905
 50
59.7364885806597385
 51
120.2635114193408015
  0
ARC
  5
12D39
  8
0
 10
128.6530341360052034
 20
117.6545648402633049
 30
0.0
 40
11.2464368976894793
 50
59.7364885806597385
 51
120.2635114193403041
  0
LINE
  5
12D3D
  8
0
 10
118.6530341360052034
 20
124.9999999999992042
 30
0.0
 11
138.6530341360052034
 21
124.9999999999992042
 31
0.0
  0
LINE
  5
12D43
  8
0
 10
120.9860072398330999
 20
126.9999999999993037
 30
0.0
 11
120.6542609318570953
 21
126.9999999999993037
 31
0.0
  0
LINE
  5
12D49
  8
0
 10
123.6530341360052034
 20
120.150000000025301
 30
0.0
 11
123.6530341360052034
 21
124.9999999999993037
 31
0.0
  0
LINE
  5
12D4C
  8
0
 10
128.6530341360004002
 20
120.923502691920902
 30
0.0
 11
128.6530341053484108
 21
124.2264973256845053
 31
0.0
  0
LINE
  5
12D4E
  8
0
 10
133.6530341431785018
 20
120.1500000000252015
 30
0.0
 11
123.6530341360052034
 21
120.150000000025301
 31
0.0
  0
LINE
  5
12D52
  8
0
 10
133.6530340981701102
 20
124.9999999999993037
 30
0.0
 11
133.6530341431785018
 21
120.1500000000252015
 31
0.0
  0
ARC
  5
12D59
  8
0
 10
128.6530341360052034
 20
148.3454351597407026
 30
0.0
 40
11.2464368976891205
 50
239.7364885806597101
 51
300.2635114193420804
  0
ARC
  5
12D5B
  8
0
 10
128.6530341360052034
 20
149.3454351597409016
 30
0.0
 40
11.2464368976893194
 50
239.7364885806601933
 51
300.2635114193411141
  0
LINE
  5
12D5D
  8
0
 10
122.9850810539639951
 20
139.631700000005111
 30
0.0
 11
134.3209872180464117
 21
139.631700000005111
 31
0.0
  0
LINE
  5
12D61
  8
0
 10
136.3200610321775059
 20
141.0000000000052012
 30
0.0
 11
120.986007239832901
 21
141.0000000000052012
 31
0.0
  0
LINE
  5
12D65
  8
0
 10
120.986007239832901
 20
141.0000000000052012
 30
0.0
 11
118.6530341360052034
 21
141.0000000000050875
 31
0.0
  0
LINE
  5
12D66
  8
0
 10
120.6542609318532016
 20
139.0000000000050875
 30
0.0
 11
120.986007239832901
 21
139.0000000000052012
 31
0.0
  0
LINE
  5
12D67
  8
0
 10
138.6530341360052034
 20
141.0000000000050875
 30
0.0
 11
136.3200610321775059
 21
141.0000000000052012
 31
0.0
  0
LINE
  5
12D68
  8
0
 10
136.3200610321773922
 20
139.0000000000052012
 30
0.0
 11
136.6518073401572906
 21
139.0000000000052012
 31
0.0
  0
LINE
  5
12D6E
  8
0
 10
128.6530341421093908
 20
145.0764973044663861
 30
0.0
 11
128.6530341360052034
 21
141.7735026919241079
 31
0.0
  0
LINE
  5
12D70
  8
0
 10
133.6530340981715881
 20
145.8499999999174008
 30
0.0
 11
133.6530341431783029
 21
141.0000000000050875
 31
0.0
  0
LINE
  5
12D73
  8
0
 10
123.653034136004095
 20
145.8499999999177135
 30
0.0
 11
123.6530341360112999
 21
141.0000000000050875
 31
0.0
  0
LINE
  5
12D77
  8
0
 10
133.6530340981715881
 20
145.8499999999174008
 30
0.0
 11
123.653034136004095
 21
145.8499999999177135
 31
0.0
  0
LINE
  5
12D7B
  8
0
 10
136.1530341360171121
 20
107.9693769939563026
 30
0.0
 11
121.153034135995199
 21
107.9693769939563026
 31
0.0
  0
LINE
  5
12D7C
  8
0
 10
123.1530341360140994
 20
99.9693769938805445
 30
0.0
 11
134.153034135998098
 21
99.9693769938805445
 31
0.0
  0
LINE
  5
12D7D
  8
0
 10
123.1530341359899978
 20
112.9693769938805019
 30
0.0
 11
134.1530341360223133
 21
112.9693769938805019
 31
0.0
  0
LINE
  5
12D7F
  8
0
 10
199.1563932636526033
 20
124.4690404770468035
 30
0.0
 11
199.116697960500602
 21
124.4867186773740997
 31
0.0
  0
ARC
  5
12D80
  8
0
 10
200.7964536085586076
 20
118.2652209935576053
 30
0.0
 40
4.9999999999999991
 50
337.029994815180828
 51
33.5634336987496269
  0
LINE
  5
12D81
  8
0
 10
186.8867508322950926
 20
118.9864481949369974
 30
0.0
 11
192.4647369313796048
 21
116.5023065496459935
 31
0.0
  0
POLYLINE
  5
12D82
  8
0
 66
     1
 10
0.0
 20
0.0
 30
0.0
 70
   128
  0
VERTEX
  5
1322B
  8
0
 10
185.6836744901671068
 20
119.743402122942797
 30
0.0
  0
VERTEX
  5
1322C
  8
0
 10
186.2287160557036998
 20
119.3406358874670019
 30
0.0
  0
VERTEX
  5
1322D
  8
0
 10
186.8867508322950926
 20
118.9864481949369974
 30
0.0
  0
SEQEND
  5
1322E
  8
0
  0
LINE
  5
12D85
  8
0
 10
106.092999995517502
 20
138.9999999999965894
 30
0.0
 11
106.0929999955174026
 21
126.9999999999965041
 31
0.0
  0
LINE
  5
12D88
  8
0
 10
176.3430000000005009
 20
138.9999999999662066
 30
0.0
 11
136.6518073401572906
 21
139.0000000000052012
 31
0.0
  0
LINE
  5
12D89
  8
0
 10
120.6542609318532016
 20
139.0000000000050875
 30
0.0
 11
106.092999995517502
 21
138.9999999999965894
 31
0.0
  0
LINE
  5
12D8A
  8
0
 10
106.0929999955174026
 20
126.999999999994003
 30
0.0
 11
120.6542609318570953
 21
126.9999999999993037
 31
0.0
  0
LINE
  5
12D8B
  8
0
 10
136.3200610321574118
 20
127.000000000000199
 30
0.0
 11
153.3364253799985022
 21
126.9999999999966036
 31
0.0
  0
LINE
  5
12D8F
  8
0
 10
150.1132835180372069
 20
126.9999999999966036
 30
0.0
 11
150.1132835180372069
 21
138.9999999999965894
 31
0.0
  0
ARC
  5
12D92
  8
0
 10
176.3429999999985114
 20
136.9999999999965894
 30
0.0
 40
2.0
 50
0.0
 51
90.0000000000016058
  0
LINE
  5
12D93
  8
0
 10
178.3429999999985966
 20
122.5235445064650008
 30
0.0
 11
178.3429999999985114
 21
125.8045016445483952
 31
0.0
  0
LINE
  5
12D94
  8
0
 10
178.3429999999985114
 20
136.6382872525969958
 30
0.0
 11
178.3429999999985114
 21
136.9999999999965894
 31
0.0
  0
LINE
  5
12D95
  8
0
 10
153.3364253799985022
 20
126.9999999999966036
 30
0.0
 11
168.3999999999998067
 21
116.3687325433229063
 31
0.0
  0
ARC
  5
12DA5
  8
0
 10
239.7889531667605922
 20
119.4745333746873968
 30
0.0
 40
2.000000000000981
 50
75.7405522052682159
 51
88.3826935968528744
  0
LINE
  5
12DAC
  8
0
 10
207.0825453796502131
 20
122.053499302648305
 30
0.0
 11
208.9433812766972949
 21
129.3754973517137898
 31
0.0
  0
LINE
  5
12DB2
  8
0
 10
251.5881859482192056
 20
118.5394169906304001
 30
0.0
 11
240.2815793890287068
 21
121.4129139887922975
 31
0.0
  0
LINE
  5
12DB3
  8
0
 10
240.5609450951392034
 20
125.9849660734465999
 30
0.0
 11
252.6965949483218026
 21
122.900773372364398
 31
0.0
  0
ARC
  5
12DB5
  8
0
 10
240.0683188728712878
 20
124.0465854593425945
 30
0.0
 40
2.0000000000000751
 50
75.7405522052677895
 51
95.916217293834336
  0
CIRCLE
  5
12DB8
  8
0
 10
173.6429999999905078
 20
132.5499999999917975
 30
0.0
 40
2.7499999999999791
  0
CIRCLE
  5
12DBA
  8
0
 10
187.9726682416016956
 20
123.9762605541411062
 30
0.0
 40
2.7500000000000142
  0
LINE
  5
12DC3
  8
0
 10
205.8941197484344059
 20
123.4456233068002007
 30
0.0
 11
207.2656661470456072
 21
122.7740410246454985
 31
0.0
  0
ARC
  5
12DC4
  8
0
 10
188.5230001931149104
 20
126.1417010806796952
 30
0.0
 40
7.0000000000000053
 50
206.497869416437112
 51
317.6118797492254089
  0
ARC
  5
12DC5
  8
0
 10
177.7835887551891005
 20
120.787726672172596
 30
0.0
 40
4.9999999999999707
 50
26.4978694164355417
 51
75.7405522052665248
  0
LINE
  5
12DC6
  8
0
 10
179.0151543108586907
 20
125.6336782074324958
 30
0.0
 11
172.3178354620899029
 21
127.3357561480526954
 31
0.0
  0
ARC
  5
12DC7
  8
0
 10
173.549401017759493
 20
132.1817076833125952
 30
0.0
 40
5.0000000000000142
 50
75.7405522052665248
 51
255.7405522052673916
  0
LINE
  5
12DC8
  8
0
 10
174.9041231289961047
 20
137.5122543720985959
 30
0.0
 11
174.7809665734291116
 21
137.0276592185726088
 31
0.0
  0
LINE
  5
12DC9
  8
0
 10
200.1030711123480899
 20
131.1081134826164885
 30
0.0
 11
174.9041231289961047
 21
137.5122543720985959
 31
0.0
  0
ARC
  5
12DCA
  8
0
 10
201.0791174899268867
 20
114.6811636400228025
 30
0.0
 40
9.9999999999999964
 50
90.7640273465230365
 51
137.6118797492254089
  0
LINE
  5
12DCB
  8
0
 10
200.2664554678680986
 20
131.7509965714014015
 30
0.0
 11
200.1030711123480899
 21
131.1081134826164885
 31
0.0
  0
ARC
  5
12DCC
  8
0
 10
239.7889531667609049
 20
119.4745333746883063
 30
0.0
 40
2.0000000000000382
 50
88.3826935968602356
 51
109.9362900789667066
  0
LINE
  5
12DD3
  8
0
 10
169.0999999999997954
 20
102.500000000000199
 30
0.0
 11
204.6999999999997897
 21
102.500000000000199
 31
0.0
  0
LINE
  5
12DD4
  8
0
 10
169.0999999999997954
 20
100.0000000000002984
 30
0.0
 11
204.6999999999997897
 21
100.0000000000002984
 31
0.0
  0
CIRCLE
  5
12DD9
  8
0
 10
173.6429999999998017
 20
118.5499999999999972
 30
0.0
 40
2.749999999999992
  0
CIRCLE
  5
12DDB
  8
0
 10
200.1569999999998117
 20
118.5499999999999972
 30
0.0
 40
2.7499999999999769
  0
LINE
  5
12DDC
  8
0
 10
169.0999999999997954
 20
113.6803101006570955
 30
0.0
 11
168.3999999999998067
 21
113.6803101006570955
 31
0.0
  0
LINE
  5
12DDD
  8
0
 10
168.3999999999998067
 20
118.8503101006570972
 30
0.0
 11
168.3999999999998067
 21
113.6803101006570955
 31
0.0
  0
ARC
  5
12DDE
  8
0
 10
174.0499999999998124
 20
118.8503101006570972
 30
0.0
 40
5.650000000000003
 50
11.5669393306338897
 51
180.0
  0
ARC
  5
12DDF
  8
0
 10
186.8999999999998067
 20
121.4803101006572064
 30
0.0
 40
7.4663790735096018
 50
191.5669393306355062
 51
348.4330606693669097
  0
ARC
  5
12DE0
  8
0
 10
199.749999999999801
 20
118.8503101006570972
 30
0.0
 40
5.6500000000000261
 50
0.0
 51
168.4330606693644086
  0
LINE
  5
12DE1
  8
0
 10
205.3999999999998067
 20
113.6803101006570955
 30
0.0
 11
205.3999999999998067
 21
118.8503101006570972
 31
0.0
  0
LINE
  5
12DE2
  8
0
 10
205.3999999999998067
 20
113.6803101006570955
 30
0.0
 11
204.6999999999997897
 21
113.6803101006570955
 31
0.0
  0
LINE
  5
12DE5
  8
0
 10
169.0999999999997954
 20
100.0000000000002984
 30
0.0
 11
169.0999999999997954
 21
113.6803101006570955
 31
0.0
  0
LINE
  5
12DE7
  8
0
 10
204.6999999999997897
 20
100.0000000000002984
 30
0.0
 11
204.6999999999997897
 21
113.6803101006570955
 31
0.0
  0
LINE
  5
12DE9
  8
0
 10
204.6999999999997897
 20
108.024973714341499
 30
0.0
 11
169.0999999999997954
 21
108.024973714341499
 31
0.0
  0
LINE
  5
12DF3
  8
1
 10
128.6530341360061982
 20
97.348431569370149
 30
0.0
 11
128.6530341360061982
 21
156.9693769938805872
 31
0.0
  0
LINE
  5
12DF4
  8
1
 10
128.6530341360061982
 20
109.9693769939563026
 30
0.0
 11
128.6530341360061982
 21
97.9693769938806014
 31
0.0
  0
LINE
  5
12DF5
  8
1
 10
200.0
 20
104.5000000000002984
 30
0.0
 11
200.0
 21
98.0000000000003268
 31
0.0
  0
LINE
  5
12DF6
  8
1
 10
173.7999999999998977
 20
98.0000000000003268
 30
0.0
 11
173.7999999999998977
 21
104.5000000000002984
 31
0.0
  0
LINE
  5
12DF7
  8
0
 10
205.3964536085588009
 20
58.5000000006606697
 30
0.0
 11
205.3964536085588009
 21
63.5000000006606911
 31
0.0
  0
LINE
  5
12DFE
  8
0
 10
122.593252530158793
 20
52.2100116273248887
 30
0.0
 11
133.9291586942412948
 21
52.2100116273249029
 31
0.0
  0
ARC
  5
12DFF
  8
0
 10
128.2612056122000865
 20
61.0000000006570886
 30
0.0
 40
9.9999999999999201
 50
140.0587095865263052
 51
219.9412904134752011
  0
ARC
  5
12E00
  8
0
 10
128.2612056122000865
 20
61.0000000006570886
 30
0.0
 40
10.0000000000000302
 50
320.0587095865266178
 51
39.9412904134734177
  0
LINE
  5
12E03
  8
0
 10
133.9291586942412096
 20
69.7899883739892459
 30
0.0
 11
122.5850810539572961
 21
69.7899883739892317
 31
0.0
  0
ARC
  5
12E04
  8
0
 10
128.2612056122000013
 20
69.7297140281412737
 30
0.0
 40
18.4137357522419194
 50
252.0726306826176142
 51
287.9273693173840911
  0
ARC
  5
12E05
  8
0
 10
128.2571198740992884
 20
52.2443833915475793
 30
0.0
 40
18.4396387865131217
 50
72.0853259178111756
 51
107.9146740821886965
  0
CIRCLE
  5
12E0B
  8
0
 10
128.2530341360063062
 20
61.0000000006576073
 30
0.0
 40
7.5000000000109699
  0
CIRCLE
  5
12E0C
  8
0
 10
128.2530341360063062
 20
61.0000000006576073
 30
0.0
 40
5.499999999992041
  0
ARC
  5
12E12
  8
0
 10
111.5929999955178005
 20
61.1016353801684318
 30
0.0
 40
5.9000000000002037
 50
90.0
 51
180.0000000000015916
  0
LINE
  5
12E13
  8
0
 10
111.5929999955178005
 20
67.0016353801684375
 30
0.0
 11
120.2624324080520068
 21
67.0016353801684375
 31
0.0
  0
LINE
  5
12E14
  8
0
 10
136.2599788163481946
 20
67.0016353801684517
 30
0.0
 11
144.9408985357196116
 21
67.0016353801684801
 31
0.0
  0
ARC
  5
12E15
  8
0
 10
144.9408985357194979
 20
63.7650353801684275
 30
0.0
 40
3.2366000000000521
 50
44.1999999999995126
 51
89.9999999999979678
  0
LINE
  5
12E16
  8
0
 10
147.2612514084410975
 20
66.0214799520675371
 30
0.0
 11
149.7132835180372865
 21
63.5000000006593766
 31
0.0
  0
LINE
  5
12E17
  8
0
 10
147.2612514084412112
 20
55.9785200492518413
 30
0.0
 11
149.7132835180375992
 21
58.5000000006600729
 31
0.0
  0
ARC
  5
12E18
  8
0
 10
144.9408985357196116
 20
58.2349646211509366
 30
0.0
 40
3.2365999999999948
 50
270.0000000000007958
 51
315.7999999999998977
  0
LINE
  5
12E19
  8
0
 10
105.6929999955177948
 20
60.8983646211508685
 30
0.0
 11
105.6929999955175958
 21
61.1016353801683607
 31
0.0
  0
LINE
  5
12E1A
  8
0
 10
111.5929999955178005
 20
57.4983646211508699
 30
0.0
 11
118.8943198079964958
 21
57.4983646211508983
 31
0.0
  0
LINE
  5
12E1B
  8
0
 10
137.6280914164036915
 20
57.4983646211509267
 30
0.0
 11
145.2520505578222867
 21
57.498364621150948
 31
0.0
  0
LINE
  5
12E1C
  8
0
 10
145.2520505578222867
 20
57.498364621150948
 30
0.0
 11
147.7040826674187883
 21
60.019844572559137
 31
0.0
  0
ARC
  5
12E1D
  8
0
 10
150.0244355401403027
 20
57.7634000006600417
 30
0.0
 40
3.2365999999999602
 50
90.0000000000016058
 51
135.7999999999987892
  0
ARC
  5
12E1E
  8
0
 10
150.024435540140189
 20
64.2366000006593794
 30
0.0
 40
3.2366000000000521
 50
224.2000000000003865
 51
270.0000000000007958
  0
LINE
  5
12E1F
  8
0
 10
145.2520505578222014
 20
64.5016353801684517
 30
0.0
 11
147.7040826674185894
 21
61.9801554287602769
 31
0.0
  0
LINE
  5
12E20
  8
0
 10
111.5929999955178005
 20
64.5016353801684375
 30
0.0
 11
118.8943198079984001
 21
64.5016353801684232
 31
0.0
  0
LINE
  5
12E21
  8
0
 10
137.6280914164017872
 20
64.5016353801684375
 30
0.0
 11
145.2520505578222014
 21
64.5016353801684517
 31
0.0
  0
ARC
  5
12E22
  8
0
 10
111.5929999955178005
 20
61.1016353801684318
 30
0.0
 40
3.4000000000001189
 50
90.0
 51
180.0000000000015916
  0
LINE
  5
12E23
  8
0
 10
108.1929999955177948
 20
60.8983646211508685
 30
0.0
 11
108.1929999955176953
 21
61.101635380168382
 31
0.0
  0
ARC
  5
12E24
  8
0
 10
111.5929999955178005
 20
60.8983646211508898
 30
0.0
 40
3.400000000000019
 50
180.0000000000007958
 51
270.0000000000007958
  0
LINE
  5
12E25
  8
0
 10
111.5929999955178005
 20
54.998364621150877
 30
0.0
 11
120.2624324080480989
 21
54.9983646211508983
 31
0.0
  0
LINE
  5
12E26
  8
0
 10
136.2599788163520884
 20
54.9983646211509125
 30
0.0
 11
144.9408985357196116
 21
54.9983646211509409
 31
0.0
  0
ARC
  5
12E27
  8
0
 10
111.5929999955178005
 20
60.8983646211508898
 30
0.0
 40
5.9000000000000048
 50
180.0000000000007958
 51
270.0000000000007958
  0
LINE
  5
12E28
  8
0
 10
149.7132835180372865
 20
63.5000000006593766
 30
0.0
 11
168.6999999999999886
 21
63.5000000006592913
 31
0.0
  0
LINE
  5
12E29
  8
0
 10
149.7132835180375992
 20
58.5000000006600729
 30
0.0
 11
168.6999999999999886
 21
58.5000000006599805
 31
0.0
  0
LINE
  5
12E2A
  8
0
 10
206.682545369959513
 20
65.0884491898054023
 30
0.0
 11
206.682545369959513
 21
62.5000000006570318
 31
0.0
  0
LINE
  5
12E30
  8
0
 10
206.682545369959513
 20
59.5000000006570602
 30
0.0
 11
206.6825453699595982
 21
56.9115508115087394
 31
0.0
  0
LINE
  5
12E38
  8
0
 10
239.1487388576987883
 20
62.5000000006570815
 30
0.0
 11
239.1487388576987883
 21
59.5000000006571028
 31
0.0
  0
LINE
  5
12E39
  8
0
 10
207.4470681842215924
 20
62.5000000006570318
 30
0.0
 11
207.4470681842215072
 21
59.5000000006570389
 31
0.0
  0
ARC
  5
12E48
  8
0
 10
244.0518244289974916
 20
61.0000000006570815
 30
0.0
 40
9.7524222028771153
 50
271.4187861328707072
 51
88.5812138671249301
  0
LINE
  5
12E4B
  8
0
 10
244.2932940012364895
 20
51.2505676444193767
 30
0.0
 11
239.5269904854660865
 21
51.2505676444193625
 31
0.0
  0
LINE
  5
12E4E
  8
0
 10
239.5379172601286086
 20
70.7494323568947721
 30
0.0
 11
244.2932940012372001
 21
70.7494323568947721
 31
0.0
  0
LINE
  5
12E5D
  8
0
 10
206.7558688150770934
 20
55.8833795368417512
 30
0.0
 11
204.3000000000000114
 21
55.9701113563479709
 31
0.0
  0
LINE
  5
12E5F
  8
0
 10
204.3000000000000114
 20
66.0298825720756639
 30
0.0
 11
206.7558840998885898
 21
66.116627421180965
 31
0.0
  0
ARC
  5
12E61
  8
0
 10
173.8000000000000114
 20
50.0
 30
0.0
 40
2.5
 50
270.0000000000007958
 51
90.0
  0
LINE
  5
12E62
  8
0
 10
173.0
 20
52.5
 30
0.0
 11
173.8000000000000114
 21
52.5
 31
0.0
  0
ARC
  5
12E63
  8
0
 10
173.0
 20
50.0
 30
0.0
 40
2.5
 50
90.0
 51
270.0000000000007958
  0
LINE
  5
12E64
  8
0
 10
173.8000000000000114
 20
47.5
 30
0.0
 11
173.0
 21
47.5
 31
0.0
  0
LINE
  5
12E69
  8
0
 10
204.3000000000000114
 20
45.4999999999999716
 30
0.0
 11
204.3000000000000114
 21
57.000000000656982
 31
0.0
  0
ARC
  5
12E6A
  8
0
 10
202.3000000000000114
 20
45.4999999999999716
 30
0.0
 40
2.0
 50
270.0000000000007958
 51
0.0
  0
LINE
  5
12E6B
  8
0
 10
202.3000000000000114
 20
43.4999999999999574
 30
0.0
 11
170.6999999999999886
 21
43.4999999999999574
 31
0.0
  0
ARC
  5
12E6C
  8
0
 10
170.6999999999999886
 20
45.4999999999999716
 30
0.0
 40
2.0
 50
180.0
 51
270.0000000000007958
  0
LINE
  5
12E6D
  8
0
 10
168.6999999999999886
 20
57.000000000656982
 30
0.0
 11
168.6999999999999886
 21
45.4999999999999716
 31
0.0
  0
LINE
  5
12E6F
  8
0
 10
150.0244355401403027
 20
61.0000000006569465
 30
0.0
 11
204.3000000000000114
 21
61.0000000006569465
 31
0.0
  0
LINE
  5
12E70
  8
0
 10
168.6999999999999886
 20
57.000000000656982
 30
0.0
 11
168.6999999999999886
 21
61.0000000006569465
 31
0.0
  0
LINE
  5
12E71
  8
0
 10
204.3000000000000114
 20
61.0000000006569465
 30
0.0
 11
204.3000000000000114
 21
57.000000000656982
 31
0.0
  0
LINE
  5
12E73
  8
0
 10
168.6999999999999886
 20
61.0000000006569465
 30
0.0
 11
168.6999999999999886
 21
65.000000000657991
 31
0.0
  0
LINE
  5
12E74
  8
0
 10
204.3000000000000114
 20
65.000000000657991
 30
0.0
 11
204.3000000000000114
 21
61.0000000006569465
 31
0.0
  0
ARC
  5
12E7D
  8
0
 10
170.6999999999999886
 20
76.500000001314973
 30
0.0
 40
2.0000000000000422
 50
90.0
 51
180.0
  0
LINE
  5
12E7E
  8
0
 10
170.6999999999999886
 20
78.5000000013150299
 30
0.0
 11
202.3000000000000114
 21
78.5000000013150299
 31
0.0
  0
ARC
  5
12E7F
  8
0
 10
202.3000000000000114
 20
76.500000001314973
 30
0.0
 40
2.0000000000000422
 50
0.0
 51
90.0
  0
LINE
  5
12E80
  8
0
 10
168.6999999999999886
 20
76.500000001314973
 30
0.0
 11
168.6999999999999886
 21
65.000000000657991
 31
0.0
  0
LINE
  5
12E81
  8
0
 10
204.3000000000000114
 20
65.000000000657991
 30
0.0
 11
204.3000000000000114
 21
76.500000001314973
 31
0.0
  0
LINE
  5
12E82
  8
0
 10
168.0
 20
56.000000000656982
 30
0.0
 11
168.0
 21
58.500000000656982
 31
0.0
  0
LINE
  5
12E83
  8
0
 10
168.0
 20
56.000000000656982
 30
0.0
 11
168.6999999999999886
 21
56.000000000656982
 31
0.0
  0
LINE
  5
12E87
  8
0
 10
204.3000000000000114
 20
58.500000000656982
 30
0.0
 11
206.6825453699595982
 21
58.5000000006569891
 31
0.0
  0
LINE
  5
12E8A
  8
0
 10
206.682545369959513
 20
63.5000000006578986
 30
0.0
 11
204.3000000000000114
 21
63.5000000006578986
 31
0.0
  0
LINE
  5
12E8B
  8
0
 10
168.0
 20
63.5000000006578986
 30
0.0
 11
168.0
 21
66.0000000006579484
 31
0.0
  0
LINE
  5
12E8C
  8
0
 10
168.6999999999999886
 20
66.0000000006579484
 30
0.0
 11
168.0
 21
66.0000000006579484
 31
0.0
  0
LINE
  5
12E8E
  8
0
 10
135.928232508372389
 20
54.5799767473214033
 30
0.0
 11
132.1303142944144042
 21
54.5799767473214033
 31
0.0
  0
LINE
  5
12E8F
  8
0
 10
124.375753977598194
 20
54.5799767473214033
 30
0.0
 11
120.5941787160278977
 21
54.5799767473214033
 31
0.0
  0
LINE
  5
12E90
  8
0
 10
120.5941787160278977
 20
67.4200232539927242
 30
0.0
 11
124.3757539775960055
 21
67.4200232539927526
 31
0.0
  0
LINE
  5
12E91
  8
0
 10
132.1303142944165927
 20
67.4200232539927526
 30
0.0
 11
135.928232508372389
 21
67.4200232539927384
 31
0.0
  0
LINE
  5
12E98
  8
1
 10
259.2347387333472852
 20
61.0000000006574723
 30
0.0
 11
99.710981162987693
 21
61.0000000006574723
 31
0.0
  0
LINE
  5
12E99
  8
0
 10
53.0613556952661298
 20
128.8937288196042061
 30
0.0
 11
51.3293048876972478
 21
127.8937288196042061
 31
0.0
  0
LINE
  5
12E9A
  8
0
 10
70.6706951136178532
 20
127.8937288196044051
 30
0.0
 11
68.9386443060489853
 21
128.8937288196044051
 31
0.0
  0
LINE
  5
12E9B
  8
0
 10
56.0000000007758487
 20
125.0
 30
0.0
 11
55.2264973102071721
 21
124.226497309431295
 31
0.0
  0
LINE
  5
12E9C
  8
0
 10
66.0000000006553194
 20
120.1500000000259973
 30
0.0
 11
66.7735026925535777
 21
120.9235026919242983
 31
0.0
  0
LINE
  5
12E9D
  8
0
 10
66.7735026587634053
 20
124.2264973417758966
 30
0.0
 11
66.0000000006576357
 21
124.9999999998816946
 31
0.0
  0
LINE
  5
12E9E
  8
0
 10
55.2264973087670228
 20
120.9235026919188982
 30
0.0
 11
56.0000000006598526
 21
120.1500000000259973
 31
0.0
  0
LINE
  5
12E9F
  8
0
 10
51.3293048877024631
 20
138.1062711804009098
 30
0.0
 11
53.061355695271331
 21
137.1062711804009098
 31
0.0
  0
LINE
  5
12EA0
  8
0
 10
68.9386443060542433
 20
137.1062711804009098
 30
0.0
 11
70.6706951136231396
 21
138.1062711804009098
 31
0.0
  0
LINE
  5
12EA1
  8
0
 10
56.0000000006934613
 20
145.8499999999175998
 30
0.0
 11
55.2264973102124301
 21
145.0764973094366042
 31
0.0
  0
LINE
  5
12EA2
  8
0
 10
55.2264973087719468
 20
141.7735026919243069
 30
0.0
 11
56.0000000006628227
 21
141.0000000000333955
 31
0.0
  0
LINE
  5
12EA3
  8
0
 10
66.0000000006627943
 20
141.0000000000335092
 30
0.0
 11
66.773502692553464
 21
141.7735026919241079
 31
0.0
  0
LINE
  5
12EA4
  8
0
 10
66.7735026928469466
 20
145.0764973077027946
 30
0.0
 11
66.000000000632113
 21
145.8499999999175998
 31
0.0
  0
LINE
  5
12EA5
  8
0
 10
68.5000000006690328
 20
107.9693769939563026
 30
0.0
 11
66.500000000674234
 21
112.9693769938805019
 31
0.0
  0
LINE
  5
12EA6
  8
0
 10
55.5000000006419114
 20
112.9693769938805019
 30
0.0
 11
53.5000000006470984
 21
107.9693769939563026
 31
0.0
  0
LINE
  5
12EA7
  8
0
 10
53.5000000006471197
 20
107.9693769939563026
 30
0.0
 11
55.4923442491361669
 21
100.0
 31
0.0
  0
LINE
  5
12EA8
  8
0
 10
66.5076557521799714
 20
99.9999999999999858
 30
0.0
 11
68.5000000006690328
 21
107.9693769939563026
 31
0.0
  0
LINE
  5
12EA9
  8
0
 10
58.0000000006580692
 20
154.4693769938805019
 30
0.0
 11
58.0000000006580692
 21
145.8499999999482952
 31
0.0
  0
LINE
  5
12EAA
  8
0
 10
58.0000000006580692
 20
120.1500000000236952
 30
0.0
 11
58.0000000006580692
 21
112.9693769938805019
 31
0.0
  0
LINE
  5
12EAB
  8
0
 10
64.000000000658062
 20
112.9693769938805019
 30
0.0
 11
64.000000000658062
 21
120.1500000000237947
 31
0.0
  0
LINE
  5
12EAC
  8
0
 10
64.000000000658062
 20
145.8499999999482952
 30
0.0
 11
64.000000000658062
 21
154.4693769938805872
 31
0.0
  0
ARC
  5
12EAD
  8
0
 10
55.0000000006569394
 20
134.7999999999917975
 30
0.0
 40
0.5
 50
90.1874010212562069
 51
180.0
  0
ARC
  5
12EAE
  8
0
 10
55.0000000006569607
 20
130.2999999999917975
 30
0.0
 40
0.5
 50
180.0
 51
269.8125989787404819
  0
ARC
  5
12EAF
  8
0
 10
67.0000000006569394
 20
134.7999999999917975
 30
0.0
 40
0.5
 50
0.0
 51
89.8125989779702962
  0
ARC
  5
12EB0
  8
0
 10
67.0000000006569536
 20
130.2999999999917975
 30
0.0
 40
0.5
 50
270.1874010220265063
 51
0.0
  0
ARC
  5
12EB1
  8
0
 10
55.0000000006568683
 20
121.7262605541411062
 30
0.0
 40
0.5000000000000236
 50
180.0
 51
247.8592099309842069
  0
ARC
  5
12EB2
  8
0
 10
67.0000000006568825
 20
121.7262605541411062
 30
0.0
 40
0.5
 50
292.1407900637623243
 51
0.0000000000032569
  0
ARC
  5
12EBB
  8
0
 10
55.0000000006578631
 20
116.2999999999999972
 30
0.0
 40
0.5
 50
180.0
 51
270.0000000000007958
  0
ARC
  5
12EBC
  8
0
 10
55.0000000006578276
 20
120.7999999999999972
 30
0.0
 40
0.5
 50
90.0
 51
180.0
  0
LINE
  5
12EBD
  8
0
 10
55.0000000006578631
 20
115.7999999999999972
 30
0.0
 11
56.000000000656982
 21
115.7999999999999972
 31
0.0
  0
LINE
  5
12EBE
  8
0
 10
55.2264973107837989
 20
121.2999999999999972
 30
0.0
 11
55.0000000006578276
 21
121.2999999999999972
 31
0.0
  0
LINE
  5
12EBF
  8
0
 10
67.0000000006578347
 20
121.2999999999999972
 30
0.0
 11
66.7735026905338884
 21
121.2999999999999972
 31
0.0
  0
LINE
  5
12EC0
  8
0
 10
66.0000000006579199
 20
115.7999999999999972
 30
0.0
 11
67.0000000006578631
 21
115.7999999999999972
 31
0.0
  0
ARC
  5
12EC1
  8
0
 10
67.0000000006578631
 20
116.2999999999999972
 30
0.0
 40
0.5
 50
270.0000000000007958
 51
0.0000000000032569
  0
ARC
  5
12EC2
  8
0
 10
67.0000000006578347
 20
120.7999999999999972
 30
0.0
 40
0.5
 50
0.0
 51
90.0
  0
LINE
  5
12EC7
  8
0
 10
54.5799767473219504
 20
125.0
 30
0.0
 11
67.4200232539932784
 21
125.0000000000000995
 31
0.0
  0
LINE
  5
12ECE
  8
0
 10
53.9420624348943178
 20
127.368300000000005
 30
0.0
 11
53.0613556952660872
 21
128.8937288196042061
 31
0.0
  0
LINE
  5
12ECF
  8
0
 10
51.3293048876971767
 20
127.8937288196042061
 30
0.0
 11
52.2100116273254287
 21
126.368300000000005
 31
0.0
  0
LINE
  5
12ED0
  8
0
 10
68.9386443060489711
 20
128.8937288196042914
 30
0.0
 11
68.0579375664209323
 21
127.3683000000001044
 31
0.0
  0
LINE
  5
12ED1
  8
0
 10
69.7899883739897717
 20
126.3683000000001044
 30
0.0
 11
70.6706951136178958
 21
127.8937288196043056
 31
0.0
  0
LINE
  5
12ED8
  8
0
 10
58.1132486370103507
 20
124.2264973256847043
 30
0.0
 11
58.1132486547122724
 21
120.9235026919187987
 31
0.0
  0
LINE
  5
12EDA
  8
0
 10
63.8867513466001498
 20
120.9235026919216978
 30
0.0
 11
63.8867513112069219
 21
124.2264973256849032
 31
0.0
  0
LINE
  5
12EE0
  8
0
 10
66.773502692551105
 20
120.9235026919216978
 30
0.0
 11
66.7735026748541145
 21
124.2264973256853011
 31
0.0
  0
LINE
  5
12EE2
  8
0
 10
55.226497326460489
 20
124.2264973256846048
 30
0.0
 11
55.2264973087669873
 21
120.9235026919187987
 31
0.0
  0
LINE
  5
12EE4
  8
0
 10
66.0000000006552909
 20
120.1500000000256989
 30
0.0
 11
56.0000000006598526
 21
120.1500000000259973
 31
0.0
  0
LINE
  5
12EE7
  8
0
 10
54.5799767473271586
 20
139.0000000000052012
 30
0.0
 11
54.9983646211514881
 21
139.0000000000052012
 31
0.0
  0
LINE
  5
12EE8
  8
0
 10
67.0016353801691054
 20
139.0000000000052012
 30
0.0
 11
67.4200232539985791
 21
139.0000000000052012
 31
0.0
  0
LINE
  5
12EEA
  8
0
 10
67.4200232539985649
 20
141.0000000000052012
 30
0.0
 11
54.5799767473272084
 21
141.0000000000052012
 31
0.0
  0
LINE
  5
12EF1
  8
0
 10
53.0613556952713168
 20
137.1062711804009098
 30
0.0
 11
53.9420624348995688
 21
138.6317000000051962
 31
0.0
  0
LINE
  5
12EF2
  8
0
 10
52.2100116273307009
 20
139.6317000000051962
 30
0.0
 11
51.3293048877024631
 21
138.1062711804009098
 31
0.0
  0
LINE
  5
12EF3
  8
0
 10
70.6706951136231538
 20
138.1062711804009098
 30
0.0
 11
69.789988373995044
 21
139.631700000005111
 31
0.0
  0
LINE
  5
12EF4
  8
0
 10
68.0579375664261619
 20
138.6317000000051962
 30
0.0
 11
68.9386443060542433
 21
137.1062711804009098
 31
0.0
  0
LINE
  5
12EFB
  8
0
 10
58.1132486547119598
 20
141.7735026919268932
 30
0.0
 11
58.1132486370151184
 21
145.0764973256904113
 31
0.0
  0
LINE
  5
12EFD
  8
0
 10
63.8867513112114622
 20
145.0764973256904113
 30
0.0
 11
63.8867513466081789
 21
141.7735026919239942
 31
0.0
  0
LINE
  5
12F03
  8
0
 10
66.7735026960833125
 20
145.0764973044663861
 30
0.0
 11
66.7735026925534498
 21
141.7735026919241079
 31
0.0
  0
LINE
  5
12F05
  8
0
 10
55.2264973087693818
 20
141.7735026919268932
 30
0.0
 11
55.2264973264659815
 21
145.0764973256900987
 31
0.0
  0
LINE
  5
12F07
  8
0
 10
66.000000000632113
 20
145.8499999999175998
 30
0.0
 11
56.0000000006934613
 21
145.8499999999216925
 31
0.0
  0
LINE
  5
12F09
  8
0
 10
68.5000000006690328
 20
107.9693769939563026
 30
0.0
 11
53.5000000006470984
 21
107.9693769939563026
 31
0.0
  0
LINE
  5
12F0A
  8
0
 10
55.5000000006418901
 20
112.9693769938805019
 30
0.0
 11
66.5000000006742482
 21
112.9693769938805019
 31
0.0
  0
LINE
  5
12F0D
  8
0
 10
67.0016353801690911
 20
138.9999999999965894
 30
0.0
 11
61.1016353801690926
 21
138.9999999999965894
 31
0.0
  0
LINE
  5
12F0E
  8
0
 10
67.0016353801690911
 20
138.9999999999965894
 30
0.0
 11
67.0016353801690911
 21
126.9999999999964047
 31
0.0
  0
LINE
  5
12F0F
  8
0
 10
61.1016353801690926
 20
138.9999999999965894
 30
0.0
 11
61.1016353801690713
 21
126.9999999999965041
 31
0.0
  0
LINE
  5
12F10
  8
0
 10
54.5799767473219504
 20
127.0
 30
0.0
 11
67.4322172683701524
 21
126.9999999999963052
 31
0.0
  0
LINE
  5
12F11
  8
0
 10
60.8983646211515719
 20
126.9999999999961062
 30
0.0
 11
60.898364621151579
 21
138.9999999999961062
 31
0.0
  0
LINE
  5
12F12
  8
0
 10
61.1016353801690926
 20
138.9999999999965894
 30
0.0
 11
60.898364621151579
 21
138.9999999999961062
 31
0.0
  0
LINE
  5
12F14
  8
0
 10
54.9983646211515378
 20
126.9999999999960067
 30
0.0
 11
54.9983646211515378
 21
138.9999999999961062
 31
0.0
  0
LINE
  5
12F15
  8
0
 10
54.9983646211515378
 20
138.9999999999961062
 30
0.0
 11
60.898364621151579
 21
138.9999999999961062
 31
0.0
  0
LINE
  5
12F17
  8
0
 10
54.5000000006569607
 20
130.2999999999917975
 30
0.0
 11
54.5000000006569394
 21
134.7999999999917975
 31
0.0
  0
LINE
  5
12F1A
  8
0
 10
67.5000000006569394
 20
134.7999999999917975
 30
0.0
 11
67.5000000006570104
 21
130.2999999999917975
 31
0.0
  0
LINE
  5
12F1B
  8
0
 10
54.5000000006568683
 20
121.7262605541411062
 30
0.0
 11
54.5000000006568683
 21
125.0003433346987975
 31
0.0
  0
LINE
  5
12F1C
  8
0
 10
67.5000000006568825
 20
125.001235194330107
 30
0.0
 11
67.5000000006568825
 21
121.7262605541412057
 31
0.0
  0
LINE
  5
12F28
  8
0
 10
51.2505676444186591
 20
122.3865843971724985
 30
0.0
 11
51.2505676444186591
 21
124.3429082695284933
 31
0.0
  0
LINE
  5
12F36
  8
0
 10
70.7494323568940899
 20
124.3427395556769994
 30
0.0
 11
70.7494323568940331
 21
122.3865843979211974
 31
0.0
  0
LINE
  5
12F39
  8
0
 10
56.0000000006570176
 20
113.680310100656996
 30
0.0
 11
58.0000000006580692
 21
113.680310100656996
 31
0.0
  0
LINE
  5
12F3C
  8
0
 10
64.000000000658062
 20
113.6803101006570955
 30
0.0
 11
66.000000000657991
 21
113.6803101006570955
 31
0.0
  0
LINE
  5
12F3D
  8
0
 10
43.5
 20
100.0
 30
0.0
 11
43.5
 21
102.4999999999999005
 31
0.0
  0
LINE
  5
12F43
  8
0
 10
78.5000000013150441
 20
102.5000000000002984
 30
0.0
 11
67.1326557521799998
 21
102.5000000000000995
 31
0.0
  0
LINE
  5
12F44
  8
0
 10
78.5000000013150441
 20
99.9999999999999574
 30
0.0
 11
43.5
 21
100.0
 31
0.0
  0
LINE
  5
12F45
  8
0
 10
54.8673442491361811
 20
102.5
 30
0.0
 11
43.5
 21
102.5
 31
0.0
  0
LINE
  5
12F46
  8
0
 10
66.0000000006579342
 20
112.9693769938805019
 30
0.0
 11
66.0000000006583605
 21
120.1500000000256989
 31
0.0
  0
LINE
  5
12F47
  8
0
 10
56.0000000006598526
 20
120.1500000000259973
 30
0.0
 11
56.0000000006570176
 21
112.9693769938805019
 31
0.0
  0
LINE
  5
12F48
  8
0
 10
78.5000000013150441
 20
102.500000000000199
 30
0.0
 11
78.5000000013150441
 21
100.0000000000002984
 31
0.0
  0
LINE
  5
12F4B
  8
0
 10
54.5000000006578773
 20
117.2766170751335011
 30
0.0
 11
54.5000000006578418
 21
120.7999999999999972
 31
0.0
  0
LINE
  5
12F4C
  8
0
 10
54.5000000006578631
 20
116.2999999999999972
 30
0.0
 11
54.5000000006578773
 21
117.2766170751335011
 31
0.0
  0
LINE
  5
12F4D
  8
0
 10
67.5000000006578773
 20
117.2766170751335011
 30
0.0
 11
67.5000000006578631
 21
116.2999999999999972
 31
0.0
  0
LINE
  5
12F4E
  8
0
 10
67.5000000006578347
 20
120.7999999999999972
 30
0.0
 11
67.5000000006578773
 21
117.2766170751335011
 31
0.0
  0
LINE
  5
12F5C
  8
0
 10
56.0000000006570176
 20
118.8503101006568983
 30
0.0
 11
58.0000000006580692
 21
118.8503101006568983
 31
0.0
  0
LINE
  5
12F5D
  8
0
 10
66.0000000006579484
 20
118.8503101006570972
 30
0.0
 11
64.000000000658062
 21
118.8503101006570972
 31
0.0
  0
LINE
  5
12F62
  8
1
 10
61.0000000006573302
 20
160.261959918231895
 30
0.0
 11
61.0000000006573302
 21
94.6598192467692456
 31
0.0
  0
LINE
  5
12F63
  8
1
 10
72.0000000013150014
 20
98.0000000000003268
 30
0.0
 11
72.0000000013149872
 21
104.5000000000002984
 31
0.0
  0
LINE
  5
12F64
  8
1
 10
50.0
 20
97.9999999999999716
 30
0.0
 11
49.9999999999999787
 21
104.5
 31
0.0
  0
LINE
  5
12F65
  8
0
 10
303.0613556952663998
 20
128.8937288196044051
 30
0.0
 11
301.3293048876976172
 21
127.8937288196044051
 31
0.0
  0
LINE
  5
12F66
  8
0
 10
320.6706951136180805
 20
127.8937288196042061
 30
0.0
 11
318.9386443060492979
 21
128.8937288196042061
 31
0.0
  0
LINE
  5
12F67
  8
0
 10
301.329304887692274
 20
138.1062711804009098
 30
0.0
 11
303.0613556952612271
 21
137.1062711804009098
 31
0.0
  0
LINE
  5
12F68
  8
0
 10
318.9386443060441252
 20
137.1062711804009098
 30
0.0
 11
320.6706951136130215
 21
138.1062711804009098
 31
0.0
  0
LINE
  5
12F69
  8
0
 10
306.0000000006833147
 20
145.8499999999175998
 30
0.0
 11
305.2264973020281786
 21
145.0764973012626058
 31
0.0
  0
LINE
  5
12F6A
  8
0
 10
305.2264973087620206
 20
141.7735026919241079
 30
0.0
 11
306.0000000006526193
 21
141.0000000000335092
 31
0.0
  0
LINE
  5
12F6B
  8
0
 10
316.0000000006526193
 20
141.0000000000333955
 30
0.0
 11
316.7735026925486181
 21
141.7735026919293944
 31
0.0
  0
LINE
  5
12F6C
  8
0
 10
316.7735026587591278
 20
145.0764973417805095
 30
0.0
 11
316.0000000006219238
 21
145.8499999999175998
 31
0.0
  0
LINE
  5
12F6D
  8
0
 10
318.5000000006683081
 20
107.9693769939563026
 30
0.0
 11
316.5000000006734808
 21
112.9693769938805019
 31
0.0
  0
LINE
  5
12F6E
  8
0
 10
305.5000000006411938
 20
112.9693769938805019
 30
0.0
 11
303.5000000006464234
 21
107.9693769939563026
 31
0.0
  0
LINE
  5
12F6F
  8
0
 10
303.5000000006464234
 20
107.9693769939563026
 30
0.0
 11
304.8673442491353853
 21
102.5000000000000995
 31
0.0
  0
LINE
  5
12F72
  8
0
 10
317.1326557521791756
 20
102.5
 30
0.0
 11
318.5000000006683081
 21
107.9693769939563026
 31
0.0
  0
LINE
  5
12F73
  8
0
 10
308.0000000006572805
 20
154.4693769938807861
 30
0.0
 11
308.0000000006572805
 21
145.8499999999482952
 31
0.0
  0
LINE
  5
12F74
  8
0
 10
314.0000000006572805
 20
145.8499999999482952
 30
0.0
 11
314.0000000006572805
 21
154.469376993880303
 31
0.0
  0
LINE
  5
12F75
  8
0
 10
308.5000000006543246
 20
113.2652209935576053
 30
0.0
 11
313.5000000006542109
 21
113.2652209935576053
 31
0.0
  0
LINE
  5
12F7B
  8
0
 10
318.7494323568956247
 20
126.046585459342495
 30
0.0
 11
303.2505676444200731
 21
126.0465854593425945
 31
0.0
  0
ARC
  5
12F82
  8
0
 10
305.0000000006580194
 20
130.2999999999917975
 30
0.0
 40
0.5
 50
180.0
 51
270.0000000000007958
  0
ARC
  5
12F83
  8
0
 10
305.0000000006580194
 20
134.7999999999917975
 30
0.0
 40
0.5
 50
90.0
 51
180.0
  0
LINE
  5
12F84
  8
0
 10
305.0000000006580194
 20
129.7999999999917975
 30
0.0
 11
305.9969137671658928
 21
129.7999999999917975
 31
0.0
  0
LINE
  5
12F85
  8
0
 10
306.0000000006580194
 20
135.2999999999917975
 30
0.0
 11
305.0000000006580194
 21
135.2999999999917975
 31
0.0
  0
LINE
  5
12F86
  8
0
 10
317.0000000006580194
 20
135.2999999999917975
 30
0.0
 11
316.0000000006580194
 21
135.2999999999917975
 31
0.0
  0
LINE
  5
12F87
  8
0
 10
316.0030985006858941
 20
129.7999999999917975
 30
0.0
 11
317.0000000006579057
 21
129.7999999999917975
 31
0.0
  0
ARC
  5
12F88
  8
0
 10
317.0000000006579057
 20
130.2999999999917975
 30
0.0
 40
0.5
 50
270.0000000000007958
 51
0.0
  0
ARC
  5
12F89
  8
0
 10
317.0000000006579057
 20
134.7999999999917975
 30
0.0
 40
0.5
 50
0.0
 51
89.9999999999934914
  0
ARC
  5
12F8A
  8
0
 10
305.0000000006571099
 20
116.2999999999999972
 30
0.0
 40
0.5
 50
180.0
 51
270.0000000000007958
  0
LINE
  5
12F8B
  8
0
 10
305.0000000006571099
 20
115.7999999999999972
 30
0.0
 11
306.0000000006569962
 21
115.7999999999999972
 31
0.0
  0
LINE
  5
12F8C
  8
0
 10
316.0000000006580194
 20
115.7999999999999972
 30
0.0
 11
317.0000000006571099
 21
115.7999999999999972
 31
0.0
  0
ARC
  5
12F8D
  8
0
 10
317.0000000006571099
 20
116.2999999999999972
 30
0.0
 40
0.5
 50
270.0000000000007958
 51
0.0
  0
LINE
  5
12F8F
  8
0
 10
317.42002325399352
 20
127.0
 30
0.0
 11
317.0563718540387868
 21
127.0
 31
0.0
  0
LINE
  5
12F90
  8
0
 10
304.9434379962768844
 20
127.0000000000000995
 30
0.0
 11
304.5799767473221777
 21
127.0000000000000995
 31
0.0
  0
LINE
  5
12F97
  8
0
 10
302.582325788698995
 20
125.9316458886822971
 30
0.0
 11
302.2100116273256845
 21
126.3683000000001044
 31
0.0
  0
LINE
  5
12F98
  8
0
 10
303.9420624348945807
 20
127.3683000000001044
 30
0.0
 11
303.0613556952663998
 21
128.8937288196042914
 31
0.0
  0
LINE
  5
12F99
  8
0
 10
301.3293048876976172
 20
127.8937288196043056
 30
0.0
 11
302.2100116273256845
 21
126.3683000000001044
 31
0.0
  0
LINE
  5
12F9A
  8
0
 10
319.7899883739900133
 20
126.368300000000005
 30
0.0
 11
320.6706951136181942
 21
127.8937288196042061
 31
0.0
  0
LINE
  5
12F9B
  8
0
 10
318.9386443060492979
 20
128.8937288196042061
 30
0.0
 11
318.057937566421117
 21
127.368300000000005
 31
0.0
  0
LINE
  5
12F9D
  8
0
 10
304.5799767473168913
 20
139.0000000000052012
 30
0.0
 11
304.9983646211464929
 21
139.0000000000052012
 31
0.0
  0
LINE
  5
12F9E
  8
0
 10
317.0016353801639752
 20
139.0000000000052012
 30
0.0
 11
317.4200232539881767
 21
139.0000000000052012
 31
0.0
  0
LINE
  5
12FA0
  8
0
 10
317.4200232539881767
 20
141.0000000000052012
 30
0.0
 11
304.5799767473168913
 21
141.0000000000052012
 31
0.0
  0
LINE
  5
12FA7
  8
0
 10
303.0613556952612271
 20
137.1062711804009098
 30
0.0
 11
303.9420624348892943
 21
138.6317000000051962
 31
0.0
  0
LINE
  5
12FA8
  8
0
 10
302.210011627320398
 20
139.631700000005111
 30
0.0
 11
301.329304887692274
 21
138.1062711804009098
 31
0.0
  0
LINE
  5
12FA9
  8
0
 10
318.0579375664160011
 20
138.6317000000051962
 30
0.0
 11
318.9386443060441252
 21
137.1062711804009098
 31
0.0
  0
LINE
  5
12FAA
  8
0
 10
320.6706951136130215
 20
138.1062711804009098
 30
0.0
 11
319.7899883739847269
 21
139.631700000005111
 31
0.0
  0
LINE
  5
12FB5
  8
0
 10
308.113248637005313
 20
145.0764973256897861
 30
0.0
 11
308.1132486547073199
 21
141.7735026919241079
 31
0.0
  0
LINE
  5
12FB6
  8
0
 10
313.8867513112022039
 20
145.0764973256898998
 30
0.0
 11
313.8867513465979187
 21
141.7735026919241079
 31
0.0
  0
LINE
  5
12FB9
  8
0
 10
316.7735026925460033
 20
141.7735026919268932
 30
0.0
 11
316.7735026748493965
 21
145.0764973256900987
 31
0.0
  0
LINE
  5
12FBB
  8
0
 10
305.2264973052321011
 20
145.0764973044663861
 30
0.0
 11
305.2264973087619069
 21
141.7735026919241079
 31
0.0
  0
LINE
  5
12FBD
  8
0
 10
316.0000000006219238
 20
145.8499999999175998
 30
0.0
 11
306.0000000006833147
 21
145.8499999999218062
 31
0.0
  0
LINE
  5
12FBF
  8
0
 10
308.5000000006572236
 20
107.9693769939563026
 30
0.0
 11
303.5000000006464234
 21
107.9693769939563026
 31
0.0
  0
LINE
  5
12FC0
  8
0
 10
318.5000000006683081
 20
107.9693769939563026
 30
0.0
 11
313.5000000006581899
 21
107.9693769939563026
 31
0.0
  0
LINE
  5
12FC1
  8
0
 10
311.0000000006572805
 20
112.9693769938805019
 30
0.0
 11
313.5000000006581899
 21
112.9693769938805019
 31
0.0
  0
LINE
  5
12FC2
  8
0
 10
316.0000000006581899
 20
112.9693769938805019
 30
0.0
 11
316.5000000006734808
 21
112.9693769938805019
 31
0.0
  0
LINE
  5
12FC3
  8
0
 10
305.5000000006411938
 20
112.9693769938805019
 30
0.0
 11
306.0000000006572805
 21
112.9693769938805019
 31
0.0
  0
LINE
  5
12FC4
  8
0
 10
308.5000000006572805
 20
112.9693769938805019
 30
0.0
 11
311.0000000006572805
 21
112.9693769938805019
 31
0.0
  0
LINE
  5
12FCB
  8
0
 10
308.5000000006555183
 20
136.9999999999965894
 30
0.0
 11
313.5000000006547793
 21
136.9999999999961915
 31
0.0
  0
LINE
  5
12FCD
  8
0
 10
308.5000000006555751
 20
138.9999999999965894
 30
0.0
 11
313.5000000006547793
 21
138.9999999999961915
 31
0.0
  0
LINE
  5
12FD0
  8
0
 10
313.500000000654893
 20
138.9999999999965894
 30
0.0
 11
316.0214799520630891
 21
138.9999999999961062
 31
0.0
  0
LINE
  5
12FD1
  8
0
 10
308.5000000006555751
 20
138.9999999999965894
 30
0.0
 11
305.9785200492473791
 21
138.9999999999965894
 31
0.0
  0
LINE
  5
12FD2
  8
0
 10
317.0016353801639752
 20
127.7038342970446934
 30
0.0
 11
317.0016353801639752
 21
129.8000026744651052
 31
0.0
  0
LINE
  5
12FD3
  8
0
 10
317.0016353801639752
 20
135.2999973255184898
 30
0.0
 11
317.0016353801639752
 21
138.9999999999961062
 31
0.0
  0
LINE
  5
12FD4
  8
0
 10
316.0214799520630891
 20
138.9999999999961062
 30
0.0
 11
317.0016353801639752
 21
138.9999999999961062
 31
0.0
  0
LINE
  5
12FD5
  8
0
 10
304.9983646211464929
 20
138.9999999999965894
 30
0.0
 11
304.9983646211463792
 21
135.2999973255184898
 31
0.0
  0
LINE
  5
12FD6
  8
0
 10
304.9983646211463792
 20
129.8000026744651052
 30
0.0
 11
304.9983646211464929
 21
127.7043710957135971
 31
0.0
  0
LINE
  5
12FD7
  8
0
 10
305.9785200492473791
 20
138.9999999999965894
 30
0.0
 11
304.9983646211464929
 21
138.9999999999965894
 31
0.0
  0
LINE
  5
12FDC
  8
0
 10
320.7494323568956247
 20
122.3865843979210979
 30
0.0
 11
320.7494323568956247
 21
122.8711795514470992
 31
0.0
  0
LINE
  5
12FDE
  8
0
 10
301.2505676444200731
 20
122.3865843979211974
 30
0.0
 11
301.2505676444200731
 21
124.0465854593425945
 31
0.0
  0
LINE
  5
12FE8
  8
0
 10
320.7494323568956247
 20
124.046585459342495
 30
0.0
 11
320.7494323568956247
 21
122.8711795514470992
 31
0.0
  0
LINE
  5
12FEC
  8
0
 10
314.862763546306212
 20
129.3754331966601114
 30
0.0
 11
307.1372364550095995
 21
129.3754331966601967
 31
0.0
  0
LINE
  5
12FEE
  8
0
 10
306.0000000006580194
 20
130.3710529128047142
 30
0.0
 11
306.0000000006580194
 21
137.5122543720985959
 31
0.0
  0
LINE
  5
12FF3
  8
0
 10
316.0000000006580194
 20
137.5122543720985959
 30
0.0
 11
316.0000000006580194
 21
130.3710529128047142
 31
0.0
  0
LINE
  5
12FF5
  8
0
 10
306.9814033735685825
 20
132.5618989431945067
 30
0.0
 11
308.5000000006580194
 21
132.5618989431945067
 31
0.0
  0
LINE
  5
12FF7
  8
0
 10
313.5000000006580194
 20
132.5618989431945067
 30
0.0
 11
315.0185966277472858
 21
132.561898943194393
 31
0.0
  0
LINE
  5
12FF8
  8
0
 10
306.0000000006580194
 20
137.5122543720985959
 30
0.0
 11
308.5000000006580194
 21
137.5122543720985959
 31
0.0
  0
LINE
  5
12FFA
  8
0
 10
308.5000000006555751
 20
138.9999999999965894
 30
0.0
 11
308.5000000006580194
 21
132.5618989431945067
 31
0.0
  0
LINE
  5
12FFB
  8
0
 10
313.5000000006580194
 20
137.5122543720985959
 30
0.0
 11
316.0000000006580194
 21
137.5122543720985959
 31
0.0
  0
LINE
  5
12FFD
  8
0
 10
313.5000000006580194
 20
132.5618989431943078
 30
0.0
 11
313.500000000654893
 21
138.9999999999965894
 31
0.0
  0
LINE
  5
13000
  8
0
 10
304.5000000006579057
 20
130.2999999999917975
 30
0.0
 11
304.5000000006580194
 21
134.7999999999917975
 31
0.0
  0
LINE
  5
13001
  8
0
 10
317.5000000006580194
 20
134.7999999999917975
 30
0.0
 11
317.5000000006580194
 21
130.2999999999917975
 31
0.0
  0
LINE
  5
13003
  8
0
 10
306.0000000006569962
 20
113.6803101006570955
 30
0.0
 11
306.0000000006571099
 21
118.8904391766379973
 31
0.0
  0
LINE
  5
13004
  8
0
 10
306.0000000006569962
 20
113.6803101006570955
 30
0.0
 11
308.5000000006569962
 21
113.6803101006570955
 31
0.0
  0
LINE
  5
13005
  8
0
 10
316.0000000006580194
 20
118.8904383031161984
 30
0.0
 11
316.0000000006580194
 21
113.680310100656996
 31
0.0
  0
LINE
  5
13006
  8
0
 10
313.5000000006580194
 20
113.680310100656996
 30
0.0
 11
316.0000000006580194
 21
113.680310100656996
 31
0.0
  0
LINE
  5
13008
  8
0
 10
293.5
 20
100.0000000000002984
 30
0.0
 11
293.5
 21
102.500000000000199
 31
0.0
  0
ARC
  5
1300C
  8
0
 10
307.0000000006569962
 20
104.000000000000199
 30
0.0
 40
1.500000000000028
 50
269.9999999999988063
 51
0.0
  0
LINE
  5
1300D
  8
0
 10
308.5000000006569962
 20
108.024973714341499
 30
0.0
 11
308.5000000006568825
 21
104.0000000000000995
 31
0.0
  0
LINE
  5
1300E
  8
0
 10
306.947978192668586
 20
109.5769955223297956
 30
0.0
 11
308.5000000006569962
 21
108.024973714341499
 31
0.0
  0
ARC
  5
1300F
  8
0
 10
309.2366000006571198
 20
111.8656173303182015
 30
0.0
 40
3.236600000000037
 50
179.9999999999992042
 51
225.0000000000005116
  0
LINE
  5
13010
  8
0
 10
308.5000000006569962
 20
111.5605076202741941
 30
0.0
 11
310.0520218086454065
 21
110.008485812285798
 31
0.0
  0
ARC
  5
13011
  8
0
 10
307.7634000006569863
 20
107.7198640042974063
 30
0.0
 40
3.2366000000009758
 50
359.9999999999984084
 51
44.9999999999994031
  0
ARC
  5
13012
  8
0
 10
314.2366000006579156
 20
107.7198640042971931
 30
0.0
 40
3.2365999999999771
 50
134.9999999999986926
 51
179.9999999999992042
  0
LINE
  5
13013
  8
0
 10
311.9479781926696091
 20
110.0084858122856986
 30
0.0
 11
313.5000000006580194
 21
111.5605076202739951
 31
0.0
  0
ARC
  5
13014
  8
0
 10
312.7634000006580095
 20
111.8656173303181021
 30
0.0
 40
3.236600000000057
 50
315.0000000000010232
 51
0.0
  0
LINE
  5
13015
  8
0
 10
313.5000000006580194
 20
108.0249737143413995
 30
0.0
 11
315.0520218086463728
 21
109.5769955223295966
 31
0.0
  0
LINE
  5
13016
  8
0
 10
313.5000000006579057
 20
104.0
 30
0.0
 11
313.5000000006580194
 21
108.0249737143413995
 31
0.0
  0
ARC
  5
13017
  8
0
 10
315.0000000006579057
 20
104.0
 30
0.0
 40
1.500000000000056
 50
179.9999999999974989
 51
269.9999999999988063
  0
LINE
  5
13018
  8
0
 10
328.5000000013150157
 20
102.4999999999999005
 30
0.0
 11
315.0000000006579057
 21
102.5
 31
0.0
  0
ARC
  5
1301B
  8
0
 10
315.0000000006579057
 20
104.0
 30
0.0
 40
4.0
 50
179.9999999999992042
 51
270.0000000000007958
  0
ARC
  5
1301C
  8
0
 10
307.0000000006569962
 20
104.000000000000199
 30
0.0
 40
4.0000000000009663
 50
270.0
 51
359.9999999999992042
  0
LINE
  5
1301D
  8
0
 10
328.5000000013150157
 20
99.9999999999999147
 30
0.0
 11
293.5
 21
100.0000000000002984
 31
0.0
  0
LINE
  5
1301E
  8
0
 10
307.0000000006568825
 20
102.5000000000000995
 30
0.0
 11
293.5
 21
102.500000000000199
 31
0.0
  0
LINE
  5
1301F
  8
0
 10
316.0000000006580194
 20
111.8656173303181021
 30
0.0
 11
316.0000000006580194
 21
113.680310100656996
 31
0.0
  0
LINE
  5
13020
  8
0
 10
313.5000000006580194
 20
111.5605076202739951
 30
0.0
 11
313.5000000006580194
 21
118.5804329555970043
 31
0.0
  0
LINE
  5
13021
  8
0
 10
308.5000000006569962
 20
118.5804333879034971
 30
0.0
 11
308.5000000006569962
 21
111.5605076202741941
 31
0.0
  0
LINE
  5
13022
  8
0
 10
306.0000000006569962
 20
113.6803101006570955
 30
0.0
 11
306.0000000006571099
 21
111.8656173303182015
 31
0.0
  0
LINE
  5
13023
  8
0
 10
328.5000000013150157
 20
102.4999999999999005
 30
0.0
 11
328.5000000013150157
 21
100.0
 31
0.0
  0
LINE
  5
13026
  8
0
 10
304.5000000006571099
 20
116.2999999999999972
 30
0.0
 11
304.5000000006572236
 21
119.2305212668257042
 31
0.0
  0
LINE
  5
13027
  8
0
 10
317.5000000006571099
 20
119.230521266823601
 30
0.0
 11
317.5000000006571099
 21
116.2999999999999972
 31
0.0
  0
LINE
  5
13029
  8
0
 10
316.0214799520630891
 20
135.2999999999917975
 30
0.0
 11
316.0214799520630891
 21
138.9999999999961062
 31
0.0
  0
LINE
  5
1302A
  8
0
 10
305.9785200492473791
 20
138.9999999999965894
 30
0.0
 11
305.9785200492473791
 21
135.2999999999917975
 31
0.0
  0
LINE
  5
1303A
  8
1
 10
311.0000000006571099
 20
95.2517323447873707
 30
0.0
 11
311.0000000006571099
 21
159.7627085588956106
 31
0.0
  0
LINE
  5
1303B
  8
1
 10
322.0000000013150157
 20
97.9999999999999716
 30
0.0
 11
322.0000000013150157
 21
104.5
 31
0.0
  0
LINE
  5
1303C
  8
1
 10
300.0
 20
98.0000000000003268
 30
0.0
 11
300.0
 21
104.5000000000002984
 31
0.0
  0
LINE
  5
1303F
  8
1
 10
200.0
 20
204.0
 30
0.0
 11
200.0
 21
195.9999999999998863
 31
0.0
  0
LINE
  5
13040
  8
1
 10
199.1999999999999886
 20
195.9999999999998863
 30
0.0
 11
199.1999999999999886
 21
204.0
 31
0.0
  0
LINE
  5
13041
  8
1
 10
204.0
 20
200.0
 30
0.0
 11
195.1999999999999034
 21
200.0
 31
0.0
  0
LINE
  5
13042
  8
1
 10
173.7999999999998977
 20
204.0
 30
0.0
 11
173.8000000000000114
 21
195.9999999999998863
 31
0.0
  0
LINE
  5
13043
  8
1
 10
173.0
 20
195.9999999999998863
 30
0.0
 11
172.9999999999998863
 21
204.0
 31
0.0
  0
LINE
  5
13044
  8
1
 10
177.8000000000000114
 20
200.0
 30
0.0
 11
168.9999999999998863
 21
200.0
 31
0.0
  0
LINE
  5
13045
  8
1
 10
173.7999999999998977
 20
181.9999999986850128
 30
0.0
 11
173.8000000000000114
 21
173.9999999986848991
 31
0.0
  0
LINE
  5
13046
  8
1
 10
173.0
 20
173.9999999986848991
 30
0.0
 11
172.9999999999998863
 21
181.9999999986850128
 31
0.0
  0
LINE
  5
13047
  8
1
 10
177.8000000000000114
 20
177.9999999986850128
 30
0.0
 11
168.9999999999998863
 21
177.9999999986848991
 31
0.0
  0
LINE
  5
13048
  8
1
 10
200.0
 20
181.9999999986850128
 30
0.0
 11
200.0
 21
173.9999999986848991
 31
0.0
  0
LINE
  5
13049
  8
1
 10
199.1999999999999886
 20
173.9999999986848991
 30
0.0
 11
199.1999999999999034
 21
181.9999999986850128
 31
0.0
  0
LINE
  5
1304A
  8
1
 10
204.0
 20
177.9999999986850128
 30
0.0
 11
195.1999999999999034
 21
177.9999999986848991
 31
0.0
  0
LINE
  5
1304B
  8
0
 10
175.9429999999987047
 20
188.99999999934019
 30
0.0
 11
150.0244355401403027
 21
188.9999999993397921
 31
0.0
  0
LINE
  5
1304C
  8
1
 10
200.0
 20
76.0000000013150157
 30
0.0
 11
200.0
 21
68.0000000013149588
 31
0.0
  0
LINE
  5
1304D
  8
1
 10
199.1999999999999886
 20
68.0000000013149588
 30
0.0
 11
199.1999999999999034
 21
76.0000000013150157
 31
0.0
  0
LINE
  5
1304E
  8
1
 10
204.0
 20
72.0000000013150157
 30
0.0
 11
195.1999999999999034
 21
72.0000000013149446
 31
0.0
  0
LINE
  5
1304F
  8
1
 10
173.7999999999998977
 20
76.0000000013150157
 30
0.0
 11
173.8000000000000114
 21
68.0000000013149588
 31
0.0
  0
LINE
  5
13050
  8
1
 10
173.0
 20
68.0000000013149588
 30
0.0
 11
172.9999999999998863
 21
76.0000000013150157
 31
0.0
  0
LINE
  5
13051
  8
1
 10
177.8000000000000114
 20
72.0000000013150157
 30
0.0
 11
168.9999999999998863
 21
72.0000000013149446
 31
0.0
  0
LINE
  5
13052
  8
1
 10
173.7999999999998977
 20
54.0000000000000284
 30
0.0
 11
173.8000000000000114
 21
45.9999999999999574
 31
0.0
  0
LINE
  5
13053
  8
1
 10
173.0
 20
45.9999999999999574
 30
0.0
 11
172.9999999999998863
 21
54.0000000000000284
 31
0.0
  0
LINE
  5
13054
  8
1
 10
177.8000000000000114
 20
50.0000000000000284
 30
0.0
 11
168.9999999999998863
 21
49.9999999999999716
 31
0.0
  0
LINE
  5
13055
  8
1
 10
200.0
 20
54.0000000000000284
 30
0.0
 11
200.0
 21
45.9999999999999574
 31
0.0
  0
LINE
  5
13056
  8
1
 10
199.1999999999999886
 20
45.9999999999999574
 30
0.0
 11
199.1999999999999034
 21
54.0000000000000284
 31
0.0
  0
LINE
  5
13057
  8
1
 10
204.0
 20
50.0000000000000284
 30
0.0
 11
195.1999999999999034
 21
49.9999999999999716
 31
0.0
  0
ARC
  5
13058
  8
0
 10
126.7683603005984025
 20
192.2332823772088943
 30
0.0
 40
6.9553437568037921
 50
126.9736906120224944
 51
152.730813961416203
  0
ARC
  5
13059
  8
0
 10
130.0028624167431985
 20
192.4569410732335939
 30
0.0
 40
6.6176351861229712
 50
26.5997664946322203
 51
53.6957289319223605
  0
ARC
  5
1305A
  8
0
 10
126.503437444495006
 20
185.5432542717597926
 30
0.0
 40
6.6179297307924072
 50
206.6003809698852933
 51
233.6951144566714049
  0
ARC
  5
1305B
  8
0
 10
129.737677263420693
 20
185.7667435237630968
 30
0.0
 40
6.955382919727084
 50
306.9737643723505016
 51
332.7307402011043109
  0
LINE
  5
1305E
  8
1
 10
128.2530341360053114
 20
177.8159782745869961
 30
0.0
 11
128.2530341360053114
 21
200.1840217241023936
 31
0.0
  0
ARC
  5
1305F
  8
0
 10
126.859905721670799
 20
64.1776813794478045
 30
0.0
 40
7.0549355589310672
 50
127.2960751102462069
 51
152.6396747035732915
  0
ARC
  5
13060
  8
0
 10
130.0108023035697045
 20
64.4567457280839733
 30
0.0
 40
6.6179297309974396
 50
26.600380970086821
 51
53.6951144564618801
  0
ARC
  5
13061
  8
0
 10
126.5116472138564063
 20
57.5432865734979728
 30
0.0
 40
6.6179784336839953
 50
206.6004825677983092
 51
233.6950128587538984
  0
ARC
  5
13062
  8
0
 10
129.7458794476042954
 20
57.7667176227874393
 30
0.0
 40
6.9553437568070144
 50
306.9736906120361937
 51
332.730813961414583
  0
LINE
  5
13063
  8
1
 10
128.2530341360053114
 20
49.8159782759025092
 30
0.0
 11
128.2530341360053114
 21
72.1840217254178782
 31
0.0
  0
POLYLINE
  5
13064
  8
0
 66
     1
 10
0.0
 20
0.0
 30
0.0
 70
     1
  0
VERTEX
  5
1322F
  8
0
 10
128.2530341666615925
 20
194.7735026735344945
 30
0.0
  0
VERTEX
  5
13230
  8
0
 10
123.2530341666617062
 20
191.8867513629851089
 30
0.0
  0
VERTEX
  5
13231
  8
0
 10
123.2530341360055957
 20
186.1132486887881896
 30
0.0
  0
VERTEX
  5
13232
  8
0
 10
128.2530341053492862
 20
183.226497325140798
 30
0.0
  0
VERTEX
  5
13233
  8
0
 10
133.2530341053492862
 20
186.113248635690212
 30
0.0
  0
VERTEX
  5
13234
  8
0
 10
133.2530341360053967
 20
191.8867513098869892
 30
0.0
  0
SEQEND
  5
13235
  8
0
  0
CIRCLE
  5
13065
  8
0
 10
128.2530341360063062
 20
188.9999999993424069
 30
0.0
 40
4.9999999999646141
  0
ARC
  5
13066
  8
0
 10
56.9058894975420202
 20
143.6761480097395065
 30
0.0
 40
2.1866266876066098
 50
96.1963691376213177
 51
129.8227987778807915
  0
ARC
  5
13067
  8
0
 10
56.4399608448335925
 20
143.6875389359740893
 30
0.0
 40
2.1746488093085472
 50
39.6952990360463502
 51
83.931130601458193
  0
ARC
  5
13068
  8
0
 10
60.999999974113301
 20
140.0764972268505062
 30
0.0
 40
5.7735027730692057
 50
60.0000005664998071
 51
119.9999994335004061
  0
ARC
  5
13069
  8
0
 10
65.5661436334786458
 20
143.6761477114042123
 30
0.0
 40
2.1866269947847758
 50
96.1963708495997025
 51
140.1771977554458033
  0
ARC
  5
1306A
  8
0
 10
65.1002148708352593
 20
143.6875389060299995
 30
0.0
 40
2.1746488403212538
 50
50.3047013436159176
 51
83.9311303776015762
  0
ARC
  5
1306B
  8
0
 10
56.9058894970803379
 20
143.1738520047902909
 30
0.0
 40
2.1866266876066098
 50
230.1772011167942082
 51
263.8036307570537247
  0
ARC
  5
1306C
  8
0
 10
56.4399608443509777
 20
143.1624610794121963
 30
0.0
 40
2.1746488093085472
 50
276.0688692932168919
 51
320.3047008586282232
  0
ARC
  5
1306D
  8
0
 10
60.9999999802687398
 20
146.7735027801533079
 30
0.0
 40
5.7735027730692057
 50
240.0000004611742952
 51
299.9999993281758748
  0
ARC
  5
1306E
  8
0
 10
65.5661436330169636
 20
143.1738522872057047
 30
0.0
 40
2.1866269947847758
 50
219.8228021392301912
 51
263.8036290450755246
  0
ARC
  5
1306F
  8
0
 10
65.1002148703526302
 20
143.162461093436491
 30
0.0
 40
2.1746488403212538
 50
276.0688695170736082
 51
309.695298551059409
  0
ARC
  5
13070
  8
0
 10
67.4484758416890742
 20
138.3126813274919868
 30
0.0
 40
2.6874692923611541
 50
29.3933907816396314
 51
90.6066092183586136
  0
ARC
  5
13071
  8
0
 10
67.4289502226968409
 20
138.2788619633481915
 30
0.0
 40
0.7211932880189501
 50
29.2907716963450611
 51
90.7092283036504341
  0
ARC
  5
13072
  8
0
 10
54.5823062661923828
 20
138.2593651549734091
 30
0.0
 40
2.7406358350682449
 50
90.048700966992655
 51
149.9512990330059097
  0
ARC
  5
13073
  8
0
 10
54.5738802749318168
 20
138.2739593999409067
 30
0.0
 40
0.7260661952724299
 50
89.5189057898247285
 51
150.4810942101769911
  0
ARC
  5
13074
  8
0
 10
54.571049936435891
 20
127.7211383099956947
 30
0.0
 40
0.7211935593834405
 50
209.2907845016954127
 51
270.709215498301603
  0
ARC
  5
13075
  8
0
 10
54.5515241117851204
 20
127.6873185896408955
 30
0.0
 40
2.6874692100001938
 50
209.3933897429284059
 51
270.6066102570713952
  0
ARC
  5
13076
  8
0
 10
67.426120261404904
 20
127.7260396733890957
 30
0.0
 40
0.7260652731223689
 50
269.5188629577164079
 51
330.4811370422788173
  0
ARC
  5
13077
  8
0
 10
67.4176936525819883
 20
127.7406349880057945
 30
0.0
 40
2.740635978112369
 50
270.0487026901615195
 51
329.95129730983831
  0
ARC
  5
13079
  8
0
 10
68.5362775323516047
 20
123.7106944957055958
 30
0.0
 40
2.3016375116924581
 50
15.9385768668333903
 51
68.0336742994235379
  0
ARC
  5
1307A
  8
0
 10
53.4676493761361726
 20
123.7086306922814032
 30
0.0
 40
2.3060267669989432
 50
112.2042527924482016
 51
164.0348791251221883
  0
ARC
  5
1307B
  8
0
 10
56.9058895022112097
 20
122.8261479953864068
 30
0.0
 40
2.1866267024597721
 50
96.1963692189009407
 51
129.8227983882457863
  0
ARC
  5
1307C
  8
0
 10
56.4399608445195184
 20
122.8375389355845044
 30
0.0
 40
2.1746488097917802
 50
39.6952990386255991
 51
83.9311305979951356
  0
ARC
  5
1307D
  8
0
 10
60.9999999741088317
 20
119.2264972274856945
 30
0.0
 40
5.7735027725142416
 50
60.0000005633209597
 51
119.999999436683396
  0
ARC
  5
1307E
  8
0
 10
65.5661436338774593
 20
122.8261477108912061
 30
0.0
 40
2.1866269954196071
 50
96.1963708582721466
 51
140.1771977520010921
  0
ARC
  5
1307F
  8
0
 10
65.100214882340822
 20
122.8375389355573049
 30
0.0
 40
2.17464880982675
 50
50.3047009611924594
 51
83.9311305965145351
  0
ARC
  5
13080
  8
0
 10
56.9058895022112097
 20
122.8261479953864068
 30
0.0
 40
2.1866267024597721
 50
140.1772009467426869
 51
140.1772016117529915
  0
ARC
  5
13081
  8
0
 10
56.9058895022112878
 20
122.3238520222174941
 30
0.0
 40
2.1866267024597721
 50
230.1772016117714941
 51
263.803630781116226
  0
ARC
  5
13082
  8
0
 10
56.4399608445195966
 20
122.3124610820193965
 30
0.0
 40
2.1746488097917802
 50
276.0688694020220737
 51
320.3047009613919727
  0
ARC
  5
13083
  8
0
 10
60.9999999741078227
 20
125.9235027901194997
 30
0.0
 40
5.7735027725142416
 50
240.0000005633341971
 51
299.9999994366964984
  0
ARC
  5
13084
  8
0
 10
65.5661436338775303
 20
122.3238523067153949
 30
0.0
 40
2.1866269954196071
 50
219.8228022480165009
 51
263.8036291417450911
  0
ARC
  5
13085
  8
0
 10
65.1002148823409073
 20
122.3124610820491966
 30
0.0
 40
2.17464880982675
 50
276.0688694035026742
 51
309.6952990388246008
  0
ARC
  5
13086
  8
0
 10
232.4121751230516963
 20
201.8593728721540117
 30
0.0
 40
76.1885588199786952
 50
252.0591092842213072
 51
275.611557582914827
  0
ARC
  5
13087
  8
0
 10
224.0536807273103932
 20
165.6473164806513125
 30
0.0
 40
46.7807688173008032
 50
248.7289656225059957
 51
288.7708731524007817
  0
ARC
  5
13088
  8
0
 10
126.1530341206770061
 20
120.5731851110944035
 30
0.0
 40
4.4268148889048717
 50
55.6157530690304966
 51
124.3842469309766017
  0
ARC
  5
13089
  8
0
 10
131.1530341053484108
 20
120.5731850615516976
 30
0.0
 40
4.426814938447623
 50
55.6157532674271522
 51
124.3842467325739989
  0
ARC
  5
1308A
  8
0
 10
126.1530341206770061
 20
124.5768149065082042
 30
0.0
 40
4.4268148889048717
 50
235.6157530690232988
 51
304.3842469309698799
  0
ARC
  5
1308B
  8
0
 10
131.1530341053484108
 20
124.5768149560509954
 30
0.0
 40
4.426814938447623
 50
235.6157532674255037
 51
304.3842467325728194
  0
LINE
  5
1308C
  8
0
 10
153.3364253799981896
 20
63.5000000006593623
 30
0.0
 11
153.3364253799981896
 21
58.5000000006600374
 31
0.0
  0
ARC
  5
1308E
  8
0
 10
198.383181131761404
 20
288.8709395219120779
 30
0.0
 40
221.9700524704497866
 50
272.2729939970558917
 51
280.6848451264604023
  0
ARC
  5
1308F
  8
0
 10
198.4127061228338107
 20
-166.4886547530952896
 30
0.0
 40
221.5868979631370905
 50
79.3071061630510883
 51
87.7307139085673953
  0
ARC
  5
13090
  8
0
 10
137.26863159021201
 20
128.530317229843007
 30
0.0
 40
3.6555335926374091
 50
216.2590370254285972
 51
254.9602598380930942
  0
ARC
  5
13091
  8
0
 10
119.9922188625698993
 20
128.596380051118814
 30
0.0
 40
3.7311613220112352
 50
285.4470828443793948
 51
323.3336202920905862
  0
ARC
  5
13092
  8
0
 10
120.6366539211015976
 20
134.505711576234404
 30
0.0
 40
7.5138375020317323
 50
272.6649085131642209
 51
288.2127898644679931
  0
ARC
  5
13093
  8
0
 10
136.659917248404696
 20
134.4541628145564971
 30
0.0
 40
7.4619062922041612
 50
251.7327693188715045
 51
267.389532303498072
  0
ARC
  5
13094
  8
0
 10
120.0374366817977005
 20
137.4696827701608015
 30
0.0
 40
3.6555335926384371
 50
36.2590370254301533
 51
74.9602598380791108
  0
ARC
  5
13095
  8
0
 10
120.6461510236042045
 20
131.5458371854386996
 30
0.0
 40
7.4619062922134898
 50
71.7327693188826316
 51
87.3895323034896592
  0
ARC
  5
13096
  8
0
 10
136.669414350909193
 20
131.494288423765596
 30
0.0
 40
7.5138375020361892
 50
92.6649085131655426
 51
108.2127898644602055
  0
ARC
  5
13097
  8
0
 10
137.3138494094411044
 20
137.4036199488851935
 30
0.0
 40
3.7311613220119821
 50
105.4470828443976984
 51
143.3336202920891083
  0
ARC
  5
13098
  8
0
 10
126.1530341235498014
 20
141.423185101312697
 30
0.0
 40
4.4268148986049036
 50
55.6157526234648216
 51
124.3842468901176943
  0
ARC
  5
13099
  8
0
 10
131.1530341392366097
 20
141.4231851705829968
 30
0.0
 40
4.4268148293345062
 50
55.6157528324749393
 51
124.3842476539286963
  0
ARC
  5
1309A
  8
0
 10
131.1530341360027876
 20
145.4268148552995967
 30
0.0
 40
4.4268148552943796
 50
235.6157525309797904
 51
304.384247469021318
  0
ARC
  5
1309B
  8
0
 10
126.1530341360077045
 20
145.4268148552997104
 30
0.0
 40
4.4268148552945128
 50
235.6157525309805862
 51
304.3842474690197832
  0
ARC
  5
1309C
  8
0
 10
304.5823063487281956
 20
138.2593650119995061
 30
0.0
 40
2.7406359781124059
 50
90.0487026901632959
 51
149.9512973098397879
  0
ARC
  5
1309D
  8
0
 10
304.5738797399054079
 20
138.2739603266159065
 30
0.0
 40
0.7260652731225977
 50
89.5188629577266113
 51
150.4811370422658001
  0
ARC
  5
1309E
  8
0
 10
317.4289500648745275
 20
138.2788616900095064
 30
0.0
 40
0.7211935593833069
 50
29.290784501691089
 51
90.7092154983158139
  0
ARC
  5
1309F
  8
0
 10
317.4484758895250138
 20
138.3126814103642062
 30
0.0
 40
2.68746921000022
 50
29.3933897429284485
 51
90.6066102570703436
  0
ARC
  5
130A0
  8
0
 10
304.5710497786234896
 20
127.7211380366562992
 30
0.0
 40
0.7211932880183012
 50
209.290771696309605
 51
270.7092283036803906
  0
ARC
  5
130A1
  8
0
 10
317.4261197263887766
 20
127.726040600064394
 30
0.0
 40
0.7260661952726041
 50
269.5189057898271017
 51
330.4810942101696014
  0
ARC
  5
130A2
  8
0
 10
254.7669698974839037
 20
130.3624050563275034
 30
0.0
 40
51.2330308330296234
 50
358.5878650180707723
 51
0.0096712154693395
  0
ARC
  5
130A3
  8
0
 10
366.8074152316128789
 20
130.361196142391691
 30
0.0
 40
50.8074161870744305
 50
179.9888844702167034
 51
181.4224208447425042
  0
LINE
  5
130A4
  8
0
 10
311.0000000006579057
 20
107.7198640042973068
 30
0.0
 11
311.0000000006579057
 21
104.0000000000000995
 31
0.0
  0
ARC
  5
130A5
  8
0
 10
303.2505676444200731
 20
124.0465854593425945
 30
0.0
 40
2.0
 50
89.9999999999996874
 51
180.0
  0
ARC
  5
130A6
  8
0
 10
318.7494323568956247
 20
124.046585459342495
 30
0.0
 40
2.0
 50
0.0
 51
89.9999999999996874
  0
LINE
  5
130A7
  8
0
 10
319.4176742126114164
 20
125.9316458886822971
 30
0.0
 11
319.7899883739847269
 21
126.3683000000001044
 31
0.0
  0
ARC
  5
130A8
  8
0
 10
314.9819180926880904
 20
127.3237142587504991
 30
0.0
 40
2.0551760036795659
 50
2.863569698795513
 51
93.3237460787835005
  0
ARC
  5
130A9
  8
0
 10
307.0186070994179772
 20
127.3229196221081025
 30
0.0
 40
2.0559389333655851
 50
86.6921494751728261
 51
177.1153206634980961
  0
ARC
  5
130AA
  8
0
 10
299.8223160141017729
 20
127.4760062024084988
 30
0.0
 40
5.1431966967098699
 50
343.8636243162205233
 51
359.4472232122166133
  0
ARC
  5
130AB
  8
0
 10
310.9999005981566143
 20
127.3681640355847975
 30
0.0
 40
6.0349081098592849
 50
0.5527767877834755
 51
0.5527768075338184
  0
ARC
  5
130AC
  8
0
 10
322.145527333089376
 20
127.4744729239949947
 30
0.0
 40
5.111225689162529
 50
180.5390460282330025
 51
196.2221916762289027
  0
ARC
  5
130AE
  8
0
 10
306.9058895108474871
 20
143.6761479772355017
 30
0.0
 40
2.1866267213580022
 50
96.1963693925545869
 51
129.8227984252845033
  0
ARC
  5
130AF
  8
0
 10
306.4399608448238155
 20
143.6875389359749136
 30
0.0
 40
2.174648809307735
 50
39.695299036019172
 51
83.9311306014894427
  0
ARC
  5
130B0
  8
0
 10
310.9999999741037868
 20
140.0764972268383133
 30
0.0
 40
5.7735027730793202
 50
60.0000005665551512
 51
119.9999994334464049
  0
ARC
  5
130B1
  8
0
 10
315.5661436334730752
 20
143.6761477114033028
 30
0.0
 40
2.186626994787837
 50
96.1963708500890249
 51
140.1771977555011119
  0
ARC
  5
130B2
  8
0
 10
315.1002148827579958
 20
143.6875389360972122
 30
0.0
 40
2.1746488091604128
 50
50.3047009649355701
 51
83.9311306065423963
  0
ARC
  5
130B3
  8
0
 10
315.0941104943777873
 20
143.1738520141132938
 30
0.0
 40
2.1866267124082741
 50
276.1963693149996857
 51
309.8227984485566822
  0
ARC
  5
130B4
  8
0
 10
315.5600391663418236
 20
143.162461088926392
 30
0.0
 40
2.1746488351701081
 50
219.6952987199354936
 51
263.9311304159913902
  0
ARC
  5
130B5
  8
0
 10
311.0000000006526193
 20
146.7735026917443122
 30
0.0
 40
5.7735026917391066
 50
239.9999999991323136
 51
300.0000000008673169
  0
ARC
  5
130B6
  8
0
 10
306.4338564565201182
 20
143.1738520141547895
 30
0.0
 40
2.1866267124509502
 50
276.1963693152229098
 51
320.1772015507746119
  0
ARC
  5
130B7
  8
0
 10
306.899785128502117
 20
143.1624610888987092
 30
0.0
 40
2.1746488351482749
 50
230.3047012802450126
 51
263.931130414871518
  0
LINE
  5
130BA
  8
3
 10
63.4585000006573381
 20
145.8499999999482952
 30
0.0
 11
63.4585000006573381
 21
154.9693769938805019
 31
0.0
  0
LINE
  5
130BB
  8
3
 10
58.5415000006573294
 20
145.8499999999482952
 30
0.0
 11
58.5415000006573294
 21
154.9693769938805019
 31
0.0
  0
LINE
  5
130BC
  8
3
 10
63.4585000006575726
 20
112.9693769938805019
 30
0.0
 11
63.4585000006575726
 21
120.1500000000258979
 31
0.0
  0
LINE
  5
130BD
  8
3
 10
58.5415000006575568
 20
112.9693769938805019
 30
0.0
 11
58.541500000657571
 21
120.1500000000258979
 31
0.0
  0
LINE
  5
130BE
  8
3
 10
131.111534136005389
 20
145.8499999999482952
 30
0.0
 11
131.111534136005389
 21
154.9693769938805019
 31
0.0
  0
LINE
  5
130BF
  8
3
 10
126.1945341360054016
 20
145.8499999999482952
 30
0.0
 11
126.1945341360054016
 21
154.9693769938805019
 31
0.0
  0
LINE
  5
130C0
  8
3
 10
131.1115341360055879
 20
112.9693769938805019
 30
0.0
 11
131.1115341360055879
 21
120.1500000000258979
 31
0.0
  0
LINE
  5
130C1
  8
3
 10
126.1945341360056005
 20
112.9693769938805019
 30
0.0
 11
126.1945341360056005
 21
120.1500000000258979
 31
0.0
  0
LINE
  5
130C2
  8
3
 10
313.4585000006566133
 20
145.8499999999482952
 30
0.0
 11
313.4585000006566133
 21
154.9693769938805019
 31
0.0
  0
LINE
  5
130C3
  8
3
 10
308.5415000006565833
 20
145.8499999999482952
 30
0.0
 11
308.5415000006565833
 21
154.9693769938805019
 31
0.0
  0
ARC
  5
130C9
  8
0
 10
318.0046221858252125
 20
122.4514997578190929
 30
0.0
 40
2.7455776949783428
 50
304.4796021224103129
 51
358.6451948615015226
  0
ARC
  5
130CA
  8
0
 10
303.9953778154904853
 20
122.4514997578190929
 30
0.0
 40
2.7455776949783428
 50
181.3548051384985058
 51
235.5203978775919893
  0
ARC
  5
130CE
  8
0
 10
314.7709275179217912
 20
127.7895519258955943
 30
0.0
 40
8.9835873925151102
 50
277.8634760434255213
 51
302.2064878459644888
  0
ARC
  5
130CF
  8
0
 10
311.00000262876938
 20
148.9768282528825125
 30
0.0
 40
30.4990300489752499
 50
260.5643534603020726
 51
279.4356365298747846
  0
ARC
  5
130D0
  8
0
 10
307.2290724833932245
 20
127.7895519258973991
 30
0.0
 40
8.9835873925151102
 50
237.7935121540101022
 51
262.1365239565481033
  0
ARC
  5
130D1
  8
0
 10
198.4127061228313096
 20
416.4886547531190786
 30
0.0
 40
221.5868979631611069
 50
272.2692860914331732
 51
280.6928938369484854
  0
ARC
  5
130D2
  8
0
 10
198.3831811317596134
 20
-38.8709395219347513
 30
0.0
 40
221.9700524704724955
 50
79.3151548735401519
 51
87.7270060029435825
  0
ARC
  5
130E6
  8
0
 10
244.0518244289966958
 20
188.9999999993424922
 30
0.0
 40
9.7524222028771153
 50
271.4187861328707072
 51
88.5812138671249301
  0
POLYLINE
  5
130F5
  8
0
 66
     1
 10
0.0
 20
0.0
 30
0.0
  0
VERTEX
  5
13236
  8
0
 10
207.1866963470604048
 20
54.9244669097160809
 30
0.0
  0
VERTEX
  5
13237
  8
0
 10
207.0576388943796928
 20
54.9994655081414621
 30
0.0
  0
VERTEX
  5
13238
  8
0
 10
206.9366635287944121
 20
55.1808410422173168
 30
0.0
  0
VERTEX
  5
13239
  8
0
 10
206.8318627065123962
 20
55.4969367886899079
 30
0.0
  0
VERTEX
  5
1323A
  8
0
 10
206.751123276284801
 20
55.9075114639968902
 30
0.0
  0
VERTEX
  5
1323B
  8
0
 10
206.6998049047622885
 20
56.3907769754007404
 30
0.0
  0
VERTEX
  5
1323C
  8
0
 10
206.6825453699595982
 20
56.9115508115087394
 30
0.0
  0
SEQEND
  5
1323D
  8
0
  0
POLYLINE
  5
130F6
  8
0
 66
     1
 10
0.0
 20
0.0
 30
0.0
  0
VERTEX
  5
1323E
  8
0
 10
206.682545369959513
 20
65.0884491898054023
 30
0.0
  0
VERTEX
  5
1323F
  8
0
 10
206.6997015315288877
 20
65.6092383846489611
 30
0.0
  0
VERTEX
  5
13240
  8
0
 10
206.751121563776195
 20
66.0924035412667763
 30
0.0
  0
VERTEX
  5
13241
  8
0
 10
206.83185122033629
 20
66.5030220562498045
 30
0.0
  0
VERTEX
  5
13242
  8
0
 10
206.9366546905617099
 20
66.8191361896873133
 30
0.0
  0
VERTEX
  5
13243
  8
0
 10
207.0576303355568939
 20
67.0004441417548406
 30
0.0
  0
VERTEX
  5
13244
  8
0
 10
207.1866963470604048
 20
67.0755330915979755
 30
0.0
  0
SEQEND
  5
13245
  8
0
  0
LINE
  5
130FD
  8
0
 10
239.1487388576987883
 20
62.5000000006570815
 30
0.0
 11
206.682545369959513
 21
62.5000000006570886
 31
0.0
  0
LINE
  5
130FE
  8
0
 10
239.1487388576987883
 20
59.5000000006571028
 30
0.0
 11
206.682545369959513
 21
59.5000000006570602
 31
0.0
  0
POLYLINE
  5
13107
  8
0
 66
     1
 10
0.0
 20
0.0
 30
0.0
  0
VERTEX
  5
13246
  8
0
 10
205.8941197484344059
 20
123.4456233068002007
 30
0.0
  0
VERTEX
  5
13247
  8
0
 10
204.7273930301109885
 20
123.9917000313755011
 30
0.0
  0
VERTEX
  5
13248
  8
0
 10
203.5002189004071909
 20
124.3836573080971988
 30
0.0
  0
VERTEX
  5
13249
  8
0
 10
202.2325634329183117
 20
124.6146034938120977
 30
0.0
  0
VERTEX
  5
1324A
  8
0
 10
200.9457735140854027
 20
124.680274569705702
 30
0.0
  0
SEQEND
  5
1324B
  8
0
  0
POLYLINE
  5
13108
  8
0
 66
     1
 10
0.0
 20
0.0
 30
0.0
  0
VERTEX
  5
1324C
  8
0
 10
200.4725422095399949
 20
132.561901421208006
 30
0.0
  0
VERTEX
  5
1324D
  8
0
 10
202.512852440692086
 20
131.4594269052637969
 30
0.0
  0
VERTEX
  5
1324E
  8
0
 10
204.5035007583157949
 20
130.2700445372902891
 30
0.0
  0
VERTEX
  5
1324F
  8
0
 10
206.5235691162635021
 20
129.1309921844629969
 30
0.0
  0
VERTEX
  5
13250
  8
0
 10
208.642477181945992
 20
128.1915069429871892
 30
0.0
  0
SEQEND
  5
13251
  8
0
  0
POLYLINE
  5
13109
  8
0
 66
     1
 10
0.0
 20
0.0
 30
0.0
  0
VERTEX
  5
13252
  8
0
 10
200.3493842234819908
 20
132.0773037896684912
 30
0.0
  0
VERTEX
  5
13253
  8
0
 10
200.4001724950890946
 20
132.27714496063561
 30
0.0
  0
VERTEX
  5
13254
  8
0
 10
200.4393469881032956
 20
132.4312883545383954
 30
0.0
  0
VERTEX
  5
13255
  8
0
 10
200.4640877249671007
 20
132.5286379525659015
 30
0.0
  0
VERTEX
  5
13256
  8
0
 10
200.4725407790490124
 20
132.5618989431945067
 30
0.0
  0
SEQEND
  5
13257
  8
0
  0
POLYLINE
  5
1310A
  8
0
 66
     1
 10
0.0
 20
0.0
 30
0.0
  0
VERTEX
  5
13258
  8
0
 10
200.3493842234981059
 20
132.077303789731701
 30
0.0
  0
VERTEX
  5
13259
  8
0
 10
200.3087029503074916
 20
131.9172315326225942
 30
0.0
  0
VERTEX
  5
1325A
  8
0
 10
200.2664554691941987
 20
131.7509965766192863
 30
0.0
  0
SEQEND
  5
1325B
  8
0
  0
POLYLINE
  5
13113
  8
0
 66
     1
 10
0.0
 20
0.0
 30
0.0
  0
VERTEX
  5
1325C
  8
0
 10
207.9892598098674057
 20
195.0755330902838978
 30
0.0
  0
VERTEX
  5
1325D
  8
0
 10
208.1998939650029001
 20
194.9083812577391086
 30
0.0
  0
VERTEX
  5
1325E
  8
0
 10
208.2954436798202948
 20
194.7094381770322116
 30
0.0
  0
VERTEX
  5
1325F
  8
0
 10
208.3794764240940083
 20
194.4312082621412117
 30
0.0
  0
VERTEX
  5
13260
  8
0
 10
208.5006727132557955
 20
193.7121449649845033
 30
0.0
  0
VERTEX
  5
13261
  8
0
 10
208.5433649721279039
 20
192.8627635449911963
 30
0.0
  0
SEQEND
  5
13262
  8
0
  0
POLYLINE
  5
13114
  8
0
 66
     1
 10
0.0
 20
0.0
 30
0.0
  0
VERTEX
  5
13263
  8
0
 10
207.1866963470604048
 20
195.0755330902838978
 30
0.0
  0
VERTEX
  5
13264
  8
0
 10
207.0594139029927874
 20
195.0027589083310886
 30
0.0
  0
VERTEX
  5
13265
  8
0
 10
206.9406494979735101
 20
194.8260543472025006
 30
0.0
  0
VERTEX
  5
13266
  8
0
 10
206.8363843882482058
 20
194.5199590898828887
 30
0.0
  0
VERTEX
  5
13267
  8
0
 10
206.7569217697771933
 20
194.1166576494591993
 30
0.0
  0
SEQEND
  5
13268
  8
0
  0
POLYLINE
  5
13115
  8
0
 66
     1
 10
0.0
 20
0.0
 30
0.0
  0
VERTEX
  5
13269
  8
0
 10
207.993730065362314
 20
194.1205053094130051
 30
0.0
  0
VERTEX
  5
1326A
  8
0
 10
208.0704197184278996
 20
194.0706611717627084
 30
0.0
  0
VERTEX
  5
1326B
  8
0
 10
208.1396938336278026
 20
193.9293519899790113
 30
0.0
  0
VERTEX
  5
1326C
  8
0
 10
208.1947031404781114
 20
193.7066724610432971
 30
0.0
  0
VERTEX
  5
1326D
  8
0
 10
208.2305260979489105
 20
193.4264173386752077
 30
0.0
  0
VERTEX
  5
1326E
  8
0
 10
208.2424770194151904
 20
193.1158238879002909
 30
0.0
  0
SEQEND
  5
1326F
  8
0
  0
POLYLINE
  5
13116
  8
0
 66
     1
 10
0.0
 20
0.0
 30
0.0
  0
VERTEX
  5
13270
  8
0
 10
208.5433649721277902
 20
185.1372364536946975
 30
0.0
  0
VERTEX
  5
13271
  8
0
 10
208.5006711799179016
 20
184.2878753700497896
 30
0.0
  0
VERTEX
  5
13272
  8
0
 10
208.379478874877492
 20
183.5687859871877095
 30
0.0
  0
VERTEX
  5
13273
  8
0
 10
208.2954482089839132
 20
183.2905562013185943
 30
0.0
  0
VERTEX
  5
13274
  8
0
 10
208.1998983804259069
 20
183.0916854583867917
 30
0.0
  0
VERTEX
  5
13275
  8
0
 10
207.989259809867491
 20
182.9244669084019961
 30
0.0
  0
SEQEND
  5
13276
  8
0
  0
POLYLINE
  5
13117
  8
0
 66
     1
 10
0.0
 20
0.0
 30
0.0
  0
VERTEX
  5
13277
  8
0
 10
208.2424780960888029
 20
184.8841769535376898
 30
0.0
  0
VERTEX
  5
13278
  8
0
 10
208.2300536628517875
 20
184.5729604773476069
 30
0.0
  0
VERTEX
  5
13279
  8
0
 10
208.1947699608180073
 20
184.2926306476641969
 30
0.0
  0
VERTEX
  5
1327A
  8
0
 10
208.1395309993376941
 20
184.0709781432753118
 30
0.0
  0
VERTEX
  5
1327B
  8
0
 10
208.0702772352059924
 20
183.9273205445304882
 30
0.0
  0
VERTEX
  5
1327C
  8
0
 10
207.9937318526725107
 20
183.8794944384937082
 30
0.0
  0
SEQEND
  5
1327D
  8
0
  0
POLYLINE
  5
13118
  8
0
 66
     1
 10
0.0
 20
0.0
 30
0.0
  0
VERTEX
  5
1327E
  8
0
 10
206.7568877038029029
 20
183.883337130293512
 30
0.0
  0
VERTEX
  5
1327F
  8
0
 10
206.8363824989826014
 20
183.4800885757022968
 30
0.0
  0
VERTEX
  5
13280
  8
0
 10
206.9406409842906953
 20
183.1739638006700091
 30
0.0
  0
VERTEX
  5
13281
  8
0
 10
207.0594047694619064
 20
182.9973259185931056
 30
0.0
  0
VERTEX
  5
13282
  8
0
 10
207.1866963470604048
 20
182.9244669084019108
 30
0.0
  0
SEQEND
  5
13283
  8
0
  0
POLYLINE
  5
13119
  8
0
 66
     1
 10
0.0
 20
0.0
 30
0.0
  0
VERTEX
  5
13284
  8
0
 10
201.6361713165630078
 20
188.2999999993425035
 30
0.0
  0
VERTEX
  5
13285
  8
0
 10
201.7261450754693897
 20
188.9999999993428901
 30
0.0
  0
VERTEX
  5
13286
  8
0
 10
201.6361713165630078
 20
189.699999999343305
 30
0.0
  0
SEQEND
  5
13287
  8
0
  0
POLYLINE
  5
1311A
  8
0
 66
     1
 10
0.0
 20
0.0
 30
0.0
  0
VERTEX
  5
13288
  8
0
 10
201.6361713165630078
 20
189.699999999343305
 30
0.0
  0
VERTEX
  5
13289
  8
0
 10
201.3285119758920132
 20
190.4749912919324117
 30
0.0
  0
VERTEX
  5
1328A
  8
0
 10
200.8615780983288914
 20
191.0455078851290125
 30
0.0
  0
VERTEX
  5
1328B
  8
0
 10
200.3017583206950007
 20
191.3880665293013976
 30
0.0
  0
VERTEX
  5
1328C
  8
0
 10
199.7030711123481979
 20
191.4999999993430038
 30
0.0
  0
SEQEND
  5
1328D
  8
0
  0
POLYLINE
  5
1311B
  8
0
 66
     1
 10
0.0
 20
0.0
 30
0.0
  0
VERTEX
  5
1328E
  8
0
 10
200.0725407790492056
 20
186.4999999993430038
 30
0.0
  0
VERTEX
  5
1328F
  8
0
 10
200.2956784617803123
 20
186.5145183937675881
 30
0.0
  0
VERTEX
  5
13290
  8
0
 10
200.5161266793843993
 20
186.5464100855313916
 30
0.0
  0
VERTEX
  5
13291
  8
0
 10
200.7315102172001957
 20
186.6049237350715941
 30
0.0
  0
VERTEX
  5
13292
  8
0
 10
200.9399185180824929
 20
186.6872947394759876
 30
0.0
  0
VERTEX
  5
13293
  8
0
 10
201.139538173467713
 20
186.7904961623679014
 30
0.0
  0
VERTEX
  5
13294
  8
0
 10
201.3287918901623073
 20
186.9142939477798109
 30
0.0
  0
VERTEX
  5
13295
  8
0
 10
201.506084963119406
 20
187.0582315912893137
 30
0.0
  0
VERTEX
  5
13296
  8
0
 10
201.669887849902409
 20
187.2208764414669986
 30
0.0
  0
VERTEX
  5
13297
  8
0
 10
201.8190657592544142
 20
187.4012585050822963
 30
0.0
  0
VERTEX
  5
13298
  8
0
 10
201.9520239915356115
 20
187.5977086450706111
 30
0.0
  0
VERTEX
  5
13299
  8
0
 10
202.0671155969070867
 20
187.8083384375730986
 30
0.0
  0
VERTEX
  5
1329A
  8
0
 10
202.16315644800261
 20
188.0312287895700081
 30
0.0
  0
VERTEX
  5
1329B
  8
0
 10
202.2391349484680063
 20
188.2643494121589072
 30
0.0
  0
VERTEX
  5
1329C
  8
0
 10
202.2941369232759996
 20
188.5052727610379009
 30
0.0
  0
VERTEX
  5
1329D
  8
0
 10
202.3273730920639082
 20
188.7514637689043866
 30
0.0
  0
VERTEX
  5
1329E
  8
0
 10
202.3384744968913083
 20
189.0003446776584894
 30
0.0
  0
VERTEX
  5
1329F
  8
0
 10
202.3272812785305916
 20
189.2492722908133089
 30
0.0
  0
VERTEX
  5
132A0
  8
0
 10
202.2940171669600886
 20
189.4953946362415138
 30
0.0
  0
VERTEX
  5
132A1
  8
0
 10
202.2390739342098129
 20
189.7359732719878878
 30
0.0
  0
VERTEX
  5
132A2
  8
0
 10
202.163153657385692
 20
189.9687794976651958
 30
0.0
  0
VERTEX
  5
132A3
  8
0
 10
202.067185615672912
 20
190.1914943198702019
 30
0.0
  0
VERTEX
  5
132A4
  8
0
 10
201.9522377124125967
 20
190.4019505698240096
 30
0.0
  0
VERTEX
  5
132A5
  8
0
 10
201.8195183683129983
 20
190.5981920828361922
 30
0.0
  0
VERTEX
  5
132A6
  8
0
 10
201.6704538195222085
 20
190.7785040901748062
 30
0.0
  0
VERTEX
  5
132A7
  8
0
 10
201.50659681744159
 20
190.9413670991409049
 30
0.0
  0
VERTEX
  5
132A8
  8
0
 10
201.3292320722856061
 20
191.0852662338978121
 30
0.0
  0
VERTEX
  5
132A9
  8
0
 10
201.1397656366416982
 20
191.2091436758175007
 30
0.0
  0
VERTEX
  5
132AA
  8
0
 10
200.9399213406665012
 20
191.3127082133682109
 30
0.0
  0
VERTEX
  5
132AB
  8
0
 10
200.7314524641305979
 20
191.3951872989638048
 30
0.0
  0
VERTEX
  5
132AC
  8
0
 10
200.5161098461946096
 20
191.4536180936208041
 30
0.0
  0
VERTEX
  5
132AD
  8
0
 10
200.2956887451186105
 20
191.4854551149468023
 30
0.0
  0
VERTEX
  5
132AE
  8
0
 10
200.0725407790492056
 20
191.4999999993430038
 30
0.0
  0
SEQEND
  5
132AF
  8
0
  0
POLYLINE
  5
1311C
  8
0
 66
     1
 10
0.0
 20
0.0
 30
0.0
  0
VERTEX
  5
132B0
  8
0
 10
199.7030711123481979
 20
186.4999999993430038
 30
0.0
  0
VERTEX
  5
132B1
  8
0
 10
200.3030199219720089
 20
186.6172479698844882
 30
0.0
  0
VERTEX
  5
132B2
  8
0
 10
200.8616963719148885
 20
186.9543731562743005
 30
0.0
  0
VERTEX
  5
132B3
  8
0
 10
201.3317981535010972
 20
187.5256153353126933
 30
0.0
  0
VERTEX
  5
132B4
  8
0
 10
201.6361713165630078
 20
188.2999999993425035
 30
0.0
  0
SEQEND
  5
132B5
  8
0
  0
POLYLINE
  5
1311D
  8
0
 66
     1
 10
0.0
 20
0.0
 30
0.0
  0
VERTEX
  5
132B6
  8
0
 10
200.0725407790492056
 20
193.0185966264322985
 30
0.0
  0
VERTEX
  5
132B7
  8
0
 10
200.0642227526925012
 20
193.2758496059919082
 30
0.0
  0
VERTEX
  5
132B8
  8
0
 10
200.0393600530076981
 20
193.5148832231722054
 30
0.0
  0
VERTEX
  5
132B9
  8
0
 10
200.0001391725866995
 20
193.7197318553376988
 30
0.0
  0
VERTEX
  5
132BA
  8
0
 10
199.9493842234822125
 20
193.8774175997918974
 30
0.0
  0
SEQEND
  5
132BB
  8
0
  0
POLYLINE
  5
1311E
  8
0
 66
     1
 10
0.0
 20
0.0
 30
0.0
  0
VERTEX
  5
132BC
  8
0
 10
199.9493842234820988
 20
184.1225823988939965
 30
0.0
  0
VERTEX
  5
132BD
  8
0
 10
200.0001724950894015
 20
184.2800424599676035
 30
0.0
  0
VERTEX
  5
132BE
  8
0
 10
200.0393469881034889
 20
184.4850252736312939
 30
0.0
  0
VERTEX
  5
132BF
  8
0
 10
200.064087724967294
 20
184.724245922274207
 30
0.0
  0
VERTEX
  5
132C0
  8
0
 10
200.0725407790492056
 20
184.981403372253709
 30
0.0
  0
SEQEND
  5
132C1
  8
0
  0
POLYLINE
  5
1311F
  8
0
 66
     1
 10
0.0
 20
0.0
 30
0.0
  0
VERTEX
  5
132C2
  8
0
 10
199.949384223495997
 20
193.8774175998889859
 30
0.0
  0
VERTEX
  5
132C3
  8
0
 10
199.9087029684280026
 20
193.950312644111392
 30
0.0
  0
VERTEX
  5
132C4
  8
0
 10
199.866455507306398
 20
194.0000002196206879
 30
0.0
  0
SEQEND
  5
132C5
  8
0
  0
POLYLINE
  5
13120
  8
0
 66
     1
 10
0.0
 20
0.0
 30
0.0
  0
VERTEX
  5
132C6
  8
0
 10
199.9493842234982992
 20
184.1225823987811907
 30
0.0
  0
VERTEX
  5
132C7
  8
0
 10
199.9087029503077133
 20
184.0496873255341939
 30
0.0
  0
VERTEX
  5
132C8
  8
0
 10
199.866455469194392
 20
183.9999997516146095
 30
0.0
  0
SEQEND
  5
132C9
  8
0
  0
POLYLINE
  5
13121
  8
0
 66
     1
 10
0.0
 20
0.0
 30
0.0
  0
VERTEX
  5
132CA
  8
0
 10
200.5457735140855959
 20
193.9999999993428901
 30
0.0
  0
VERTEX
  5
132CB
  8
0
 10
201.832617194841788
 20
194.0044502646267972
 30
0.0
  0
VERTEX
  5
132CC
  8
0
 10
203.100222808203398
 20
194.0179955804669021
 30
0.0
  0
VERTEX
  5
132CD
  8
0
 10
204.327382608765987
 20
194.0407785127335956
 30
0.0
  0
VERTEX
  5
132CE
  8
0
 10
205.4941197484345992
 20
194.0720603499964056
 30
0.0
  0
SEQEND
  5
132CF
  8
0
  0
POLYLINE
  5
13122
  8
0
 66
     1
 10
0.0
 20
0.0
 30
0.0
  0
VERTEX
  5
132D0
  8
0
 10
205.4941197484345992
 20
183.9279396486894029
 30
0.0
  0
VERTEX
  5
132D1
  8
0
 10
204.3273930301110966
 20
183.9590223738036912
 30
0.0
  0
VERTEX
  5
132D2
  8
0
 10
203.1002189004074125
 20
183.9815944422934137
 30
0.0
  0
VERTEX
  5
132D3
  8
0
 10
201.832563432918505
 20
183.9953585776787861
 30
0.0
  0
VERTEX
  5
132D4
  8
0
 10
200.5457735140855959
 20
183.9999999993430038
 30
0.0
  0
SEQEND
  5
132D5
  8
0
  0
POLYLINE
  5
13123
  8
0
 66
     1
 10
0.0
 20
0.0
 30
0.0
  0
VERTEX
  5
132D6
  8
0
 10
306.1225824002090121
 20
132.0773037896684912
 30
0.0
  0
VERTEX
  5
132D7
  8
0
 10
306.2800424612825054
 20
132.27714496063561
 30
0.0
  0
VERTEX
  5
132D8
  8
0
 10
306.4850252749462811
 20
132.4312883545383954
 30
0.0
  0
VERTEX
  5
132D9
  8
0
 10
306.7242459235890806
 20
132.5286379525659015
 30
0.0
  0
VERTEX
  5
132DA
  8
0
 10
306.9814033735685825
 20
132.5618989431945067
 30
0.0
  0
SEQEND
  5
132DB
  8
0
  0
POLYLINE
  5
13124
  8
0
 66
     1
 10
0.0
 20
0.0
 30
0.0
  0
VERTEX
  5
132DC
  8
0
 10
306.1225824000961779
 20
132.077303789731701
 30
0.0
  0
VERTEX
  5
132DD
  8
0
 10
306.0496873268490958
 20
131.9172315326225942
 30
0.0
  0
VERTEX
  5
132DE
  8
0
 10
305.9999997529296252
 20
131.7509965766192863
 30
0.0
  0
SEQEND
  5
132DF
  8
0
  0
POLYLINE
  5
13125
  8
0
 66
     1
 10
0.0
 20
0.0
 30
0.0
  0
VERTEX
  5
132E0
  8
0
 10
308.5000000006580194
 20
132.5618989431945067
 30
0.0
  0
VERTEX
  5
132E1
  8
0
 10
308.5145183950825754
 20
132.4520332975986889
 30
0.0
  0
VERTEX
  5
132E2
  8
0
 10
308.5464100868463788
 20
132.3414710147675919
 30
0.0
  0
VERTEX
  5
132E3
  8
0
 10
308.6049237363865814
 20
132.230404134215803
 30
0.0
  0
VERTEX
  5
132E4
  8
0
 10
308.6872947407908896
 20
132.1203387120660864
 30
0.0
  0
VERTEX
  5
132E5
  8
0
 10
308.7904961636829739
 20
132.0127882174228091
 30
0.0
  0
VERTEX
  5
132E6
  8
0
 10
308.9142939490948834
 20
131.9088751944848923
 30
0.0
  0
VERTEX
  5
132E7
  8
0
 10
309.0582315926042156
 20
131.8097034946322879
 30
0.0
  0
VERTEX
  5
132E8
  8
0
 10
309.2208764427820142
 20
131.7166187500658054
 30
0.0
  0
VERTEX
  5
132E9
  8
0
 10
309.4012585063971983
 20
131.6312547405973987
 30
0.0
  0
VERTEX
  5
132EA
  8
0
 10
309.597708646385513
 20
131.5546411296749909
 30
0.0
  0
VERTEX
  5
132EB
  8
0
 10
310.0312287908848816
 20
131.4313837974511046
 30
0.0
  0
VERTEX
  5
132EC
  8
0
 10
310.5052727623528881
 20
131.3544502063519985
 30
0.0
  0
VERTEX
  5
132ED
  8
0
 10
311.0003446789734198
 20
131.3281900340647042
 30
0.0
  0
VERTEX
  5
132EE
  8
0
 10
311.4953946375563874
 20
131.3545213187169907
 30
0.0
  0
VERTEX
  5
132EF
  8
0
 10
311.9687794989800977
 20
131.4313861252047957
 30
0.0
  0
VERTEX
  5
132F0
  8
0
 10
312.4019505711389115
 20
131.5545287797247909
 30
0.0
  0
VERTEX
  5
132F1
  8
0
 10
312.5981920841510942
 20
131.6310605772632982
 30
0.0
  0
VERTEX
  5
132F2
  8
0
 10
312.7785040914897081
 20
131.7162974217918929
 30
0.0
  0
VERTEX
  5
132F3
  8
0
 10
312.9413671004558068
 20
131.8093707494483908
 30
0.0
  0
VERTEX
  5
132F4
  8
0
 10
313.085266235212714
 20
131.9086829663521883
 30
0.0
  0
VERTEX
  5
132F5
  8
0
 10
313.2091436771326016
 20
132.0127065025149022
 30
0.0
  0
VERTEX
  5
132F6
  8
0
 10
313.3127082146831981
 20
132.1203358427370063
 30
0.0
  0
VERTEX
  5
132F7
  8
0
 10
313.395187300278792
 20
132.230420321062212
 30
0.0
  0
VERTEX
  5
132F8
  8
0
 10
313.4536180949356776
 20
132.3414728051924101
 30
0.0
  0
VERTEX
  5
132F9
  8
0
 10
313.4854551162616758
 20
132.4520268283089877
 30
0.0
  0
VERTEX
  5
132FA
  8
0
 10
313.5000000006580194
 20
132.5618989431945067
 30
0.0
  0
SEQEND
  5
132FB
  8
0
  0
POLYLINE
  5
13126
  8
0
 66
     1
 10
0.0
 20
0.0
 30
0.0
  0
VERTEX
  5
132FC
  8
0
 10
315.0185966277472858
 20
132.561898943194393
 30
0.0
  0
VERTEX
  5
132FD
  8
0
 10
315.2758496073067818
 20
132.5291692582761129
 30
0.0
  0
VERTEX
  5
132FE
  8
0
 10
315.5148832244871073
 20
132.4313397621897934
 30
0.0
  0
VERTEX
  5
132FF
  8
0
 10
315.7197318566525723
 20
132.2770138435938065
 30
0.0
  0
VERTEX
  5
13300
  8
0
 10
315.877417601106913
 20
132.0773037896684912
 30
0.0
  0
SEQEND
  5
13301
  8
0
  0
POLYLINE
  5
13127
  8
0
 66
     1
 10
0.0
 20
0.0
 30
0.0
  0
VERTEX
  5
13302
  8
0
 10
315.8774176012040016
 20
132.0773037897228903
 30
0.0
  0
VERTEX
  5
13303
  8
0
 10
315.9503126454263793
 20
131.9172316039220902
 30
0.0
  0
VERTEX
  5
13304
  8
0
 10
316.0000002209357035
 20
131.7509967265818887
 30
0.0
  0
SEQEND
  5
13305
  8
0
  0
POLYLINE
  5
13128
  8
0
 66
     1
 10
0.0
 20
0.0
 30
0.0
  0
VERTEX
  5
13306
  8
0
 10
51.2505676444186093
 20
122.3865843979210979
 30
0.0
  0
VERTEX
  5
13307
  8
0
 10
51.2930311341363421
 20
121.9315137755634026
 30
0.0
  0
VERTEX
  5
13308
  8
0
 10
51.4144878961117726
 20
121.4984216608098961
 30
0.0
  0
VERTEX
  5
13309
  8
0
 10
51.6033397927951327
 20
121.1048556605173019
 30
0.0
  0
VERTEX
  5
1330A
  8
0
 10
51.8411890369868118
 20
120.7604554086591975
 30
0.0
  0
VERTEX
  5
1330B
  8
0
 10
52.1121393658388712
 20
120.4661281720387933
 30
0.0
  0
VERTEX
  5
1330C
  8
0
 10
52.4041936740869332
 20
120.2160220105809003
 30
0.0
  0
VERTEX
  5
1330D
  8
0
 10
52.7126994737434202
 20
120.0021469075804958
 30
0.0
  0
VERTEX
  5
1330E
  8
0
 10
53.0350966993284274
 20
119.815533551790196
 30
0.0
  0
VERTEX
  5
1330F
  8
0
 10
53.3702953349327984
 20
119.6481973981624947
 30
0.0
  0
VERTEX
  5
13310
  8
0
 10
53.7312717945831935
 20
119.5023785040384041
 30
0.0
  0
VERTEX
  5
13311
  8
0
 10
54.1151338547454586
 20
119.3719567471783023
 30
0.0
  0
VERTEX
  5
13312
  8
0
 10
54.5000000006578631
 20
119.2421878514946059
 30
0.0
  0
SEQEND
  5
13313
  8
0
  0
POLYLINE
  5
13129
  8
0
 66
     1
 10
0.0
 20
0.0
 30
0.0
  0
VERTEX
  5
13314
  8
0
 10
67.5000000006578631
 20
119.2086612954398959
 30
0.0
  0
VERTEX
  5
13315
  8
0
 10
67.9026519530955426
 20
119.3632158605487064
 30
0.0
  0
VERTEX
  5
13316
  8
0
 10
68.3047657126207213
 20
119.5182478961560975
 30
0.0
  0
VERTEX
  5
13317
  8
0
 10
68.6967230548778502
 20
119.6822904361844024
 30
0.0
  0
VERTEX
  5
13318
  8
0
 10
69.0650624525220138
 20
119.8689435432380037
 30
0.0
  0
VERTEX
  5
13319
  8
0
 10
69.4132081395587903
 20
120.0844942679153036
 30
0.0
  0
VERTEX
  5
1331A
  8
0
 10
69.7445619524938678
 20
120.3365711964472951
 30
0.0
  0
VERTEX
  5
1331B
  8
0
 10
70.054018805240247
 20
120.6373974331618939
 30
0.0
  0
VERTEX
  5
1331C
  8
0
 10
70.3300497718535667
 20
120.9966057472430947
 30
0.0
  0
VERTEX
  5
1331D
  8
0
 10
70.5524788894751538
 20
121.4164392641400951
 30
0.0
  0
VERTEX
  5
1331E
  8
0
 10
70.6984166091621518
 20
121.887017351176894
 30
0.0
  0
VERTEX
  5
1331F
  8
0
 10
70.7494323568940615
 20
122.3865843979211974
 30
0.0
  0
SEQEND
  5
13320
  8
0
  0
ARC
  5
1313B
  8
0
 10
200.0
 20
50.0
 30
0.0
 40
2.5
 50
270.0000000000007958
 51
90.0
  0
LINE
  5
1313C
  8
0
 10
199.1999999999999886
 20
52.5
 30
0.0
 11
200.0
 21
52.5
 31
0.0
  0
ARC
  5
1313D
  8
0
 10
199.1999999999999886
 20
50.0
 30
0.0
 40
2.5
 50
90.0
 51
270.0000000000007958
  0
LINE
  5
1313E
  8
0
 10
200.0
 20
47.5
 30
0.0
 11
199.1999999999999886
 21
47.5
 31
0.0
  0
ARC
  5
1313F
  8
0
 10
200.0
 20
72.0000000013149872
 30
0.0
 40
2.5
 50
270.0000000000007958
 51
90.0
  0
LINE
  5
13140
  8
0
 10
199.1999999999999886
 20
74.5000000013149872
 30
0.0
 11
200.0
 21
74.5000000013149872
 31
0.0
  0
ARC
  5
13141
  8
0
 10
199.1999999999999886
 20
72.0000000013149872
 30
0.0
 40
2.5
 50
90.0
 51
270.0000000000007958
  0
LINE
  5
13142
  8
0
 10
200.0
 20
69.5000000013149872
 30
0.0
 11
199.1999999999999886
 21
69.5000000013149872
 31
0.0
  0
ARC
  5
13143
  8
0
 10
173.8000000000000114
 20
72.0000000013149872
 30
0.0
 40
2.5
 50
270.0000000000007958
 51
90.0
  0
LINE
  5
13144
  8
0
 10
173.0
 20
74.5000000013149872
 30
0.0
 11
173.8000000000000114
 21
74.5000000013149872
 31
0.0
  0
ARC
  5
13145
  8
0
 10
173.0
 20
72.0000000013149872
 30
0.0
 40
2.5
 50
90.0
 51
270.0000000000007958
  0
LINE
  5
13146
  8
0
 10
173.8000000000000114
 20
69.5000000013149872
 30
0.0
 11
173.0
 21
69.5000000013149872
 31
0.0
  0
LINE
  5
13164
  8
0
 10
199.1999999999999886
 20
175.4999999986850128
 30
0.0
 11
200.0
 21
175.4999999986850128
 31
0.0
  0
ARC
  5
13165
  8
0
 10
200.0
 20
177.9999999986850128
 30
0.0
 40
2.5
 50
270.0000000000007958
 51
90.0
  0
LINE
  5
13166
  8
0
 10
200.0
 20
180.4999999986850128
 30
0.0
 11
199.1999999999999886
 21
180.4999999986850128
 31
0.0
  0
ARC
  5
13167
  8
0
 10
199.1999999999999886
 20
177.9999999986850128
 30
0.0
 40
2.5
 50
90.0
 51
270.0000000000007958
  0
LINE
  5
13168
  8
0
 10
199.1999999999999886
 20
197.5
 30
0.0
 11
200.0
 21
197.5
 31
0.0
  0
ARC
  5
13169
  8
0
 10
200.0
 20
200.0
 30
0.0
 40
2.5
 50
270.0000000000007958
 51
90.0
  0
LINE
  5
1316A
  8
0
 10
200.0
 20
202.5
 30
0.0
 11
199.1999999999999886
 21
202.5
 31
0.0
  0
ARC
  5
1316B
  8
0
 10
199.1999999999999886
 20
200.0
 30
0.0
 40
2.5
 50
90.0
 51
270.0000000000007958
  0
LINE
  5
1316C
  8
0
 10
173.0
 20
197.5
 30
0.0
 11
173.8000000000000114
 21
197.5
 31
0.0
  0
ARC
  5
1316D
  8
0
 10
173.8000000000000114
 20
200.0
 30
0.0
 40
2.5
 50
270.0000000000007958
 51
90.0
  0
LINE
  5
1316E
  8
0
 10
173.8000000000000114
 20
202.5
 30
0.0
 11
173.0
 21
202.5
 31
0.0
  0
ARC
  5
1316F
  8
0
 10
173.0
 20
200.0
 30
0.0
 40
2.5
 50
90.0
 51
270.0000000000007958
  0
LINE
  5
1318A
  8
0
 10
126.1530341360061982
 20
154.9693769938805019
 30
0.0
 11
131.1530341360061982
 21
154.9693769938805019
 31
0.0
  0
LINE
  5
1318B
  8
0
 10
131.1530341360061982
 20
154.9693769938805019
 30
0.0
 11
131.6530341360061129
 21
154.4693769938807009
 31
0.0
  0
LINE
  5
1318C
  8
0
 10
126.1530341360061982
 20
154.9693769938805019
 30
0.0
 11
125.6530341360062977
 21
154.4693769938807009
 31
0.0
  0
LINE
  5
1318D
  8
0
 10
125.6530341360062977
 20
154.4693769938807009
 30
0.0
 11
131.6530341360061129
 21
154.4693769938807009
 31
0.0
  0
LINE
  5
1318E
  8
0
 10
58.5000000006580834
 20
154.9693769938805019
 30
0.0
 11
63.5000000006580834
 21
154.9693769938805019
 31
0.0
  0
LINE
  5
1318F
  8
0
 10
63.5000000006580834
 20
154.9693769938805019
 30
0.0
 11
64.0000000006579626
 21
154.4693769938807009
 31
0.0
  0
LINE
  5
13190
  8
0
 10
58.5000000006580834
 20
154.9693769938805019
 30
0.0
 11
58.0000000006581899
 21
154.4693769938807009
 31
0.0
  0
LINE
  5
13191
  8
0
 10
58.0000000006581899
 20
154.4693769938807009
 30
0.0
 11
64.0000000006579626
 21
154.4693769938807009
 31
0.0
  0
LINE
  5
1319A
  8
0
 10
308.5000000006571099
 20
154.9693769938805019
 30
0.0
 11
313.5000000006571099
 21
154.9693769938805019
 31
0.0
  0
LINE
  5
1319B
  8
0
 10
313.5000000006571099
 20
154.9693769938805019
 30
0.0
 11
314.0000000006569962
 21
154.4693769938807009
 31
0.0
  0
LINE
  5
1319C
  8
0
 10
308.5000000006571099
 20
154.9693769938805019
 30
0.0
 11
308.0000000006572236
 21
154.4693769938807009
 31
0.0
  0
LINE
  5
1319D
  8
0
 10
308.0000000006572236
 20
154.4693769938807009
 30
0.0
 11
314.0000000006569962
 21
154.4693769938807009
 31
0.0
  0
ENDSEC
  0
EOF
