  0
SECTION
  2
HEADER
  9
$ACADVER
  1
AC1009
  9
$INSBASE
 10
0.0
 20
0.0
 30
0.0
  9
$EXTMIN
 10
0.0
 20
-2.960436562073669
 30
0.0
  9
$EXTMAX
 10
401.08597882385487
 20
293.0305114403314
 30
0.0
  9
$LIMMIN
 10
0.0
 20
0.0
  9
$LIMMAX
 10
420.0
 20
297.0
  9
$ORTHOMODE
 70
     1
  9
$REGENMODE
 70
     1
  9
$FILLMODE
 70
     1
  9
$QTEXTMODE
 70
     0
  9
$MIRRTEXT
 70
     0
  9
$DRAGMODE
 70
     2
  9
$LTSCALE
 40
10.0
  9
$OSMODE
 70
    37
  9
$ATTMODE
 70
     1
  9
$TEXTSIZE
 40
2.5
  9
$TRACEWID
 40
1.0
  9
$TEXTSTYLE
  7
STANDARD
  9
$CLAYER
  8
0
  9
$CELTYPE
  6
BYLAYER
  9
$CECOLOR
 62
   256
  9
$DIMSCALE
 40
1.0
  9
$DIMASZ
 40
2.5
  9
$DIMEXO
 40
0.625
  9
$DIMDLI
 40
3.75
  9
$DIMRND
 40
0.0
  9
$DIMDLE
 40
0.0
  9
$DIMEXE
 40
1.25
  9
$DIMTP
 40
0.0
  9
$DIMTM
 40
0.0
  9
$DIMTXT
 40
2.5
  9
$DIMCEN
 40
2.5
  9
$DIMTSZ
 40
0.0
  9
$DIMTOL
 70
     0
  9
$DIMLIM
 70
     0
  9
$DIMTIH
 70
     0
  9
$DIMTOH
 70
     0
  9
$DIMSE1
 70
     0
  9
$DIMSE2
 70
     0
  9
$DIMTAD
 70
     1
  9
$DIMZIN
 70
     8
  9
$DIMBLK
  1

  9
$DIMASO
 70
     1
  9
$DIMSHO
 70
     1
  9
$DIMPOST
  1

  9
$DIMAPOST
  1

  9
$DIMALT
 70
     0
  9
$DIMALTD
 70
     3
  9
$DIMALTF
 40
0.03937007874016
  9
$DIMLFAC
 40
1.0
  9
$DIMTOFL
 70
     1
  9
$DIMTVP
 40
0.0
  9
$DIMTIX
 70
     0
  9
$DIMSOXD
 70
     0
  9
$DIMSAH
 70
     0
  9
$DIMBLK1
  1

  9
$DIMBLK2
  1

  9
$DIMSTYLE
  2
ISO-25
  9
$DIMCLRD
 70
     0
  9
$DIMCLRE
 70
     0
  9
$DIMCLRT
 70
     0
  9
$DIMTFAC
 40
1.0
  9
$DIMGAP
 40
0.625
  9
$LUNITS
 70
     2
  9
$LUPREC
 70
     2
  9
$SKETCHINC
 40
1.0
  9
$FILLETRAD
 40
0.5
  9
$AUNITS
 70
     0
  9
$AUPREC
 70
     2
  9
$MENU
  1
.
  9
$ELEVATION
 40
0.0
  9
$PELEVATION
 40
0.0
  9
$THICKNESS
 40
0.0
  9
$LIMCHECK
 70
     0
  9
$BLIPMODE
 70
     0
  9
$CHAMFERA
 40
0.0
  9
$CHAMFERB
 40
0.0
  9
$SKPOLY
 70
     0
  9
$TDCREATE
 40
2454083.4444627082
  9
$TDUPDATE
 40
2459268.630971597
  9
$TDINDWG
 40
2.9720250231000001
  9
$TDUSRTIMER
 40
2.9720250231000001
  9
$USRTIMER
 70
     1
  9
$ANGBASE
 50
0.0
  9
$ANGDIR
 70
     0
  9
$PDMODE
 70
     0
  9
$PDSIZE
 40
0.0
  9
$PLINEWID
 40
0.0
  9
$COORDS
 70
     1
  9
$SPLFRAME
 70
     0
  9
$SPLINETYPE
 70
     6
  9
$SPLINESEGS
 70
     8
  9
$ATTDIA
 70
     0
  9
$ATTREQ
 70
     1
  9
$HANDLING
 70
     1
  9
$HANDSEED
  5
1DE97
  9
$SURFTAB1
 70
     6
  9
$SURFTAB2
 70
     6
  9
$SURFTYPE
 70
     6
  9
$SURFU
 70
     6
  9
$SURFV
 70
     6
  9
$UCSNAME
  2

  9
$UCSORG
 10
0.0
 20
0.0
 30
0.0
  9
$UCSXDIR
 10
1.0
 20
0.0
 30
0.0
  9
$UCSYDIR
 10
0.0
 20
1.0
 30
0.0
  9
$PUCSNAME
  2

  9
$PUCSORG
 10
0.0
 20
0.0
 30
0.0
  9
$PUCSXDIR
 10
1.0
 20
0.0
 30
0.0
  9
$PUCSYDIR
 10
0.0
 20
1.0
 30
0.0
  9
$USERI1
 70
     0
  9
$USERI2
 70
     0
  9
$USERI3
 70
     0
  9
$USERI4
 70
     0
  9
$USERI5
 70
     0
  9
$USERR1
 40
0.0
  9
$USERR2
 40
0.0
  9
$USERR3
 40
0.0
  9
$USERR4
 40
0.0
  9
$USERR5
 40
0.0
  9
$WORLDVIEW
 70
     1
  9
$SHADEDGE
 70
     3
  9
$SHADEDIF
 70
    70
  9
$TILEMODE
 70
     1
  9
$MAXACTVP
 70
    64
  9
$PLIMCHECK
 70
     0
  9
$PEXTMIN
 10
0.0
 20
0.0
 30
0.0
  9
$PEXTMAX
 10
0.0
 20
0.0
 30
0.0
  9
$PLIMMIN
 10
0.0
 20
0.0
  9
$PLIMMAX
 10
12.0
 20
9.0
  9
$UNITMODE
 70
     0
  9
$VISRETAIN
 70
     1
  9
$PLINEGEN
 70
     0
  9
$PSLTSCALE
 70
     1
  0
ENDSEC
  0
SECTION
  2
TABLES
  0
TABLE
  2
VPORT
 70
     1
  0
VPORT
  2
*ACTIVE
 70
     0
 10
0.0
 20
0.0
 11
1.0
 21
1.0
 12
359.6862157792865
 22
145.0423845880548
 13
0.0
 23
0.0
 14
10.0
 24
10.0
 15
10.0
 25
10.0
 16
0.0
 26
0.0
 36
1.0
 17
0.0
 27
0.0
 37
0.0
 40
298.86893629182259
 41
2.415644171779141
 42
50.0
 43
0.0
 44
0.0
 50
0.0
 51
0.0
 71
     0
 72
  1000
 73
     1
 74
     3
 75
     0
 76
     0
 77
     0
 78
     0
  0
ENDTAB
  0
TABLE
  2
LTYPE
 70
     2
  0
LTYPE
  2
CONTINUOUS
 70
     0
  3
Solid line
 72
    65
 73
     0
 40
0.0
  0
LTYPE
  2
CENTER
 70
     0
  3
____ _ ____ _ ____ _ ____ _ ____ _ ____ _ ____
 72
    65
 73
     4
 40
2.0
 49
1.25
 49
-0.25
 49
0.25
 49
-0.25
  0
ENDTAB
  0
TABLE
  2
LAYER
 70
     4
  0
LAYER
  2
0
 70
     0
 62
     7
  6
CONTINUOUS
  0
LAYER
  2
DEFPOINTS
 70
     0
 62
     7
  6
CONTINUOUS
  0
LAYER
  2
1
 70
     0
 62
     1
  6
CENTER
  0
LAYER
  2
3
 70
     0
 62
     3
  6
CONTINUOUS
  0
ENDTAB
  0
TABLE
  2
STYLE
 70
     2
  0
STYLE
  2
STANDARD
 70
     0
 40
0.0
 41
1.0
 50
0.0
 71
     0
 42
2.5
  3
txt
  4

  0
STYLE
  2
STANDARD1
 70
     0
 40
0.0
 41
1.0
 50
0.0
 71
     0
 42
3.0
  3
txt
  4

  0
ENDTAB
  0
TABLE
  2
VIEW
 70
     4
  0
VIEW
  2
OLE1
 70
     0
 40
17.336203194614189
 10
1078.262703908531
 20
377.67444865954309
 41
31.074911629702001
 11
0.0
 21
0.0
 31
1.0
 12
0.0
 22
0.0
 32
0.0
 42
50.0
 43
0.0
 44
0.0
 50
0.0
 71
     0
  0
VIEW
  2
OLE2
 70
     0
 40
50.523198253338478
 10
1031.767738941523
 20
579.92835671582054
 41
90.562155008667546
 11
0.0
 21
0.0
 31
1.0
 12
0.0
 22
0.0
 32
0.0
 42
50.0
 43
0.0
 44
0.0
 50
0.0
 71
     0
  0
VIEW
  2
OLE3
 70
     0
 40
95.502301876216066
 10
202.0430959360805
 20
425.55992261598641
 41
146.70534324358491
 11
0.0
 21
0.0
 31
1.0
 12
0.0
 22
0.0
 32
0.0
 42
50.0
 43
0.0
 44
0.0
 50
0.0
 71
     0
  0
VIEW
  2
OLE4
 70
     0
 40
1.514979042141817
 10
182.21676900169319
 20
680.91984443132458
 41
1.8928111647000769
 11
0.0
 21
0.0
 31
1.0
 12
0.0
 22
0.0
 32
0.0
 42
50.0
 43
0.0
 44
0.0
 50
0.0
 71
     0
  0
ENDTAB
  0
TABLE
  2
UCS
 70
     0
  0
ENDTAB
  0
TABLE
  2
APPID
 70
    42
  0
APPID
  2
ACAD
 70
     0
  0
APPID
  2
_FTCNV
 70
     0
  0
APPID
  2
DCO15
 70
     0
  0
APPID
  2
GENIUS_GENOREF_13
 70
     0
  0
APPID
  2
GENIUS_GENOENT_13
 70
     0
  0
APPID
  2
GENIUS_GENBH_13
 70
     0
  0
APPID
  2
GENIUS_GENOBJ_13
 70
     0
  0
APPID
  2
GENIUS_GENODEF_13
 70
     0
  0
APPID
  2
GENIUS_GENOLIS_13
 70
     0
  0
APPID
  2
GENIUS_GENOBJ-NBEHI-BHF_13
 70
     0
  0
APPID
  2
GENIUS_GENOBJ-NBEHI-BHB_13
 70
     0
  0
APPID
  2
GENIUS_GENOBJ-F-PART_13
 70
     0
  0
APPID
  2
GENIUS_GEFSTDP_13
 70
     0
  0
APPID
  2
GENIUS_GENOBJ-N-RSSYM_13
 70
     0
  0
APPID
  2
GENIUS_GENSYMENT_13
 70
     0
  0
APPID
  2
GENIUS_GENOBJ-N-TIT_13
 70
     0
  0
APPID
  2
GENIUS_GENTITLE_13
 70
     0
  0
APPID
  2
GENIUS_GENZVEED_13
 70
     0
  0
APPID
  2
GENIUS_GENOBJ-N-LEADER_13
 70
     0
  0
APPID
  2
GENIUS_GENOBJ-N-FIL_13
 70
     0
  0
APPID
  2
GENIUS_GENOBJ-N-SEC_13
 70
     0
  0
APPID
  2
GENIUS_GENOBJ-N-CRS_13
 70
     0
  0
APPID
  2
GENIUS_GENOBJ-N-ZOO_13
 70
     0
  0
APPID
  2
GENIUS_GENZOO_13
 70
     0
  0
APPID
  2
GENIUS_GENOBJ-F-TOL_13
 70
     0
  0
APPID
  2
GENIUS_GENFIL_13
 70
     0
  0
APPID
  2
GENIUS_GENOBJ-N-CHA_13
 70
     0
  0
APPID
  2
_CALL_MAC$
 70
     0
  0
APPID
  2
ASM_BASE
 70
     0
  0
APPID
  2
ASM_EXPLO_VER_2_00
 70
     0
  0
APPID
  2
ASM_CADM_VER_12_00
 70
     0
  0
APPID
  2
ASM_BASEFORO
 70
     0
  0
APPID
  2
ASM_BASETRAVI
 70
     0
  0
APPID
  2
ASM_BASETRAVI1
 70
     0
  0
APPID
  2
ASM_GRUPPI
 70
     0
  0
APPID
  2
ASM_CADM_ALBERO
 70
     0
  0
APPID
  2
ASM_GOLE
 70
     0
  0
APPID
  2
ACAD_MLEADERVER
 70
     0
  0
APPID
  2
ACAD_EXEMPT_FROM_CAD_STANDARDS
 70
     0
  0
APPID
  2
ACAD_DSTYLE_DIMJAG
 70
     0
  0
APPID
  2
ACAD_DSTYLE_DIMTALN
 70
     0
  0
APPID
  2
ACAD_NAV_VCDISPLAY
 70
     0
  0
ENDTAB
  0
TABLE
  2
DIMSTYLE
 70
     2
  0
DIMSTYLE
  2
ISO-25
 70
     0
  3

  4

  5

  6

  7

 40
1.0
 41
2.5
 42
0.625
 43
3.75
 44
1.25
 45
0.0
 46
0.0
 47
0.0
 48
0.0
140
2.5
141
2.5
142
0.0
143
0.03937007874016
144
1.0
145
0.0
146
1.0
147
0.625
 71
     0
 72
     0
 73
     0
 74
     0
 75
     0
 76
     0
 77
     1
 78
     8
170
     0
171
     3
172
     1
173
     0
174
     0
175
     0
176
     0
177
     0
178
     0
  0
DIMSTYLE
  2
STANDARD
 70
     0
  3

  4

  5

  6

  7

 40
1.0
 41
0.18
 42
0.0625
 43
0.38
 44
0.18
 45
0.0
 46
0.0
 47
0.0
 48
0.0
140
0.18
141
0.09
142
0.0
143
25.399999999999999
144
1.0
145
0.0
146
1.0
147
0.09
 71
     0
 72
     0
 73
     1
 74
     1
 75
     0
 76
     0
 77
     0
 78
     0
170
     0
171
     2
172
     0
173
     0
174
     0
175
     0
176
     0
177
     0
178
     0
  0
ENDTAB
  0
ENDSEC
  0
SECTION
  2
BLOCKS
  0
BLOCK
  8
0
  2
$MODEL_SPACE
 70
     0
 10
0.0
 20
0.0
 30
0.0
  3
$MODEL_SPACE
  1

  0
ENDBLK
  5
21
  8
0
  0
BLOCK
 67
     1
  8
0
  2
$PAPER_SPACE
 70
     0
 10
0.0
 20
0.0
 30
0.0
  3
$PAPER_SPACE
  1

  0
ENDBLK
  5
53
 67
     1
  8
0
  0
ENDSEC
  0
SECTION
  2
ENTITIES
  0
TEXT
  5
C317
  8
0
 62
     3
 10
0.0
 20
0.0
 30
0.0
 40
10.0
  1
ST-H217U
  7
STANDARD1
  0
POLYLINE
  5
1B961
  8
0
 66
     1
 10
0.0
 20
0.0
 30
0.0
 70
   128
  0
VERTEX
  5
1D55E
  8
0
 10
297.44625911109978
 20
163.24747200120001
 30
0.0
  0
VERTEX
  5
1D55F
  8
0
 10
297.49999269839992
 20
163.2553968579
 30
0.0
  0
VERTEX
  5
1D560
  8
0
 10
297.53821417689983
 20
163.26903654259999
 30
0.0
  0
VERTEX
  5
1D561
  8
0
 10
297.60467335579978
 20
163.3192525245
 30
0.0
  0
VERTEX
  5
1D562
  8
0
 10
297.6349525152998
 20
163.35681672210001
 30
0.0
  0
VERTEX
  5
1D563
  8
0
 10
297.65979275109981
 20
163.3941806853
 30
0.0
  0
VERTEX
  5
1D564
  8
0
 10
297.67782315609998
 20
163.42729898170001
 30
0.0
  0
VERTEX
  5
1D565
  8
0
 10
297.71169349550001
 20
163.5005172342
 30
0.0
  0
VERTEX
  5
1D566
  8
0
 10
297.77497872710001
 20
163.65744112990001
 30
0.0
  0
VERTEX
  5
1D567
  8
0
 10
297.8374294935997
 20
163.82378581910001
 30
0.0
  0
VERTEX
  5
1D568
  8
0
 10
297.8963039814999
 20
163.9865996316
 30
0.0
  0
VERTEX
  5
1D569
  8
0
 10
297.94592484829991
 20
164.1269853339
 30
0.0
  0
VERTEX
  5
1D56A
  8
0
 10
297.98729047180001
 20
164.2456344329
 30
0.0
  0
VERTEX
  5
1D56B
  8
0
 10
298.03510829799978
 20
164.3837346695
 30
0.0
  0
SEQEND
  5
1D56C
  8
0
  0
POLYLINE
  5
1B983
  8
0
 66
     1
 10
0.0
 20
0.0
 30
0.0
 70
   128
  0
VERTEX
  5
1D56D
  8
0
 10
302.5018803774999
 20
175.58119501920001
 30
0.0
  0
VERTEX
  5
1D56E
  8
0
 10
302.81973704689989
 20
175.6102178246
 30
0.0
  0
VERTEX
  5
1D56F
  8
0
 10
303.06968912479988
 20
175.72588622570001
 30
0.0
  0
VERTEX
  5
1D570
  8
0
 10
303.28416153789982
 20
175.93237999830001
 30
0.0
  0
VERTEX
  5
1D571
  8
0
 10
303.41178998349977
 20
176.18810720740001
 30
0.0
  0
VERTEX
  5
1D572
  8
0
 10
303.4538112580999
 20
176.48907806720001
 30
0.0
  0
VERTEX
  5
1D573
  8
0
 10
303.39176282279982
 20
176.7932536081
 30
0.0
  0
VERTEX
  5
1D574
  8
0
 10
303.23641821739989
 20
177.0549906418
 30
0.0
  0
VERTEX
  5
1D575
  8
0
 10
302.99838706849982
 20
177.2496296093
 30
0.0
  0
VERTEX
  5
1D576
  8
0
 10
302.73927077649978
 20
177.3385485634
 30
0.0
  0
VERTEX
  5
1D577
  8
0
 10
302.69070789220001
 20
177.3455185816
 30
0.0
  0
VERTEX
  5
1D578
  8
0
 10
302.3738197981998
 20
177.32357289640001
 30
0.0
  0
VERTEX
  5
1D579
  8
0
 10
302.11713239549999
 20
177.2003049031
 30
0.0
  0
VERTEX
  5
1D57A
  8
0
 10
301.92930325859987
 20
177.01524179430001
 30
0.0
  0
VERTEX
  5
1D57B
  8
0
 10
301.78835317489978
 20
176.7485408112
 30
0.0
  0
VERTEX
  5
1D57C
  8
0
 10
301.74001380800001
 20
176.43474470819999
 30
0.0
  0
VERTEX
  5
1D57D
  8
0
 10
301.7986945807998
 20
176.12523641440001
 30
0.0
  0
VERTEX
  5
1D57E
  8
0
 10
301.95994004609997
 20
175.86139272899999
 30
0.0
  0
VERTEX
  5
1D57F
  8
0
 10
302.17846557499979
 20
175.6870286539
 30
0.0
  0
VERTEX
  5
1D580
  8
0
 10
302.45440527789992
 20
175.58770310130001
 30
0.0
  0
VERTEX
  5
1D581
  8
0
 10
302.5018803774999
 20
175.58119501920001
 30
0.0
  0
SEQEND
  5
1D582
  8
0
  0
POLYLINE
  5
1B984
  8
0
 66
     1
 10
0.0
 20
0.0
 30
0.0
 70
   128
  0
VERTEX
  5
1D583
  8
0
 10
297.61212393639988
 20
180.95537144689999
 30
0.0
  0
VERTEX
  5
1D584
  8
0
 10
297.9395322501
 20
181.01476561280001
 30
0.0
  0
VERTEX
  5
1D585
  8
0
 10
298.20049628609991
 20
181.15802165119999
 30
0.0
  0
VERTEX
  5
1D586
  8
0
 10
298.39863702649973
 20
181.37642797079999
 30
0.0
  0
VERTEX
  5
1D587
  8
0
 10
298.50085899229998
 20
181.6223213449
 30
0.0
  0
VERTEX
  5
1D588
  8
0
 10
298.50911423559978
 20
181.89274389299999
 30
0.0
  0
VERTEX
  5
1D589
  8
0
 10
298.41552004219989
 20
182.12550934399999
 30
0.0
  0
VERTEX
  5
1D58A
  8
0
 10
298.25107082719978
 20
182.30461757629999
 30
0.0
  0
VERTEX
  5
1D58B
  8
0
 10
298.00253435969989
 20
182.44422655549999
 30
0.0
  0
VERTEX
  5
1D58C
  8
0
 10
297.70947322249981
 20
182.50401001419999
 30
0.0
  0
VERTEX
  5
1D58D
  8
0
 10
297.64563664789989
 20
182.5057795271
 30
0.0
  0
VERTEX
  5
1D58E
  8
0
 10
297.31751307839983
 20
182.4545158073
 30
0.0
  0
VERTEX
  5
1D58F
  8
0
 10
297.0543734728999
 20
182.3187196627
 30
0.0
  0
VERTEX
  5
1D590
  8
0
 10
296.86624631279977
 20
182.1262301877
 30
0.0
  0
VERTEX
  5
1D591
  8
0
 10
296.75578400489979
 20
181.87484387309999
 30
0.0
  0
VERTEX
  5
1D592
  8
0
 10
296.75143286579993
 20
181.62333089859999
 30
0.0
  0
VERTEX
  5
1D593
  8
0
 10
296.83771058919979
 20
181.37982357289999
 30
0.0
  0
VERTEX
  5
1D594
  8
0
 10
297.01932594179999
 20
181.16267826410001
 30
0.0
  0
VERTEX
  5
1D595
  8
0
 10
297.25541993969978
 20
181.02369885889999
 30
0.0
  0
VERTEX
  5
1D596
  8
0
 10
297.54174575209981
 20
180.9576420114
 30
0.0
  0
VERTEX
  5
1D597
  8
0
 10
297.61212393639988
 20
180.95537144689999
 30
0.0
  0
SEQEND
  5
1D598
  8
0
  0
POLYLINE
  5
1B985
  8
0
 66
     1
 10
0.0
 20
0.0
 30
0.0
 70
   128
  0
VERTEX
  5
1D599
  8
0
 10
294.89982947710001
 20
178.4606451169
 30
0.0
  0
VERTEX
  5
1D59A
  8
0
 10
295.24835273619988
 20
178.53056136519999
 30
0.0
  0
VERTEX
  5
1D59B
  8
0
 10
295.50390765069977
 20
178.68809644129999
 30
0.0
  0
VERTEX
  5
1D59C
  8
0
 10
295.6926755606998
 20
178.92298158259999
 30
0.0
  0
VERTEX
  5
1D59D
  8
0
 10
295.78713402149992
 20
179.18949443849999
 30
0.0
  0
VERTEX
  5
1D59E
  8
0
 10
295.78579291699998
 20
179.48270458729999
 30
0.0
  0
VERTEX
  5
1D59F
  8
0
 10
295.68541869519981
 20
179.73487693819999
 30
0.0
  0
VERTEX
  5
1D5A0
  8
0
 10
295.51094099879992
 20
179.9358898774
 30
0.0
  0
VERTEX
  5
1D5A1
  8
0
 10
295.2558033167997
 20
180.08282464000001
 30
0.0
  0
VERTEX
  5
1D5A2
  8
0
 10
294.94748339059993
 20
180.1344310865
 30
0.0
  0
VERTEX
  5
1D5A3
  8
0
 10
294.59891542790001
 20
180.06788995119999
 30
0.0
  0
VERTEX
  5
1D5A4
  8
0
 10
294.33951601379982
 20
179.90977372969999
 30
0.0
  0
VERTEX
  5
1D5A5
  8
0
 10
294.15357932449979
 20
179.68620602039999
 30
0.0
  0
VERTEX
  5
1D5A6
  8
0
 10
294.05462071299979
 20
179.4069414958
 30
0.0
  0
VERTEX
  5
1D5A7
  8
0
 10
294.06070038669992
 20
179.1357720270999
 30
0.0
  0
VERTEX
  5
1D5A8
  8
0
 10
294.15894374250001
 20
178.87167874720001
 30
0.0
  0
VERTEX
  5
1D5A9
  8
0
 10
294.3496339022999
 20
178.65145448600001
 30
0.0
  0
VERTEX
  5
1D5AA
  8
0
 10
294.58335861559999
 20
178.51945254949999
 30
0.0
  0
VERTEX
  5
1D5AB
  8
0
 10
294.89982947710001
 20
178.4606451169
 30
0.0
  0
SEQEND
  5
1D5AC
  8
0
  0
POLYLINE
  5
1B986
  8
0
 66
     1
 10
0.0
 20
0.0
 30
0.0
 70
   128
  0
VERTEX
  5
1D5AD
  8
0
 10
297.39313647149987
 20
175.85555240510001
 30
0.0
  0
VERTEX
  5
1D5AE
  8
0
 10
297.67745062709992
 20
175.89916251599999
 30
0.0
  0
VERTEX
  5
1D5AF
  8
0
 10
297.93212637299979
 20
176.0310648009
 30
0.0
  0
VERTEX
  5
1D5B0
  8
0
 10
298.14641997220002
 20
176.25351399179999
 30
0.0
  0
VERTEX
  5
1D5B1
  8
0
 10
298.2727371155998
 20
176.52921248230001
 30
0.0
  0
VERTEX
  5
1D5B2
  8
0
 10
298.3007363974998
 20
176.83780435470001
 30
0.0
  0
VERTEX
  5
1D5B3
  8
0
 10
298.22249040009979
 20
177.1202502772
 30
0.0
  0
VERTEX
  5
1D5B4
  8
0
 10
298.0624370276999
 20
177.3505682126
 30
0.0
  0
VERTEX
  5
1D5B5
  8
0
 10
297.82260283829987
 20
177.52097602929999
 30
0.0
  0
VERTEX
  5
1D5B6
  8
0
 10
297.56657108659988
 20
177.5882510468
 30
0.0
  0
VERTEX
  5
1D5B7
  8
0
 10
297.49033674599991
 20
177.59232092650001
 30
0.0
  0
VERTEX
  5
1D5B8
  8
0
 10
297.1894972025998
 20
177.54547912629999
 30
0.0
  0
VERTEX
  5
1D5B9
  8
0
 10
296.92120179529979
 20
177.40089874719999
 30
0.0
  0
VERTEX
  5
1D5BA
  8
0
 10
296.72101959579982
 20
177.18337532129999
 30
0.0
  0
VERTEX
  5
1D5BB
  8
0
 10
296.59893438219979
 20
176.90036688000001
 30
0.0
  0
VERTEX
  5
1D5BC
  8
0
 10
296.58191725609981
 20
176.60491596910001
 30
0.0
  0
VERTEX
  5
1D5BD
  8
0
 10
296.66303917759979
 20
176.32012963299999
 30
0.0
  0
VERTEX
  5
1D5BE
  8
0
 10
296.8398265539999
 20
176.08110103760001
 30
0.0
  0
VERTEX
  5
1D5BF
  8
0
 10
297.06261381499991
 20
175.93340724710001
 30
0.0
  0
VERTEX
  5
1D5C0
  8
0
 10
297.3382554947998
 20
175.85870400069999
 30
0.0
  0
VERTEX
  5
1D5C1
  8
0
 10
297.39313647149987
 20
175.85555240510001
 30
0.0
  0
SEQEND
  5
1D5C2
  8
0
  0
POLYLINE
  5
1B987
  8
0
 66
     1
 10
0.0
 20
0.0
 30
0.0
 70
   128
  0
VERTEX
  5
1D5C3
  8
0
 10
305.27780279519988
 20
177.7723697946
 30
0.0
  0
VERTEX
  5
1D5C4
  8
0
 10
305.53064569829979
 20
177.75253262370001
 30
0.0
  0
VERTEX
  5
1D5C5
  8
0
 10
305.76210543509978
 20
177.8184628114
 30
0.0
  0
VERTEX
  5
1D5C6
  8
0
 10
305.96201941369992
 20
177.97766309229999
 30
0.0
  0
VERTEX
  5
1D5C7
  8
0
 10
306.08160123229982
 20
178.19698397069999
 30
0.0
  0
VERTEX
  5
1D5C8
  8
0
 10
306.12518712879978
 20
178.47059722989999
 30
0.0
  0
VERTEX
  5
1D5C9
  8
0
 10
306.07723519199999
 20
178.76551542429999
 30
0.0
  0
VERTEX
  5
1D5CA
  8
0
 10
305.95082864159991
 20
179.0307300165
 30
0.0
  0
VERTEX
  5
1D5CB
  8
0
 10
305.74903711669981
 20
179.26100883629999
 30
0.0
  0
VERTEX
  5
1D5CC
  8
0
 10
305.50577566029989
 20
179.4088488445
 30
0.0
  0
VERTEX
  5
1D5CD
  8
0
 10
305.41893169280002
 20
179.4389100745
 30
0.0
  0
VERTEX
  5
1D5CE
  8
0
 10
305.12207075949982
 20
179.46213167159999
 30
0.0
  0
VERTEX
  5
1D5CF
  8
0
 10
304.8919670283999
 20
179.37547769400001
 30
0.0
  0
VERTEX
  5
1D5D0
  8
0
 10
304.72203418609979
 20
179.21914588659999
 30
0.0
  0
VERTEX
  5
1D5D1
  8
0
 10
304.59881648419992
 20
178.97734474390001
 30
0.0
  0
VERTEX
  5
1D5D2
  8
0
 10
304.56607863310001
 20
178.69659196590001
 30
0.0
  0
VERTEX
  5
1D5D3
  8
0
 10
304.6217046677998
 20
178.41029036789999
 30
0.0
  0
VERTEX
  5
1D5D4
  8
0
 10
304.76854071019989
 20
178.13286054880001
 30
0.0
  0
VERTEX
  5
1D5D5
  8
0
 10
304.97982427480002
 20
177.920213528
 30
0.0
  0
VERTEX
  5
1D5D6
  8
0
 10
305.24178668849981
 20
177.78272982690001
 30
0.0
  0
VERTEX
  5
1D5D7
  8
0
 10
305.27780279519988
 20
177.7723697946
 30
0.0
  0
SEQEND
  5
1D5D8
  8
0
  0
POLYLINE
  5
1B988
  8
0
 66
     1
 10
0.0
 20
0.0
 30
0.0
 70
   128
  0
VERTEX
  5
1D5D9
  8
0
 10
300.30385479329988
 20
183.25648885219999
 30
0.0
  0
VERTEX
  5
1D5DA
  8
0
 10
300.62552615999988
 20
183.29971898349999
 30
0.0
  0
VERTEX
  5
1D5DB
  8
0
 10
300.87877139449978
 20
183.40539429340001
 30
0.0
  0
VERTEX
  5
1D5DC
  8
0
 10
301.06770321719978
 20
183.56908913699991
 30
0.0
  0
VERTEX
  5
1D5DD
  8
0
 10
301.15502402179982
 20
183.74675381930001
 30
0.0
  0
VERTEX
  5
1D5DE
  8
0
 10
301.15913674229978
 20
183.9481243864
 30
0.0
  0
VERTEX
  5
1D5DF
  8
0
 10
301.06117650859977
 20
184.14892125879999
 30
0.0
  0
VERTEX
  5
1D5E0
  8
0
 10
300.8811555803
 20
184.31046847249999
 30
0.0
  0
VERTEX
  5
1D5E1
  8
0
 10
300.62071308489982
 20
184.43389665340001
 30
0.0
  0
VERTEX
  5
1D5E2
  8
0
 10
300.3197096287999
 20
184.49256066230001
 30
0.0
  0
VERTEX
  5
1D5E3
  8
0
 10
300.25296732779998
 20
184.49618909509999
 30
0.0
  0
VERTEX
  5
1D5E4
  8
0
 10
299.93113204829979
 20
184.46582052860001
 30
0.0
  0
VERTEX
  5
1D5E5
  8
0
 10
299.68156740069981
 20
184.3671580777
 30
0.0
  0
VERTEX
  5
1D5E6
  8
0
 10
299.51157495379988
 20
184.2272529379
 30
0.0
  0
VERTEX
  5
1D5E7
  8
0
 10
299.40631315109982
 20
184.03450269250001
 30
0.0
  0
VERTEX
  5
1D5E8
  8
0
 10
299.40422698849989
 20
183.82899332790001
 30
0.0
  0
VERTEX
  5
1D5E9
  8
0
 10
299.4935445486999
 20
183.63151010129999
 30
0.0
  0
VERTEX
  5
1D5EA
  8
0
 10
299.67991337180001
 20
183.44626072790001
 30
0.0
  0
VERTEX
  5
1D5EB
  8
0
 10
299.9342463909997
 20
183.31852424889999
 30
0.0
  0
VERTEX
  5
1D5EC
  8
0
 10
300.2373807131998
 20
183.25863834469999
 30
0.0
  0
VERTEX
  5
1D5ED
  8
0
 10
300.30385479329988
 20
183.25648885219999
 30
0.0
  0
SEQEND
  5
1D5EE
  8
0
  0
POLYLINE
  5
1B989
  8
0
 66
     1
 10
0.0
 20
0.0
 30
0.0
 70
   128
  0
VERTEX
  5
1D5EF
  8
0
 10
302.97740623350001
 20
180.78079875559999
 30
0.0
  0
VERTEX
  5
1D5F0
  8
0
 10
303.2697372138
 20
180.78654874119999
 30
0.0
  0
VERTEX
  5
1D5F1
  8
0
 10
303.52997109289981
 20
180.8759706095
 30
0.0
  0
VERTEX
  5
1D5F2
  8
0
 10
303.73369976879991
 20
181.0479989275
 30
0.0
  0
VERTEX
  5
1D5F3
  8
0
 10
303.8414500653999
 20
181.26414585859999
 30
0.0
  0
VERTEX
  5
1D5F4
  8
0
 10
303.85952517389978
 20
181.5242288634
 30
0.0
  0
VERTEX
  5
1D5F5
  8
0
 10
303.77469286320002
 20
181.7841088399
 30
0.0
  0
VERTEX
  5
1D5F6
  8
0
 10
303.61201688649999
 20
182.00633544479999
 30
0.0
  0
VERTEX
  5
1D5F7
  8
0
 10
303.36917266249981
 20
182.1960812435
 30
0.0
  0
VERTEX
  5
1D5F8
  8
0
 10
303.08646783229977
 20
182.3090692982
 30
0.0
  0
VERTEX
  5
1D5F9
  8
0
 10
302.99886390559982
 20
182.32664708050001
 30
0.0
  0
VERTEX
  5
1D5FA
  8
0
 10
302.70827636119981
 20
182.329578884
 30
0.0
  0
VERTEX
  5
1D5FB
  8
0
 10
302.44869813320003
 20
182.24032465369999
 30
0.0
  0
VERTEX
  5
1D5FC
  8
0
 10
302.25972160699979
 20
182.0815155283
 30
0.0
  0
VERTEX
  5
1D5FD
  8
0
 10
302.13748738169988
 20
181.8492231891
 30
0.0
  0
VERTEX
  5
1D5FE
  8
0
 10
302.11816057559992
 20
181.59102518110001
 30
0.0
  0
VERTEX
  5
1D5FF
  8
0
 10
302.1926216780999
 20
181.33231867110001
 30
0.0
  0
VERTEX
  5
1D600
  8
0
 10
302.3643575608998
 20
181.08667116609999
 30
0.0
  0
VERTEX
  5
1D601
  8
0
 10
302.59686037899968
 20
180.90987447649999
 30
0.0
  0
VERTEX
  5
1D602
  8
0
 10
302.8808765112999
 20
180.79849574720001
 30
0.0
  0
VERTEX
  5
1D603
  8
0
 10
302.97740623350001
 20
180.78079875559999
 30
0.0
  0
SEQEND
  5
1D604
  8
0
  0
POLYLINE
  5
1B98A
  8
0
 66
     1
 10
0.0
 20
0.0
 30
0.0
 70
   128
  0
VERTEX
  5
1D605
  8
0
 10
300.1571975647999
 20
178.39939203110001
 30
0.0
  0
VERTEX
  5
1D606
  8
0
 10
300.44130310409992
 20
178.4379338846
 30
0.0
  0
VERTEX
  5
1D607
  8
0
 10
300.70182010529987
 20
178.5630421713
 30
0.0
  0
VERTEX
  5
1D608
  8
0
 10
300.9252183138999
 20
178.78080774099999
 30
0.0
  0
VERTEX
  5
1D609
  8
0
 10
301.05679556730001
 20
179.04671709990001
 30
0.0
  0
VERTEX
  5
1D60A
  8
0
 10
301.09331831329968
 20
179.34723068029999
 30
0.0
  0
VERTEX
  5
1D60B
  8
0
 10
301.0217927395999
 20
179.62704654780001
 30
0.0
  0
VERTEX
  5
1D60C
  8
0
 10
300.86950287219997
 20
179.85078748320001
 30
0.0
  0
VERTEX
  5
1D60D
  8
0
 10
300.63355788589979
 20
180.02642001960001
 30
0.0
  0
VERTEX
  5
1D60E
  8
0
 10
300.3605239092999
 20
180.1079982892
 30
0.0
  0
VERTEX
  5
1D60F
  8
0
 10
300.26250407100002
 20
180.1154451445
 30
0.0
  0
VERTEX
  5
1D610
  8
0
 10
299.955689162
 20
180.0738206133
 30
0.0
  0
VERTEX
  5
1D611
  8
0
 10
299.6813885867
 20
179.9354465678
 30
0.0
  0
VERTEX
  5
1D612
  8
0
 10
299.47730228299991
 20
179.72697746009999
 30
0.0
  0
VERTEX
  5
1D613
  8
0
 10
299.34924170369982
 20
179.45069316780001
 30
0.0
  0
VERTEX
  5
1D614
  8
0
 10
299.32849928730002
 20
179.1644101963
 30
0.0
  0
VERTEX
  5
1D615
  8
0
 10
299.40410777919988
 20
178.8867680356
 30
0.0
  0
VERTEX
  5
1D616
  8
0
 10
299.57831725479991
 20
178.64239085470001
 30
0.0
  0
VERTEX
  5
1D617
  8
0
 10
299.80620071289991
 20
178.48584111779999
 30
0.0
  0
VERTEX
  5
1D618
  8
0
 10
300.08710250259992
 20
178.40443421160001
 30
0.0
  0
VERTEX
  5
1D619
  8
0
 10
300.1571975647999
 20
178.39939203110001
 30
0.0
  0
SEQEND
  5
1D61A
  8
0
  0
POLYLINE
  5
1B98B
  8
0
 66
     1
 10
0.0
 20
0.0
 30
0.0
 70
   128
  0
VERTEX
  5
1D61B
  8
0
 10
279.22453805799978
 20
178.34345679730001
 30
0.0
  0
VERTEX
  5
1D61C
  8
0
 10
279.51344922179987
 20
178.3954152837
 30
0.0
  0
VERTEX
  5
1D61D
  8
0
 10
279.77001741529989
 20
178.53511925789999
 30
0.0
  0
VERTEX
  5
1D61E
  8
0
 10
279.97077330939987
 20
178.75725459309999
 30
0.0
  0
VERTEX
  5
1D61F
  8
0
 10
280.07585629819982
 20
179.01124674830001
 30
0.0
  0
VERTEX
  5
1D620
  8
0
 10
280.09234443299988
 20
179.29570805279999
 30
0.0
  0
VERTEX
  5
1D621
  8
0
 10
280.00711724159987
 20
179.56220787020001
 30
0.0
  0
VERTEX
  5
1D622
  8
0
 10
279.84314486379981
 20
179.77335732430001
 30
0.0
  0
VERTEX
  5
1D623
  8
0
 10
279.5989371835999
 20
179.93135619910001
 30
0.0
  0
VERTEX
  5
1D624
  8
0
 10
279.32296022769992
 20
179.99678906049999
 30
0.0
  0
VERTEX
  5
1D625
  8
0
 10
279.23769578339989
 20
179.9995103851
 30
0.0
  0
VERTEX
  5
1D626
  8
0
 10
278.94558086989991
 20
179.95104063299999
 30
0.0
  0
VERTEX
  5
1D627
  8
0
 10
278.68630811569977
 20
179.81267776339999
 30
0.0
  0
VERTEX
  5
1D628
  8
0
 10
278.49778607489998
 20
179.61223665630001
 30
0.0
  0
VERTEX
  5
1D629
  8
0
 10
278.38057354089977
 20
179.3460255489
 30
0.0
  0
VERTEX
  5
1D62A
  8
0
 10
278.36812362069981
 20
179.0713598952
 30
0.0
  0
VERTEX
  5
1D62B
  8
0
 10
278.4486867486998
 20
178.8079967722
 30
0.0
  0
VERTEX
  5
1D62C
  8
0
 10
278.62428203219997
 20
178.5738268867
 30
0.0
  0
VERTEX
  5
1D62D
  8
0
 10
278.85578647249991
 20
178.42199895530001
 30
0.0
  0
VERTEX
  5
1D62E
  8
0
 10
279.1361220180998
 20
178.34721561520001
 30
0.0
  0
VERTEX
  5
1D62F
  8
0
 10
279.22453805799978
 20
178.34345679730001
 30
0.0
  0
SEQEND
  5
1D630
  8
0
  0
POLYLINE
  5
1B98C
  8
0
 66
     1
 10
0.0
 20
0.0
 30
0.0
 70
   128
  0
VERTEX
  5
1D631
  8
0
 10
281.85807242990001
 20
180.817671679
 30
0.0
  0
VERTEX
  5
1D632
  8
0
 10
282.19694718719978
 20
180.88354598730001
 30
0.0
  0
VERTEX
  5
1D633
  8
0
 10
282.44827017189982
 20
181.0260159895
 30
0.0
  0
VERTEX
  5
1D634
  8
0
 10
282.63393118980002
 20
181.23562689869999
 30
0.0
  0
VERTEX
  5
1D635
  8
0
 10
282.72575959559981
 20
181.46542329339999
 30
0.0
  0
VERTEX
  5
1D636
  8
0
 10
282.72986486549979
 20
181.7197227851
 30
0.0
  0
VERTEX
  5
1D637
  8
0
 10
282.63402059669988
 20
181.947623007
 30
0.0
  0
VERTEX
  5
1D638
  8
0
 10
282.46016874909992
 20
182.12506417189999
 30
0.0
  0
VERTEX
  5
1D639
  8
0
 10
282.20710977909988
 20
182.24951121960001
 30
0.0
  0
VERTEX
  5
1D63A
  8
0
 10
281.93069323899999
 20
182.29166287929999
 30
0.0
  0
VERTEX
  5
1D63B
  8
0
 10
281.88935741779977
 20
182.2917280719
 30
0.0
  0
VERTEX
  5
1D63C
  8
0
 10
281.54997602099979
 20
182.23320562390001
 30
0.0
  0
VERTEX
  5
1D63D
  8
0
 10
281.29806444050001
 20
182.0999668911
 30
0.0
  0
VERTEX
  5
1D63E
  8
0
 10
281.11937716599982
 20
181.91648703070001
 30
0.0
  0
VERTEX
  5
1D63F
  8
0
 10
281.01535961029981
 20
181.6771706566
 30
0.0
  0
VERTEX
  5
1D640
  8
0
 10
281.01497963069983
 20
181.4354961738
 30
0.0
  0
VERTEX
  5
1D641
  8
0
 10
281.1075009404999
 20
181.19997028259999
 30
0.0
  0
VERTEX
  5
1D642
  8
0
 10
281.2938101588997
 20
180.99773917350001
 30
0.0
  0
VERTEX
  5
1D643
  8
0
 10
281.53073117140002
 20
180.87219875310001
 30
0.0
  0
VERTEX
  5
1D644
  8
0
 10
281.81741461159982
 20
180.8180535212
 30
0.0
  0
VERTEX
  5
1D645
  8
0
 10
281.85807242990001
 20
180.817671679
 30
0.0
  0
SEQEND
  5
1D646
  8
0
  0
CIRCLE
  5
1B98D
  8
0
 10
287.02793085009989
 20
176.69602998369999
 30
0.0
 40
0.8659765419829545
  0
POLYLINE
  5
1B98E
  8
0
 66
     1
 10
0.0
 20
0.0
 30
0.0
 70
   128
  0
VERTEX
  5
1D647
  8
0
 10
284.44161340589989
 20
178.39038427919999
 30
0.0
  0
VERTEX
  5
1D648
  8
0
 10
284.73124727599998
 20
178.44232227649999
 30
0.0
  0
VERTEX
  5
1D649
  8
0
 10
284.98846366999987
 20
178.58249191199999
 30
0.0
  0
VERTEX
  5
1D64A
  8
0
 10
285.19003912799991
 20
178.80556415769999
 30
0.0
  0
VERTEX
  5
1D64B
  8
0
 10
285.2964632212998
 20
179.0624490008
 30
0.0
  0
VERTEX
  5
1D64C
  8
0
 10
285.3123553096998
 20
179.3492348865
 30
0.0
  0
VERTEX
  5
1D64D
  8
0
 10
285.22607758639992
 20
179.61309719830001
 30
0.0
  0
VERTEX
  5
1D64E
  8
0
 10
285.0637517868999
 20
179.82044871900001
 30
0.0
  0
VERTEX
  5
1D64F
  8
0
 10
284.82088521119982
 20
179.97818682339999
 30
0.0
  0
VERTEX
  5
1D650
  8
0
 10
284.54280719159988
 20
180.04509117449999
 30
0.0
  0
VERTEX
  5
1D651
  8
0
 10
284.45810154079982
 20
180.04795406010001
 30
0.0
  0
VERTEX
  5
1D652
  8
0
 10
284.16554704309988
 20
179.99961841850001
 30
0.0
  0
VERTEX
  5
1D653
  8
0
 10
283.90574529769992
 20
179.8605998978
 30
0.0
  0
VERTEX
  5
1D654
  8
0
 10
283.71653035280002
 20
179.65893130750001
 30
0.0
  0
VERTEX
  5
1D655
  8
0
 10
283.59932526939969
 20
179.39164731650001
 30
0.0
  0
VERTEX
  5
1D656
  8
0
 10
283.58701691030001
 20
179.1166128591
 30
0.0
  0
VERTEX
  5
1D657
  8
0
 10
283.66738632319988
 20
178.8536464796
 30
0.0
  0
VERTEX
  5
1D658
  8
0
 10
283.84243026370001
 20
178.62010616809999
 30
0.0
  0
VERTEX
  5
1D659
  8
0
 10
284.0724594890998
 20
178.4692095593
 30
0.0
  0
VERTEX
  5
1D65A
  8
0
 10
284.35134962199982
 20
178.3943573013
 30
0.0
  0
VERTEX
  5
1D65B
  8
0
 10
284.44161340589989
 20
178.39038427919999
 30
0.0
  0
SEQEND
  5
1D65C
  8
0
  0
POLYLINE
  5
1B98F
  8
0
 66
     1
 10
0.0
 20
0.0
 30
0.0
 70
   128
  0
VERTEX
  5
1D65D
  8
0
 10
292.32124313709983
 20
180.92534188179999
 30
0.0
  0
VERTEX
  5
1D65E
  8
0
 10
292.64827892179989
 20
180.98631929609999
 30
0.0
  0
VERTEX
  5
1D65F
  8
0
 10
292.90498122569988
 20
181.12924564630001
 30
0.0
  0
VERTEX
  5
1D660
  8
0
 10
293.09716150159989
 20
181.34435880929999
 30
0.0
  0
VERTEX
  5
1D661
  8
0
 10
293.19437667729989
 20
181.58359136429999
 30
0.0
  0
VERTEX
  5
1D662
  8
0
 10
293.20112690329978
 20
181.84776660060001
 30
0.0
  0
VERTEX
  5
1D663
  8
0
 10
293.10781583189993
 20
182.07854274659999
 30
0.0
  0
VERTEX
  5
1D664
  8
0
 10
292.94229373329989
 20
182.2567792609
 30
0.0
  0
VERTEX
  5
1D665
  8
0
 10
292.69436821339991
 20
182.3920072988
 30
0.0
  0
VERTEX
  5
1D666
  8
0
 10
292.40628406399992
 20
182.4466759339
 30
0.0
  0
VERTEX
  5
1D667
  8
0
 10
292.34845265739978
 20
182.4477339163
 30
0.0
  0
VERTEX
  5
1D668
  8
0
 10
292.02068671579991
 20
182.393748872
 30
0.0
  0
VERTEX
  5
1D669
  8
0
 10
291.7644910514
 20
182.25881140679999
 30
0.0
  0
VERTEX
  5
1D66A
  8
0
 10
291.58214554189999
 20
182.0707997307
 30
0.0
  0
VERTEX
  5
1D66B
  8
0
 10
291.47367998959999
 20
181.8239862099
 30
0.0
  0
VERTEX
  5
1D66C
  8
0
 10
291.4698056876
 20
181.5760513768
 30
0.0
  0
VERTEX
  5
1D66D
  8
0
 10
291.55660495159981
 20
181.33634757249999
 30
0.0
  0
VERTEX
  5
1D66E
  8
0
 10
291.7375944554999
 20
181.12454246729999
 30
0.0
  0
VERTEX
  5
1D66F
  8
0
 10
291.97204932570003
 20
180.9897633269
 30
0.0
  0
VERTEX
  5
1D670
  8
0
 10
292.25612506269999
 20
180.92702757570001
 30
0.0
  0
VERTEX
  5
1D671
  8
0
 10
292.32124313709983
 20
180.92534188179999
 30
0.0
  0
SEQEND
  5
1D672
  8
0
  0
POLYLINE
  5
1B990
  8
0
 66
     1
 10
0.0
 20
0.0
 30
0.0
 70
   128
  0
VERTEX
  5
1D673
  8
0
 10
289.66476842759999
 20
178.4324074164
 30
0.0
  0
VERTEX
  5
1D674
  8
0
 10
289.9561755359
 20
178.48447579890001
 30
0.0
  0
VERTEX
  5
1D675
  8
0
 10
290.21491929889999
 20
178.62575557080001
 30
0.0
  0
VERTEX
  5
1D676
  8
0
 10
290.41729196900002
 20
178.8504669443
 30
0.0
  0
VERTEX
  5
1D677
  8
0
 10
290.52462503309999
 20
179.11045495420001
 30
0.0
  0
VERTEX
  5
1D678
  8
0
 10
290.53977951409979
 20
179.40043900160001
 30
0.0
  0
VERTEX
  5
1D679
  8
0
 10
290.45229479669979
 20
179.66388408099999
 30
0.0
  0
VERTEX
  5
1D67A
  8
0
 10
290.29002115129992
 20
179.870393686
 30
0.0
  0
VERTEX
  5
1D67B
  8
0
 10
290.04717692729992
 20
180.0280200318
 30
0.0
  0
VERTEX
  5
1D67C
  8
0
 10
289.77038785809981
 20
180.09417559950001
 30
0.0
  0
VERTEX
  5
1D67D
  8
0
 10
289.68735858799982
 20
180.0968429074
 30
0.0
  0
VERTEX
  5
1D67E
  8
0
 10
289.39173445099982
 20
180.04700969909999
 30
0.0
  0
VERTEX
  5
1D67F
  8
0
 10
289.1295038162998
 20
179.9050444737
 30
0.0
  0
VERTEX
  5
1D680
  8
0
 10
288.9376662670997
 20
179.69795372339999
 30
0.0
  0
VERTEX
  5
1D681
  8
0
 10
288.82203325629979
 20
179.42685876039999
 30
0.0
  0
VERTEX
  5
1D682
  8
0
 10
288.81225809449978
 20
179.15226016189999
 30
0.0
  0
VERTEX
  5
1D683
  8
0
 10
288.8946764170999
 20
178.88855990019999
 30
0.0
  0
VERTEX
  5
1D684
  8
0
 10
289.07156810160001
 20
178.65640167149999
 30
0.0
  0
VERTEX
  5
1D685
  8
0
 10
289.30083736779989
 20
178.50875351580001
 30
0.0
  0
VERTEX
  5
1D686
  8
0
 10
289.57871422170001
 20
178.4360004589
 30
0.0
  0
VERTEX
  5
1D687
  8
0
 10
289.66476842759999
 20
178.4324074164
 30
0.0
  0
SEQEND
  5
1D688
  8
0
  0
POLYLINE
  5
1B991
  8
0
 66
     1
 10
0.0
 20
0.0
 30
0.0
 70
   128
  0
VERTEX
  5
1D689
  8
0
 10
292.22657605999979
 20
175.87545849380001
 30
0.0
  0
VERTEX
  5
1D68A
  8
0
 10
292.51217171549979
 20
175.926255621
 30
0.0
  0
VERTEX
  5
1D68B
  8
0
 10
292.76575967669987
 20
176.0656261817
 30
0.0
  0
VERTEX
  5
1D68C
  8
0
 10
292.97282621260001
 20
176.29349753260001
 30
0.0
  0
VERTEX
  5
1D68D
  8
0
 10
293.08884665369987
 20
176.5686614439
 30
0.0
  0
VERTEX
  5
1D68E
  8
0
 10
293.10656413429979
 20
176.87399368729999
 30
0.0
  0
VERTEX
  5
1D68F
  8
0
 10
293.01976487040002
 20
177.14534383270001
 30
0.0
  0
VERTEX
  5
1D690
  8
0
 10
292.85877272480002
 20
177.3599838838
 30
0.0
  0
VERTEX
  5
1D691
  8
0
 10
292.61674806469978
 20
177.52562332900001
 30
0.0
  0
VERTEX
  5
1D692
  8
0
 10
292.34472736709989
 20
177.59494166819999
 30
0.0
  0
VERTEX
  5
1D693
  8
0
 10
292.26454421879998
 20
177.5981584564
 30
0.0
  0
VERTEX
  5
1D694
  8
0
 10
291.96881577369982
 20
177.54796762020001
 30
0.0
  0
VERTEX
  5
1D695
  8
0
 10
291.70676395299989
 20
177.4013625458
 30
0.0
  0
VERTEX
  5
1D696
  8
0
 10
291.51433035730003
 20
177.18564961109999
 30
0.0
  0
VERTEX
  5
1D697
  8
0
 10
291.39781817789981
 20
176.90370660280001
 30
0.0
  0
VERTEX
  5
1D698
  8
0
 10
291.38688072559989
 20
176.61443222310001
 30
0.0
  0
VERTEX
  5
1D699
  8
0
 10
291.47049114110001
 20
176.3380659744
 30
0.0
  0
VERTEX
  5
1D69A
  8
0
 10
291.64902195329978
 20
176.10003482549999
 30
0.0
  0
VERTEX
  5
1D69B
  8
0
 10
291.8757729231998
 20
175.9518483654
 30
0.0
  0
VERTEX
  5
1D69C
  8
0
 10
292.15181693429992
 20
175.87870229040001
 30
0.0
  0
VERTEX
  5
1D69D
  8
0
 10
292.22657605999979
 20
175.87545849380001
 30
0.0
  0
SEQEND
  5
1D69E
  8
0
  0
POLYLINE
  5
1B992
  8
0
 66
     1
 10
0.0
 20
0.0
 30
0.0
 70
   128
  0
VERTEX
  5
1D69F
  8
0
 10
287.08044514059981
 20
180.87437245999999
 30
0.0
  0
VERTEX
  5
1D6A0
  8
0
 10
287.4177105724998
 20
180.94001952560001
 30
0.0
  0
VERTEX
  5
1D6A1
  8
0
 10
287.67012879249978
 20
181.08419757339999
 30
0.0
  0
VERTEX
  5
1D6A2
  8
0
 10
287.85635605449988
 20
181.2969824299
 30
0.0
  0
VERTEX
  5
1D6A3
  8
0
 10
287.94831112029988
 20
181.53056558220001
 30
0.0
  0
VERTEX
  5
1D6A4
  8
0
 10
287.95214071869992
 20
181.78886976090001
 30
0.0
  0
VERTEX
  5
1D6A5
  8
0
 10
287.85653486849992
 20
182.01881889250001
 30
0.0
  0
VERTEX
  5
1D6A6
  8
0
 10
287.68473193049982
 20
182.19773713500001
 30
0.0
  0
VERTEX
  5
1D6A7
  8
0
 10
287.43267878889992
 20
182.32606220989999
 30
0.0
  0
VERTEX
  5
1D6A8
  8
0
 10
287.15235814449989
 20
182.3714902625
 30
0.0
  0
VERTEX
  5
1D6A9
  8
0
 10
287.10819110269989
 20
182.37168770279999
 30
0.0
  0
VERTEX
  5
1D6AA
  8
0
 10
286.77034452559968
 20
182.31280203910001
 30
0.0
  0
VERTEX
  5
1D6AB
  8
0
 10
286.51821687819978
 20
182.17716235669999
 30
0.0
  0
VERTEX
  5
1D6AC
  8
0
 10
286.33948490019998
 20
181.99059236799999
 30
0.0
  0
VERTEX
  5
1D6AD
  8
0
 10
286.23522892589989
 20
181.74733836199999
 30
0.0
  0
VERTEX
  5
1D6AE
  8
0
 10
286.23483404519988
 20
181.5030580387
 30
0.0
  0
VERTEX
  5
1D6AF
  8
0
 10
286.32611855859977
 20
181.2660960481
 30
0.0
  0
VERTEX
  5
1D6B0
  8
0
 10
286.51130273939998
 20
181.06028493490001
 30
0.0
  0
VERTEX
  5
1D6B1
  8
0
 10
286.74849197269992
 20
180.9313377366
 30
0.0
  0
VERTEX
  5
1D6B2
  8
0
 10
287.03501895069991
 20
180.87495174259999
 30
0.0
  0
VERTEX
  5
1D6B3
  8
0
 10
287.08044514059981
 20
180.87437245999999
 30
0.0
  0
SEQEND
  5
1D6B4
  8
0
  0
POLYLINE
  5
1B993
  8
0
 66
     1
 10
0.0
 20
0.0
 30
0.0
 70
   128
  0
VERTEX
  5
1D6B5
  8
0
 10
307.58298262949978
 20
179.31127417830001
 30
0.0
  0
VERTEX
  5
1D6B6
  8
0
 10
307.78276249759989
 20
179.22474686059999
 30
0.0
  0
VERTEX
  5
1D6B7
  8
0
 10
307.95773193239978
 20
179.22836784270001
 30
0.0
  0
VERTEX
  5
1D6B8
  8
0
 10
308.08261856429999
 20
179.31494172660001
 30
0.0
  0
VERTEX
  5
1D6B9
  8
0
 10
308.15795883530001
 20
179.4871302322
 30
0.0
  0
VERTEX
  5
1D6BA
  8
0
 10
308.16159471869992
 20
179.7157531604
 30
0.0
  0
VERTEX
  5
1D6BB
  8
0
 10
308.10161754489991
 20
179.972509481
 30
0.0
  0
VERTEX
  5
1D6BC
  8
0
 10
307.97839984299981
 20
180.24692367759999
 30
0.0
  0
VERTEX
  5
1D6BD
  8
0
 10
307.82180354000002
 20
180.4755875841
 30
0.0
  0
VERTEX
  5
1D6BE
  8
0
 10
307.63237997890002
 20
180.66658321770001
 30
0.0
  0
VERTEX
  5
1D6BF
  8
0
 10
307.5541339813999
 20
180.72372730820001
 30
0.0
  0
SEQEND
  5
1D6C0
  8
0
  0
POLYLINE
  5
1B994
  8
0
 66
     1
 10
0.0
 20
0.0
 30
0.0
 70
   128
  0
VERTEX
  5
1D6C1
  8
0
 10
307.5541339813999
 20
180.72372730820001
 30
0.0
  0
VERTEX
  5
1D6C2
  8
0
 10
307.31759294869988
 20
180.8193741366
 30
0.0
  0
VERTEX
  5
1D6C3
  8
0
 10
307.14396461839988
 20
180.7973613963
 30
0.0
  0
VERTEX
  5
1D6C4
  8
0
 10
307.02305659649983
 20
180.68001288919999
 30
0.0
  0
VERTEX
  5
1D6C5
  8
0
 10
306.96676000949992
 20
180.5009344593
 30
0.0
  0
VERTEX
  5
1D6C6
  8
0
 10
306.97155818339979
 20
180.2531039342
 30
0.0
  0
VERTEX
  5
1D6C7
  8
0
 10
307.04661533230001
 20
179.9874832854
 30
0.0
  0
VERTEX
  5
1D6C8
  8
0
 10
307.17405006289982
 20
179.73698917780001
 30
0.0
  0
VERTEX
  5
1D6C9
  8
0
 10
307.3577366769
 20
179.4973915443
 30
0.0
  0
VERTEX
  5
1D6CA
  8
0
 10
307.58298262949978
 20
179.31127417830001
 30
0.0
  0
SEQEND
  5
1D6CB
  8
0
  0
POLYLINE
  5
1B995
  8
0
 66
     1
 10
0.0
 20
0.0
 30
0.0
 70
   128
  0
VERTEX
  5
1D6CC
  8
0
 10
279.3070755898998
 20
182.9075204209
 30
0.0
  0
VERTEX
  5
1D6CD
  8
0
 10
279.62002977729981
 20
182.95551147309999
 30
0.0
  0
VERTEX
  5
1D6CE
  8
0
 10
279.87182959909978
 20
183.06208085270001
 30
0.0
  0
VERTEX
  5
1D6CF
  8
0
 10
280.07247373460001
 20
183.22355169799999
 30
0.0
  0
VERTEX
  5
1D6D0
  8
0
 10
280.17987385389978
 20
183.39942824100001
 30
0.0
  0
VERTEX
  5
1D6D1
  8
0
 10
280.19996806979998
 20
183.5860876367
 30
0.0
  0
VERTEX
  5
1D6D2
  8
0
 10
280.11930063359978
 20
183.7484655902
 30
0.0
  0
VERTEX
  5
1D6D3
  8
0
 10
279.95999976989992
 20
183.86874590069999
 30
0.0
  0
VERTEX
  5
1D6D4
  8
0
 10
279.71912249919978
 20
183.9517453684999
 30
0.0
  0
VERTEX
  5
1D6D5
  8
0
 10
279.44389805199989
 20
183.9802773669
 30
0.0
  0
VERTEX
  5
1D6D6
  8
0
 10
279.372305423
 20
183.97981729360001
 30
0.0
  0
VERTEX
  5
1D6D7
  8
0
 10
279.05877754089988
 20
183.943018876
 30
0.0
  0
VERTEX
  5
1D6D8
  8
0
 10
278.79984006279977
 20
183.85705593969999
 30
0.0
  0
VERTEX
  5
1D6D9
  8
0
 10
278.61164584749991
 20
183.73594488949999
 30
0.0
  0
VERTEX
  5
1D6DA
  8
0
 10
278.4914679824999
 20
183.57035759839999
 30
0.0
  0
VERTEX
  5
1D6DB
  8
0
 10
278.47556099289977
 20
183.39492995289999
 30
0.0
  0
VERTEX
  5
1D6DC
  8
0
 10
278.5520337521998
 20
183.22075027970001
 30
0.0
  0
VERTEX
  5
1D6DD
  8
0
 10
278.72360572219992
 20
183.0618852749999
 30
0.0
  0
VERTEX
  5
1D6DE
  8
0
 10
278.95443215959989
 20
182.95698110009999
 30
0.0
  0
VERTEX
  5
1D6DF
  8
0
 10
279.23678681249982
 20
182.90842566640001
 30
0.0
  0
VERTEX
  5
1D6E0
  8
0
 10
279.3070755898998
 20
182.9075204209
 30
0.0
  0
SEQEND
  5
1D6E1
  8
0
  0
POLYLINE
  5
1B996
  8
0
 66
     1
 10
0.0
 20
0.0
 30
0.0
 70
   128
  0
VERTEX
  5
1D6E2
  8
0
 10
276.64154842489978
 20
180.76586592940001
 30
0.0
  0
VERTEX
  5
1D6E3
  8
0
 10
276.97799429299999
 20
180.8305462822
 30
0.0
  0
VERTEX
  5
1D6E4
  8
0
 10
277.22540572279991
 20
180.9684714302
 30
0.0
  0
VERTEX
  5
1D6E5
  8
0
 10
277.4139277636998
 20
181.1748282984
 30
0.0
  0
VERTEX
  5
1D6E6
  8
0
 10
277.5095708668
 20
181.40425402669999
 30
0.0
  0
VERTEX
  5
1D6E7
  8
0
 10
277.51547172660003
 20
181.6558862105
 30
0.0
  0
VERTEX
  5
1D6E8
  8
0
 10
277.42085680359992
 20
181.8794334307
 30
0.0
  0
VERTEX
  5
1D6E9
  8
0
 10
277.24886760109979
 20
182.05296304079999
 30
0.0
  0
VERTEX
  5
1D6EA
  8
0
 10
276.99684426189992
 20
182.17603918169999
 30
0.0
  0
VERTEX
  5
1D6EB
  8
0
 10
276.7194293439
 20
182.2190420702
 30
0.0
  0
VERTEX
  5
1D6EC
  8
0
 10
276.6764245926999
 20
182.21929539000001
 30
0.0
  0
VERTEX
  5
1D6ED
  8
0
 10
276.33939757939987
 20
182.16393943880001
 30
0.0
  0
VERTEX
  5
1D6EE
  8
0
 10
276.08808949590002
 20
182.03525673600001
 30
0.0
  0
VERTEX
  5
1D6EF
  8
0
 10
275.90959593650001
 20
181.85764607039999
 30
0.0
  0
VERTEX
  5
1D6F0
  8
0
 10
275.8033134042999
 20
181.6232433543
 30
0.0
  0
VERTEX
  5
1D6F1
  8
0
 10
275.80075040460002
 20
181.3843907788
 30
0.0
  0
VERTEX
  5
1D6F2
  8
0
 10
275.89119300239992
 20
181.1517221853
 30
0.0
  0
VERTEX
  5
1D6F3
  8
0
 10
276.07581093909988
 20
180.9496996924
 30
0.0
  0
VERTEX
  5
1D6F4
  8
0
 10
276.3138644396999
 20
180.82185704259999
 30
0.0
  0
VERTEX
  5
1D6F5
  8
0
 10
276.60158351059999
 20
180.76633531600001
 30
0.0
  0
VERTEX
  5
1D6F6
  8
0
 10
276.64154842489978
 20
180.76586592940001
 30
0.0
  0
SEQEND
  5
1D6F7
  8
0
  0
POLYLINE
  5
1B997
  8
0
 66
     1
 10
0.0
 20
0.0
 30
0.0
 70
   128
  0
VERTEX
  5
1D6F8
  8
0
 10
294.98443827030002
 20
183.1834303215
 30
0.0
  0
VERTEX
  5
1D6F9
  8
0
 10
295.28606757519992
 20
183.22928305720001
 30
0.0
  0
VERTEX
  5
1D6FA
  8
0
 10
295.54922208189993
 20
183.34558289500001
 30
0.0
  0
VERTEX
  5
1D6FB
  8
0
 10
295.7445167004999
 20
183.5200475529
 30
0.0
  0
VERTEX
  5
1D6FC
  8
0
 10
295.84006294609981
 20
183.70235394689999
 30
0.0
  0
VERTEX
  5
1D6FD
  8
0
 10
295.85740789769989
 20
183.9036742225
 30
0.0
  0
VERTEX
  5
1D6FE
  8
0
 10
295.77671810980002
 20
184.09259673209999
 30
0.0
  0
VERTEX
  5
1D6FF
  8
0
 10
295.61656042929991
 20
184.2357149348
 30
0.0
  0
VERTEX
  5
1D700
  8
0
 10
295.37571296089982
 20
184.33943446730001
 30
0.0
  0
VERTEX
  5
1D701
  8
0
 10
295.08521482349988
 20
184.383428283
 30
0.0
  0
VERTEX
  5
1D702
  8
0
 10
294.99381110069999
 20
184.3845365569
 30
0.0
  0
VERTEX
  5
1D703
  8
0
 10
294.6913473308
 20
184.3478219584
 30
0.0
  0
VERTEX
  5
1D704
  8
0
 10
294.4338701664999
 20
184.25209689889991
 30
0.0
  0
VERTEX
  5
1D705
  8
0
 10
294.25028786059988
 20
184.1177629307
 30
0.0
  0
VERTEX
  5
1D706
  8
0
 10
294.13225576280001
 20
183.9334504679
 30
0.0
  0
VERTEX
  5
1D707
  8
0
 10
294.11821886899997
 20
183.74049905690001
 30
0.0
  0
VERTEX
  5
1D708
  8
0
 10
294.19203922149973
 20
183.55345595630001
 30
0.0
  0
VERTEX
  5
1D709
  8
0
 10
294.36069056389988
 20
183.37341081349999
 30
0.0
  0
VERTEX
  5
1D70A
  8
0
 10
294.59814056749991
 20
183.24740100650001
 30
0.0
  0
VERTEX
  5
1D70B
  8
0
 10
294.88512203099981
 20
183.18633418530001
 30
0.0
  0
VERTEX
  5
1D70C
  8
0
 10
294.98443827030002
 20
183.1834303215
 30
0.0
  0
SEQEND
  5
1D70D
  8
0
  0
POLYLINE
  5
1B998
  8
0
 66
     1
 10
0.0
 20
0.0
 30
0.0
 70
   128
  0
VERTEX
  5
1D70E
  8
0
 10
289.73773941399992
 20
183.10032468290001
 30
0.0
  0
VERTEX
  5
1D70F
  8
0
 10
290.04884585739978
 20
183.1502491608
 30
0.0
  0
VERTEX
  5
1D710
  8
0
 10
290.30805155629992
 20
183.2667687908
 30
0.0
  0
VERTEX
  5
1D711
  8
0
 10
290.50303325059991
 20
183.43921806660001
 30
0.0
  0
VERTEX
  5
1D712
  8
0
 10
290.60108289119989
 20
183.62033795569999
 30
0.0
  0
VERTEX
  5
1D713
  8
0
 10
290.61915799969989
 20
183.8186724112
 30
0.0
  0
VERTEX
  5
1D714
  8
0
 10
290.53836390369997
 20
183.99926703419999
 30
0.0
  0
VERTEX
  5
1D715
  8
0
 10
290.3769694268999
 20
184.13496445870001
 30
0.0
  0
VERTEX
  5
1D716
  8
0
 10
290.13504907489983
 20
184.22919940200001
 30
0.0
  0
VERTEX
  5
1D717
  8
0
 10
289.85371515149973
 20
184.26368068900001
 30
0.0
  0
VERTEX
  5
1D718
  8
0
 10
289.7778980434
 20
184.263449721
 30
0.0
  0
VERTEX
  5
1D719
  8
0
 10
289.46591243149987
 20
184.2232761905
 30
0.0
  0
VERTEX
  5
1D71A
  8
0
 10
289.20935913919988
 20
184.1280633584
 30
0.0
  0
VERTEX
  5
1D71B
  8
0
 10
289.0256129204999
 20
183.9962271974
 30
0.0
  0
VERTEX
  5
1D71C
  8
0
 10
288.90726789829978
 20
183.81626773630001
 30
0.0
  0
VERTEX
  5
1D71D
  8
0
 10
288.89193460339987
 20
183.6263841018
 30
0.0
  0
VERTEX
  5
1D71E
  8
0
 10
288.96784111859978
 20
183.43956451860001
 30
0.0
  0
VERTEX
  5
1D71F
  8
0
 10
289.1397856175999
 20
183.26759953050001
 30
0.0
  0
VERTEX
  5
1D720
  8
0
 10
289.37184140079989
 20
183.15443824979999
 30
0.0
  0
VERTEX
  5
1D721
  8
0
 10
289.65441212059977
 20
183.1016378477
 30
0.0
  0
VERTEX
  5
1D722
  8
0
 10
289.73773941399992
 20
183.10032468290001
 30
0.0
  0
SEQEND
  5
1D723
  8
0
  0
POLYLINE
  5
1B999
  8
0
 66
     1
 10
0.0
 20
0.0
 30
0.0
 70
   128
  0
VERTEX
  5
1D724
  8
0
 10
284.51874926679989
 20
183.00006780769999
 30
0.0
  0
VERTEX
  5
1D725
  8
0
 10
284.83112230900002
 20
183.0499270931
 30
0.0
  0
VERTEX
  5
1D726
  8
0
 10
285.08458361029989
 20
183.16128533329999
 30
0.0
  0
VERTEX
  5
1D727
  8
0
 10
285.28317138549983
 20
183.3286868408
 30
0.0
  0
VERTEX
  5
1D728
  8
0
 10
285.38748696439978
 20
183.5090672597
 30
0.0
  0
VERTEX
  5
1D729
  8
0
 10
285.40685102339989
 20
183.70281215759999
 30
0.0
  0
VERTEX
  5
1D72A
  8
0
 10
285.3262580930998
 20
183.87371171269999
 30
0.0
  0
VERTEX
  5
1D72B
  8
0
 10
285.16596630209978
 20
184.0013029054
 30
0.0
  0
VERTEX
  5
1D72C
  8
0
 10
284.92479845879978
 20
184.08936876800001
 30
0.0
  0
VERTEX
  5
1D72D
  8
0
 10
284.64794233439989
 20
184.12015642969999
 30
0.0
  0
VERTEX
  5
1D72E
  8
0
 10
284.57439765329991
 20
184.1196851805
 30
0.0
  0
VERTEX
  5
1D72F
  8
0
 10
284.26134660839989
 20
184.08061433579999
 30
0.0
  0
VERTEX
  5
1D730
  8
0
 10
284.00283381339977
 20
183.98936334999999
 30
0.0
  0
VERTEX
  5
1D731
  8
0
 10
283.81555601950009
 20
183.8615654036
 30
0.0
  0
VERTEX
  5
1D732
  8
0
 10
283.69657769799983
 20
183.68795942520001
 30
0.0
  0
VERTEX
  5
1D733
  8
0
 10
283.68156477809998
 20
183.50579831749999
 30
0.0
  0
VERTEX
  5
1D734
  8
0
 10
283.75826850529978
 20
183.3249652758
 30
0.0
  0
VERTEX
  5
1D735
  8
0
 10
283.9303843676999
 20
183.15976355230001
 30
0.0
  0
VERTEX
  5
1D736
  8
0
 10
284.1625668108
 20
183.0508658663
 30
0.0
  0
VERTEX
  5
1D737
  8
0
 10
284.44562181830003
 20
183.0009227619
 30
0.0
  0
VERTEX
  5
1D738
  8
0
 10
284.51874926679989
 20
183.00006780769999
 30
0.0
  0
SEQEND
  5
1D739
  8
0
  0
POLYLINE
  5
1B99A
  8
0
 66
     1
 10
0.0
 20
0.0
 30
0.0
 70
   128
  0
VERTEX
  5
1D73A
  8
0
 10
305.43064400549969
 20
182.3921004309999
 30
0.0
  0
VERTEX
  5
1D73B
  8
0
 10
305.67560419440002
 20
182.33474958689999
 30
0.0
  0
VERTEX
  5
1D73C
  8
0
 10
305.87733611459998
 20
182.3487771675
 30
0.0
  0
VERTEX
  5
1D73D
  8
0
 10
306.01481422779989
 20
182.4373291805
 30
0.0
  0
VERTEX
  5
1D73E
  8
0
 10
306.06148466469989
 20
182.57877286519999
 30
0.0
  0
VERTEX
  5
1D73F
  8
0
 10
306.02311417459993
 20
182.76943694799991
 30
0.0
  0
VERTEX
  5
1D740
  8
0
 10
305.89947924019998
 20
182.98137988900001
 30
0.0
  0
VERTEX
  5
1D741
  8
0
 10
305.71787878869992
 20
183.18377491090001
 30
0.0
  0
VERTEX
  5
1D742
  8
0
 10
305.47902807589981
 20
183.3766350523
 30
0.0
  0
VERTEX
  5
1D743
  8
0
 10
305.23934289809989
 20
183.5125001147
 30
0.0
  0
VERTEX
  5
1D744
  8
0
 10
305.17437383529978
 20
183.5404304788
 30
0.0
  0
VERTEX
  5
1D745
  8
0
 10
304.93239387869988
 20
183.60764030370001
 30
0.0
  0
VERTEX
  5
1D746
  8
0
 10
304.73514720799989
 20
183.59779436139999
 30
0.0
  0
VERTEX
  5
1D747
  8
0
 10
304.6065948902999
 20
183.51493086670001
 30
0.0
  0
VERTEX
  5
1D748
  8
0
 10
304.55472394819981
 20
183.3606386557
 30
0.0
  0
VERTEX
  5
1D749
  8
0
 10
304.59108278149978
 20
183.16837828609999
 30
0.0
  0
VERTEX
  5
1D74A
  8
0
 10
304.70574721689991
 20
182.9494783655
 30
0.0
  0
VERTEX
  5
1D74B
  8
0
 10
304.8960499465
 20
182.72812534120001
 30
0.0
  0
VERTEX
  5
1D74C
  8
0
 10
305.11427745219999
 20
182.55521412940001
 30
0.0
  0
VERTEX
  5
1D74D
  8
0
 10
305.36481067539989
 20
182.41814952339999
 30
0.0
  0
VERTEX
  5
1D74E
  8
0
 10
305.43064400549969
 20
182.3921004309999
 30
0.0
  0
SEQEND
  5
1D74F
  8
0
  0
ARC
  5
1B99B
  8
0
 10
255.88144807119991
 20
176.05501019869999
 30
0.0
 40
8.8569895721939762
 50
314.03571870549672
 51
44.348285039502201
  0
POLYLINE
  5
1B99C
  8
0
 66
     1
 10
0.0
 20
0.0
 30
0.0
 70
   128
  0
VERTEX
  5
1D750
  8
0
 10
262.2357316314999
 20
183.79909228529999
 30
0.0
  0
VERTEX
  5
1D751
  8
0
 10
263.07322159409978
 20
183.84609241039999
 30
0.0
  0
VERTEX
  5
1D752
  8
0
 10
263.91079351299982
 20
183.89309812339999
 30
0.0
  0
SEQEND
  5
1D753
  8
0
  0
ARC
  5
1B9A0
  8
0
 10
298.68973350739998
 20
174.87000536069999
 30
0.0
 40
11.30320767162744
 50
291.47865187710119
 51
1.9529022905996301
  0
POLYLINE
  5
1B9A2
  8
0
 66
     1
 10
0.0
 20
0.0
 30
0.0
 70
   128
  0
VERTEX
  5
1D754
  8
0
 10
297.44669124479992
 20
163.24747945179999
 30
0.0
  0
VERTEX
  5
1D755
  8
0
 10
297.44648262859982
 20
163.24747339819999
 30
0.0
  0
VERTEX
  5
1D756
  8
0
 10
297.44625911109978
 20
163.24747200120001
 30
0.0
  0
SEQEND
  5
1D757
  8
0
  0
POLYLINE
  5
1B9A3
  8
0
 66
     1
 10
0.0
 20
0.0
 30
0.0
 70
   128
  0
VERTEX
  5
1D758
  8
0
 10
297.44625911109978
 20
163.24747200120001
 30
0.0
  0
VERTEX
  5
1D759
  8
0
 10
295.8479456602999
 20
163.37356260050001
 30
0.0
  0
VERTEX
  5
1D75A
  8
0
 10
294.27983686329981
 20
163.7188897934
 30
0.0
  0
SEQEND
  5
1D75B
  8
0
  0
POLYLINE
  5
1B9A5
  8
0
 66
     1
 10
0.0
 20
0.0
 30
0.0
 70
   128
  0
VERTEX
  5
1D75C
  8
0
 10
288.79123255609989
 20
165.87210362779999
 30
0.0
  0
VERTEX
  5
1D75D
  8
0
 10
288.79118785259988
 20
165.87212271990001
 30
0.0
  0
VERTEX
  5
1D75E
  8
0
 10
288.79112824800001
 20
165.872141812
 30
0.0
  0
SEQEND
  5
1D75F
  8
0
  0
LINE
  5
1B9A6
  8
0
 10
288.79112824800001
 20
165.872141812
 30
0.0
 11
286.58966049549991
 21
166.61404734480001
 31
0.0
  0
LINE
  5
1B9A8
  8
0
 10
280.30889555809989
 20
167.76630617679999
 30
0.0
 11
278.74007150530002
 21
167.90006598459999
 31
0.0
  0
LINE
  5
1B9AA
  8
0
 10
271.97112217539978
 20
168.11120379720001
 30
0.0
 11
262.01795116059969
 21
168.12921464440001
 31
0.0
  0
POLYLINE
  5
1B9BD
  8
0
 66
     1
 10
0.0
 20
0.0
 30
0.0
 70
   128
  0
VERTEX
  5
1D760
  8
0
 10
262.038000673
 20
169.6876619011
 30
0.0
  0
VERTEX
  5
1D761
  8
0
 10
261.96839734909992
 20
169.64434236290001
 30
0.0
  0
VERTEX
  5
1D762
  8
0
 10
261.9391463696997
 20
169.64040659369999
 30
0.0
  0
VERTEX
  5
1D763
  8
0
 10
261.91027536989992
 20
169.6493184194
 30
0.0
  0
VERTEX
  5
1D764
  8
0
 10
261.8921630083999
 20
169.66619677840001
 30
0.0
  0
VERTEX
  5
1D765
  8
0
 10
261.87902763480002
 20
169.69057787209999
 30
0.0
  0
VERTEX
  5
1D766
  8
0
 10
261.86966225499992
 20
169.7302922607
 30
0.0
  0
VERTEX
  5
1D767
  8
0
 10
261.86785176389981
 20
169.76725738499999
 30
0.0
  0
SEQEND
  5
1D768
  8
0
  0
LINE
  5
1B9BE
  8
0
 10
261.84637919067768
 20
168.30575428901111
 30
0.0
 11
262.07150315767512
 21
183.6279214535958
 31
0.0
  0
POLYLINE
  5
1B9BF
  8
0
 66
     1
 10
0.0
 20
0.0
 30
0.0
 70
   128
  0
VERTEX
  5
1D769
  8
0
 10
262.05000355840002
 20
182.16484282170001
 30
0.0
  0
VERTEX
  5
1D76A
  8
0
 10
262.05499544740002
 20
182.21331071110001
 30
0.0
  0
VERTEX
  5
1D76B
  8
0
 10
262.06649169319979
 20
182.24791493270001
 30
0.0
  0
VERTEX
  5
1D76C
  8
0
 10
262.08196654909989
 20
182.2704846039
 30
0.0
  0
VERTEX
  5
1D76D
  8
0
 10
262.10186704989968
 20
182.28451590989999
 30
0.0
  0
VERTEX
  5
1D76E
  8
0
 10
262.1292479335998
 20
182.28950966150001
 30
0.0
  0
VERTEX
  5
1D76F
  8
0
 10
262.16982379550001
 20
182.2781717405
 30
0.0
  0
VERTEX
  5
1D770
  8
0
 10
262.21511587499981
 20
182.24620688709999
 30
0.0
  0
SEQEND
  5
1D771
  8
0
  0
POLYLINE
  5
1B9C0
  8
0
 66
     1
 10
0.0
 20
0.0
 30
0.0
 70
   128
  0
VERTEX
  5
1D772
  8
0
 10
272.14595749970658
 20
168.28424399721101
 30
0.0
  0
VERTEX
  5
1D773
  8
0
 10
272.19291105859998
 20
168.5054908507
 30
0.0
  0
VERTEX
  5
1D774
  8
0
 10
272.33100756999988
 20
169.1376749426
 30
0.0
  0
VERTEX
  5
1D775
  8
0
 10
272.5599266587999
 20
170.09734883909999
 30
0.0
  0
VERTEX
  5
1D776
  8
0
 10
272.88764789699979
 20
171.2783869356
 30
0.0
  0
VERTEX
  5
1D777
  8
0
 10
273.33209738129989
 20
172.5867237896
 30
0.0
  0
VERTEX
  5
1D778
  8
0
 10
273.92527535559981
 20
173.9391727373
 30
0.0
  0
VERTEX
  5
1D779
  8
0
 10
274.74997267129987
 20
175.19464399669999
 30
0.0
  0
VERTEX
  5
1D77A
  8
0
 10
275.29501244419998
 20
175.6842812523
 30
0.0
  0
VERTEX
  5
1D77B
  8
0
 10
275.61059668659982
 20
175.83746053280001
 30
0.0
  0
VERTEX
  5
1D77C
  8
0
 10
275.94427838920001
 20
175.8955676109
 30
0.0
  0
VERTEX
  5
1D77D
  8
0
 10
276.27651467919981
 20
175.844771415
 30
0.0
  0
VERTEX
  5
1D77E
  8
0
 10
276.5818171203
 20
175.68883262579999
 30
0.0
  0
VERTEX
  5
1D77F
  8
0
 10
277.07756385210001
 20
175.1657748595
 30
0.0
  0
VERTEX
  5
1D780
  8
0
 10
277.43864133950001
 20
174.50546249749999
 30
0.0
  0
VERTEX
  5
1D781
  8
0
 10
277.71201804279991
 20
173.7994259223
 30
0.0
  0
VERTEX
  5
1D782
  8
0
 10
278.08136567469978
 20
172.3807832226
 30
0.0
  0
VERTEX
  5
1D783
  8
0
 10
278.31166312099981
 20
171.02718688549999
 30
0.0
  0
VERTEX
  5
1D784
  8
0
 10
278.44984158869988
 20
169.83611658219999
 30
0.0
  0
VERTEX
  5
1D785
  8
0
 10
278.53266224259983
 20
168.89615040269999
 30
0.0
  0
VERTEX
  5
1D786
  8
0
 10
278.57008650899979
 20
168.2934226468
 30
0.0
  0
VERTEX
  5
1D787
  8
0
 10
278.5788483917454
 20
168.08552071448651
 30
0.0
  0
SEQEND
  5
1D788
  8
0
  0
ARC
  5
1B9C1
  8
0
 10
271.9719311551998
 20
168.28543536769999
 30
0.0
 40
0.1740304224726726
 50
269.73365981980538
 51
359.60776378600019
  0
ARC
  5
1B9C2
  8
0
 10
278.75246445539977
 20
168.07381115699999
 30
0.0
 40
0.174010491911648
 50
176.1415223254011
 51
265.91842194010388
  0
POLYLINE
  5
1B9C7
  8
0
 66
     1
 10
0.0
 20
0.0
 30
0.0
 70
   128
  0
VERTEX
  5
1D789
  8
0
 10
280.49932494759992
 20
167.92148919780001
 30
0.0
  0
VERTEX
  5
1D78A
  8
0
 10
280.55337145919981
 20
168.05590651930001
 30
0.0
  0
VERTEX
  5
1D78B
  8
0
 10
280.70227131249982
 20
168.44621915370001
 30
0.0
  0
VERTEX
  5
1D78C
  8
0
 10
280.9451825916999
 20
169.06802691519999
 30
0.0
  0
VERTEX
  5
1D78D
  8
0
 10
281.2948308884998
 20
169.85814701769999
 30
0.0
  0
VERTEX
  5
1D78E
  8
0
 10
281.75609633319982
 20
170.76711971309999
 30
0.0
  0
VERTEX
  5
1D78F
  8
0
 10
282.3764465749
 20
171.7004138975999
 30
0.0
  0
VERTEX
  5
1D790
  8
0
 10
283.20952579379991
 20
172.5217854604
 30
0.0
  0
VERTEX
  5
1D791
  8
0
 10
283.73543247579983
 20
172.75437302890001
 30
0.0
  0
VERTEX
  5
1D792
  8
0
 10
284.01600643989991
 20
172.784310393
 30
0.0
  0
VERTEX
  5
1D793
  8
0
 10
284.2948816715998
 20
172.74497784670001
 30
0.0
  0
VERTEX
  5
1D794
  8
0
 10
284.55937728279991
 20
172.6406631991
 30
0.0
  0
VERTEX
  5
1D795
  8
0
 10
284.79852601879969
 20
172.47960213569999
 30
0.0
  0
VERTEX
  5
1D796
  8
0
 10
285.1881466805998
 20
172.045343183
 30
0.0
  0
VERTEX
  5
1D797
  8
0
 10
285.71879193179979
 20
170.98984178160001
 30
0.0
  0
VERTEX
  5
1D798
  8
0
 10
286.04430034749981
 20
169.92256566879999
 30
0.0
  0
VERTEX
  5
1D799
  8
0
 10
286.249705404
 20
168.9201757312
 30
0.0
  0
VERTEX
  5
1D79A
  8
0
 10
286.37062832709989
 20
168.0538510904
 30
0.0
  0
VERTEX
  5
1D79B
  8
0
 10
286.43688634040001
 20
167.38616963850001
 30
0.0
  0
VERTEX
  5
1D79C
  8
0
 10
286.46476641299978
 20
166.96772640570001
 30
0.0
  0
VERTEX
  5
1D79D
  8
0
 10
286.47042140362151
 20
166.82840334255329
 30
0.0
  0
SEQEND
  5
1D79E
  8
0
  0
ARC
  5
1B9C8
  8
0
 10
280.32624751039998
 20
167.93957266460001
 30
0.0
 40
0.1740195708289855
 50
264.28230699759888
 51
354.03526745400058
  0
ARC
  5
1B9C9
  8
0
 10
286.63797903379992
 20
166.78136293470001
 30
0.0
 40
0.1740355118990929
 50
164.31835627949999
 51
253.89359638249309
  0
ARC
  5
1B9CC
  8
0
 10
263.92057080929999
 20
183.7190101807
 30
0.0
 40
0.1739946704393271
 50
3.331052935800189
 51
93.213951128601565
  0
POLYLINE
  5
1B9D1
  8
0
 66
     1
 10
0.0
 20
0.0
 30
0.0
 70
   128
  0
VERTEX
  5
1D79F
  8
0
 10
289.01604637505079
 20
165.97033720466891
 30
0.0
  0
VERTEX
  5
1D7A0
  8
0
 10
289.07225355499992
 20
166.06147224079999
 30
0.0
  0
VERTEX
  5
1D7A1
  8
0
 10
289.21400830149992
 20
166.354419291
 30
0.0
  0
VERTEX
  5
1D7A2
  8
0
 10
289.44797143340003
 20
166.83190092449999
 30
0.0
  0
VERTEX
  5
1D7A3
  8
0
 10
289.78789672249991
 20
167.46013714
 30
0.0
  0
VERTEX
  5
1D7A4
  8
0
 10
290.23449942469978
 20
168.1932062841999
 30
0.0
  0
VERTEX
  5
1D7A5
  8
0
 10
290.81114456059981
 20
168.94364785400001
 30
0.0
  0
VERTEX
  5
1D7A6
  8
0
 10
291.18534252049989
 20
169.2784331739
 30
0.0
  0
VERTEX
  5
1D7A7
  8
0
 10
291.61638841029981
 20
169.51877772809999
 30
0.0
  0
VERTEX
  5
1D7A8
  8
0
 10
291.85692295429999
 20
169.5682896301
 30
0.0
  0
VERTEX
  5
1D7A9
  8
0
 10
292.1005569397999
 20
169.55896615980001
 30
0.0
  0
VERTEX
  5
1D7AA
  8
0
 10
292.33229979869981
 20
169.48470529170001
 30
0.0
  0
VERTEX
  5
1D7AB
  8
0
 10
292.54705533379979
 20
169.35238577429999
 30
0.0
  0
VERTEX
  5
1D7AC
  8
0
 10
292.91015192859982
 20
168.97321734580001
 30
0.0
  0
VERTEX
  5
1D7AD
  8
0
 10
293.29539164899978
 20
168.276471179
 30
0.0
  0
VERTEX
  5
1D7AE
  8
0
 10
293.56201812619969
 20
167.54018478099999
 30
0.0
  0
VERTEX
  5
1D7AF
  8
0
 10
293.80505606529982
 20
166.58282987769999
 30
0.0
  0
VERTEX
  5
1D7B0
  8
0
 10
293.96390244359992
 20
165.70486417039999
 30
0.0
  0
VERTEX
  5
1D7B1
  8
0
 10
294.07060965889991
 20
164.95240349319999
 30
0.0
  0
VERTEX
  5
1D7B2
  8
0
 10
294.13686022159982
 20
164.38472163860001
 30
0.0
  0
VERTEX
  5
1D7B3
  8
0
 10
294.1575877368
 20
164.0453998465
 30
0.0
  0
VERTEX
  5
1D7B4
  8
0
 10
294.16040405628559
 20
163.93563579772069
 30
0.0
  0
SEQEND
  5
1D7B5
  8
0
  0
ARC
  5
1B9D2
  8
0
 10
288.85420486439989
 20
166.03435466049999
 30
0.0
 40
0.1740428373155056
 50
248.7879438910964
 51
338.41840539200018
  0
ARC
  5
1B9D3
  8
0
 10
294.3274185558999
 20
163.88669444499999
 30
0.0
 40
0.1740376369855951
 50
163.66748693799951
 51
254.16907701949219
  0
ARC
  5
1B9D7
  8
0
 10
302.76157273889982
 20
164.51263359059999
 30
0.0
 40
0.1739912488700124
 50
201.94056571090229
 51
292.5530859580017
  0
POLYLINE
  5
1B9D8
  8
0
 66
     1
 10
0.0
 20
0.0
 30
0.0
 70
   128
  0
VERTEX
  5
1D7B6
  8
0
 10
298.03510829799978
 20
164.3837346695
 30
0.0
  0
VERTEX
  5
1D7B7
  8
0
 10
298.7894944845998
 20
166.26816298809999
 30
0.0
  0
VERTEX
  5
1D7B8
  8
0
 10
299.27233681080003
 20
167.04598357899999
 30
0.0
  0
VERTEX
  5
1D7B9
  8
0
 10
299.58330914379991
 20
167.3869496211
 30
0.0
  0
VERTEX
  5
1D7BA
  8
0
 10
299.97096285219982
 20
167.6300108433
 30
0.0
  0
VERTEX
  5
1D7BB
  8
0
 10
300.18059238789988
 20
167.6849532873
 30
0.0
  0
VERTEX
  5
1D7BC
  8
0
 10
300.39391741149979
 20
167.67990179360001
 30
0.0
  0
VERTEX
  5
1D7BD
  8
0
 10
300.61044618490001
 20
167.621519044
 30
0.0
  0
VERTEX
  5
1D7BE
  8
0
 10
300.81548616290002
 20
167.52373808999999
 30
0.0
  0
VERTEX
  5
1D7BF
  8
0
 10
301.1670939623998
 20
167.25103706120001
 30
0.0
  0
VERTEX
  5
1D7C0
  8
0
 10
301.44847258919981
 20
166.91943127659999
 30
0.0
  0
VERTEX
  5
1D7C1
  8
0
 10
301.8762104212999
 20
166.2253202871
 30
0.0
  0
VERTEX
  5
1D7C2
  8
0
 10
302.18871757389979
 20
165.60624781999999
 30
0.0
  0
VERTEX
  5
1D7C3
  8
0
 10
302.32596762417802
 20
165.0408422637615
 30
0.0
  0
SEQEND
  5
1D7C4
  8
0
  0
POLYLINE
  5
1B9D9
  8
0
 66
     1
 10
0.0
 20
0.0
 30
0.0
 70
   128
  0
VERTEX
  5
1D7C5
  8
0
 10
302.82845422619988
 20
164.35175957160001
 30
0.0
  0
VERTEX
  5
1D7C6
  8
0
 10
302.82842442389989
 20
164.3517472316
 30
0.0
  0
VERTEX
  5
1D7C7
  8
0
 10
302.82839462160001
 20
164.3517353572
 30
0.0
  0
SEQEND
  5
1D7C8
  8
0
  0
POLYLINE
  5
1B9E2
  8
0
 66
     1
 10
0.0
 20
0.0
 30
0.0
 70
   128
  0
VERTEX
  5
1D7C9
  8
0
 10
269.86162438989982
 20
175.4748445004
 30
0.0
  0
VERTEX
  5
1D7CA
  8
0
 10
269.99931111929982
 20
175.8762352169
 30
0.0
  0
VERTEX
  5
1D7CB
  8
0
 10
270.34555450079978
 20
177.5759035721
 30
0.0
  0
VERTEX
  5
1D7CC
  8
0
 10
270.57859376070002
 20
179.24766298380001
 30
0.0
  0
VERTEX
  5
1D7CD
  8
0
 10
270.73754444719998
 20
180.79388011250001
 30
0.0
  0
VERTEX
  5
1D7CE
  8
0
 10
270.84414735429982
 20
182.12354052809999
 30
0.0
  0
VERTEX
  5
1D7CF
  8
0
 10
270.91337814929989
 20
183.06840453300001
 30
0.0
  0
VERTEX
  5
1D7D0
  8
0
 10
270.93428447839977
 20
183.3283906803
 30
0.0
  0
VERTEX
  5
1D7D1
  8
0
 10
271.04427166686582
 20
184.13148617853889
 30
0.0
  0
SEQEND
  5
1D7D2
  8
0
  0
POLYLINE
  5
1B9E3
  8
0
 66
     1
 10
0.0
 20
0.0
 30
0.0
 70
   128
  0
VERTEX
  5
1D7D3
  8
0
 10
264.26357105369988
 20
183.0415284261
 30
0.0
  0
VERTEX
  5
1D7D4
  8
0
 10
267.60450080039982
 20
183.22902601210001
 30
0.0
  0
VERTEX
  5
1D7D5
  8
0
 10
270.94636184516298
 20
183.41657621366309
 30
0.0
  0
SEQEND
  5
1D7D6
  8
0
  0
ARC
  5
1B9EA
  8
0
 10
302.26854298259991
 20
164.92367621919999
 30
0.0
 40
0.1304816903779609
 50
21.75164086790128
 51
111.3294368507038
  0
LINE
  5
1B9ED
  8
0
 10
302.22114250059991
 20
165.0449825451
 30
0.0
 11
302.22117230290002
 21
165.044993721
 31
0.0
  0
ARC
  5
1B9F8
  8
0
 10
262.0203622570998
 20
168.30319975770001
 30
0.0
 40
0.1740018190474649
 50
179.15880694929899
 51
269.20604237480381
  0
ARC
  5
1B9FA
  8
0
 10
262.24548437939978
 20
183.6253651893
 30
0.0
 40
0.1739999999999991
 50
93.212153002693995
 51
179.15822603199939
  0
ARC
  5
1B9FC
  8
0
 10
272.03416581968457
 20
185.31841222743591
 30
0.0
 40
8.0973928470415242
 50
191.3190440660502
 51
196.3335771448958
  0
ARC
  5
1BA03
  8
0
 10
303.88719012829671
 20
165.26853804591801
 30
0.0
 40
1.5265289966820781
 50
191.20011577488481
 51
212.53175002676721
  0
CIRCLE
  5
1BA52
  8
0
 10
204.96200083109991
 20
170.91920359
 30
0.0
 40
3.2500000000000031
  0
CIRCLE
  5
1BA53
  8
0
 10
226.45303208899989
 20
176.8302047032
 30
0.0
 40
3.2500000000000129
  0
CIRCLE
  5
1BA54
  8
0
 10
231.90000083849989
 20
163.61920359000001
 30
0.0
 40
3.249999999999976
  0
CIRCLE
  5
1BA55
  8
0
 10
214.15200083109991
 20
183.91920359
 30
0.0
 40
3.2500000000000129
  0
CIRCLE
  5
1BA56
  8
0
 10
222.52535795549991
 20
195.43748702560001
 30
0.0
 40
3.2500000000000031
  0
ARC
  5
1BA57
  8
0
 10
241.69002581479981
 20
151.6056171489
 30
0.0
 40
34.557943800762501
 50
72.728481831498954
 51
77.247751488192534
  0
POLYLINE
  5
1BA58
  8
0
 66
     1
 10
0.0
 20
0.0
 30
0.0
 70
   128
  0
VERTEX
  5
1D7D7
  8
0
 10
249.11011829969991
 20
171.14909794179999
 30
0.0
  0
VERTEX
  5
1D7D8
  8
0
 10
249.47632923719991
 20
171.14371675999999
 30
0.0
  0
VERTEX
  5
1D7D9
  8
0
 10
249.8390160500999
 20
171.13838773219999
 30
0.0
  0
VERTEX
  5
1D7DA
  8
0
 10
250.19467696549989
 20
171.1331620812
 30
0.0
  0
VERTEX
  5
1D7DB
  8
0
 10
250.5398996173999
 20
171.1280900985
 30
0.0
  0
VERTEX
  5
1D7DC
  8
0
 10
250.87134614579989
 20
171.12322021279999
 30
0.0
  0
VERTEX
  5
1D7DD
  8
0
 10
251.18583515279991
 20
171.11859992149999
 30
0.0
  0
VERTEX
  5
1D7DE
  8
0
 10
251.48033425209999
 20
171.11427206549999
 30
0.0
  0
VERTEX
  5
1D7DF
  8
0
 10
251.75200477239991
 20
171.1102813482
 30
0.0
  0
SEQEND
  5
1D7E0
  8
0
  0
ARC
  5
1BA59
  8
0
 10
247.51379381239991
 20
141.01225976719999
 30
0.0
 40
30.16250000000003
 50
88.067759724498657
 51
103.9435955037941
  0
ARC
  5
1BA5A
  8
0
 10
231.06481288089981
 20
207.26329698359999
 30
0.0
 40
38.099999997720332
 50
261.93415322669603
 51
283.94359550380682
  0
ARC
  5
1BA5B
  8
0
 10
226.74180083109991
 20
176.75788777939999
 30
0.0
 40
7.2897999999999872
 50
159.65026046979861
 51
261.93415322669603
  0
ARC
  5
1BA5C
  8
0
 10
206.51119622809981
 20
184.26138780209999
 30
0.0
 40
14.28749999772092
 50
339.65026046979858
 51
36.083563015396763
  0
ARC
  5
1BA5D
  8
0
 10
222.5327035548998
 20
195.93743306490001
 30
0.0
 40
5.5372000000000572
 50
47.254656666297407
 51
216.08356301539681
  0
ARC
  5
1BA5E
  8
0
 10
278.61313480449991
 20
256.6147945559
 30
0.0
 40
77.086991170939555
 50
227.25465666629739
 51
247.66480579680169
  0
LINE
  5
1BA5F
  8
0
 10
248.53079840539971
 20
171.1576092988
 30
0.0
 11
249.11011829969991
 21
171.14909794179999
 31
0.0
  0
ARC
  5
1BA60
  8
0
 10
273.18645568979991
 20
224.20029076680001
 30
0.0
 40
44.930377372088437
 50
241.79380042340031
 51
244.20671637280381
  0
LINE
  5
1BA61
  8
0
 10
253.45007404680001
 20
171.08533121650001
 30
0.0
 11
251.75200477239991
 21
171.1102813482
 31
0.0
  0
ARC
  5
1BA62
  8
0
 10
257.17574851659992
 20
186.4591364865
 30
0.0
 40
4.4596405576636204
 50
217.46669202170179
 51
227.25369258959881
  0
POLYLINE
  5
1BA63
  8
0
 66
     1
 10
0.0
 20
0.0
 30
0.0
 70
   128
  0
VERTEX
  5
1D7E1
  8
0
 10
253.97086963059971
 20
171.0776794702
 30
0.0
  0
VERTEX
  5
1D7E2
  8
0
 10
253.89868095519981
 20
171.07874024660001
 30
0.0
  0
VERTEX
  5
1D7E3
  8
0
 10
253.8271851836999
 20
171.07979077850001
 30
0.0
  0
VERTEX
  5
1D7E4
  8
0
 10
253.7570752202999
 20
171.08082082120001
 30
0.0
  0
VERTEX
  5
1D7E5
  8
0
 10
253.6890216171999
 20
171.0818210617
 30
0.0
  0
VERTEX
  5
1D7E6
  8
0
 10
253.62368002529999
 20
171.08278125530001
 30
0.0
  0
VERTEX
  5
1D7E7
  8
0
 10
253.5616837441998
 20
171.08369208869999
 30
0.0
  0
VERTEX
  5
1D7E8
  8
0
 10
253.50362882019999
 20
171.08454424889999
 30
0.0
  0
VERTEX
  5
1D7E9
  8
0
 10
253.45007404680001
 20
171.08533121650001
 30
0.0
  0
SEQEND
  5
1D7EA
  8
0
  0
ARC
  5
1BA64
  8
0
 10
277.55959701489979
 20
256.6302739596
 30
0.0
 40
77.086991170939555
 50
252.32039908840201
 51
258.38147851659579
  0
LINE
  5
1BA67
  8
0
 10
261.88539788129992
 20
170.96139360219999
 30
0.0
 11
253.97086963059971
 21
171.0776794702
 31
0.0
  0
LINE
  5
1BA68
  8
0
 10
235.52345558999991
 20
169.42508202050001
 30
0.0
 11
236.60920634859991
 21
166.7910512537
 31
0.0
  0
LINE
  5
1BA69
  8
0
 10
223.56921136379989
 20
169.56189516929999
 30
0.0
 11
223.23803678149989
 21
170.36532852799999
 31
0.0
  0
LINE
  5
1BA79
  8
0
 10
220.31314745539979
 20
180.56830819699999
 30
0.0
 11
220.08268982169989
 21
180.20074870440001
 31
0.0
  0
POLYLINE
  5
1BA7A
  8
0
 66
     1
 10
0.0
 20
0.0
 30
0.0
 70
   128
  0
VERTEX
  5
1D7EB
  8
0
 10
220.08268982169989
 20
180.20074870440001
 30
0.0
  0
VERTEX
  5
1D7EC
  8
0
 10
219.5660106837999
 20
179.48203030970001
 30
0.0
  0
VERTEX
  5
1D7ED
  8
0
 10
219.45200189949989
 20
179.3464576826
 30
0.0
  0
SEQEND
  5
1D7EE
  8
0
  0
ARC
  5
1BA7B
  8
0
 10
195.9983796642
 20
203.44682481749999
 30
0.0
 40
14.00000000000002
 50
269.91289413220159
 51
299.91289413220181
  0
LINE
  5
1BA7C
  8
0
 10
202.9799379407998
 20
191.31184052680001
 30
0.0
 11
220.0686268507998
 21
201.14339198920001
 31
0.0
  0
ARC
  5
1BA7D
  8
0
 10
223.0181187094999
 20
196.01673855889999
 30
0.0
 40
5.9145635430313002
 50
19.039851744500279
 51
119.9128941322018
  0
LINE
  5
1BA83
  8
0
 10
237.59999945759981
 20
153.0000000261
 30
0.0
 11
200.0
 21
153.0000000261
 31
0.0
  0
LINE
  5
1BA84
  8
0
 10
200.0
 20
150.0
 30
0.0
 11
237.59999945760001
 21
150.0
 31
0.0
  0
LINE
  5
1BA8A
  8
0
 10
200.0
 20
167.35810330140001
 30
0.0
 11
197.09999933839981
 21
176.77920367569999
 31
0.0
  0
LINE
  5
1BA8B
  8
0
 10
197.09999933839981
 20
176.77920367569999
 30
0.0
 11
197.09999933839981
 21
186.43120359630001
 31
0.0
  0
ARC
  5
1BA8C
  8
0
 10
200.1476507563998
 20
186.4773985889
 30
0.0
 40
3.0479999999999552
 50
99.98798009790741
 51
180.8683988885999
  0
LINE
  5
1BA8D
  8
0
 10
199.6189996599999
 20
189.47920445349999
 30
0.0
 11
213.3350007235999
 21
189.47920445349999
 31
0.0
  0
ARC
  5
1BA8E
  8
0
 10
213.86539844469991
 20
183.91643248450001
 30
0.0
 40
5.5880000000000214
 50
1.2814806453001559
 51
95.446557277601926
  0
LINE
  5
1BA8F
  8
0
 10
219.45200189949989
 20
184.0414037928
 30
0.0
 11
219.45200189949989
 21
175.32920334490001
 31
0.0
  0
ARC
  5
1BA90
  8
0
 10
225.79950174850001
 20
175.50733893029999
 30
0.0
 40
6.3500000073658569
 50
181.60751840850011
 51
265.2439446971008
  0
LINE
  5
1BA91
  8
0
 10
225.27300268409999
 20
169.17920354750001
 30
0.0
 11
231.749997288
 21
169.17920354750001
 31
0.0
  0
ARC
  5
1BA92
  8
0
 10
232.02340943769991
 20
163.5978962385
 30
0.0
 40
5.5880000012446356
 50
356.33815857379932
 51
92.804476708192624
  0
LINE
  5
1BA93
  8
0
 10
200.0
 20
150.0
 30
0.0
 11
200.0
 21
167.35810330140001
 31
0.0
  0
LINE
  5
1BA94
  8
0
 10
237.59999945760001
 20
163.2410035003
 30
0.0
 11
237.59999945760001
 21
150.0
 31
0.0
  0
POLYLINE
  5
1BAA1
  8
0
 66
     1
 10
0.0
 20
0.0
 30
0.0
 70
   128
  0
VERTEX
  5
1D7EF
  8
0
 10
264.2635785042998
 20
183.04118942470001
 30
0.0
  0
VERTEX
  5
1D7F0
  8
0
 10
264.26546350119997
 20
182.94882457700001
 30
0.0
  0
VERTEX
  5
1D7F1
  8
0
 10
264.29265066980003
 20
182.67835546289999
 30
0.0
  0
VERTEX
  5
1D7F2
  8
0
 10
264.4321925937997
 20
181.7066283897
 30
0.0
  0
VERTEX
  5
1D7F3
  8
0
 10
264.66614827509989
 20
180.35769890989999
 30
0.0
  0
VERTEX
  5
1D7F4
  8
0
 10
264.9965517222999
 20
178.8069127128
 30
0.0
  0
VERTEX
  5
1D7F5
  8
0
 10
265.43689593669978
 20
177.15779002759999
 30
0.0
  0
VERTEX
  5
1D7F6
  8
0
 10
266.0209991037998
 20
175.5133816972
 30
0.0
  0
VERTEX
  5
1D7F7
  8
0
 10
266.84757396579988
 20
173.96773733200001
 30
0.0
  0
VERTEX
  5
1D7F8
  8
0
 10
267.43661686779978
 20
173.32665678110001
 30
0.0
  0
VERTEX
  5
1D7F9
  8
0
 10
267.81653687359989
 20
173.105381988
 30
0.0
  0
VERTEX
  5
1D7FA
  8
0
 10
268.03326681250002
 20
173.04990403350001
 30
0.0
  0
VERTEX
  5
1D7FB
  8
0
 10
268.2572238146999
 20
173.049864918
 30
0.0
  0
VERTEX
  5
1D7FC
  8
0
 10
268.47172603009989
 20
173.10722041880001
 30
0.0
  0
VERTEX
  5
1D7FD
  8
0
 10
268.6643607913997
 20
173.21109827609999
 30
0.0
  0
VERTEX
  5
1D7FE
  8
0
 10
268.98238137359982
 20
173.502654396
 30
0.0
  0
VERTEX
  5
1D7FF
  8
0
 10
269.43516805769991
 20
174.2316368967
 30
0.0
  0
VERTEX
  5
1D800
  8
0
 10
269.86162438989982
 20
175.4748445004
 30
0.0
  0
SEQEND
  5
1D801
  8
0
  0
LINE
  5
1BAC0
  8
0
 10
254.14875224229991
 20
183.18412695079999
 30
0.0
 11
253.97086963059971
 21
171.0776794702
 31
0.0
  0
ARC
  5
1BACE
  8
0
 10
302.19761486859989
 20
272.43663872565168
 30
0.0
 40
7.7888847064444988
 50
269.98475402949191
 51
0.3227271155004999
  0
LINE
  5
1BAD1
  8
0
 10
264.67403844
 20
266.27045163345173
 30
0.0
 11
265.75857475399988
 21
266.25250877275158
 31
0.0
  0
POLYLINE
  5
1BAD3
  8
0
 66
     1
 10
0.0
 20
0.0
 30
0.0
 70
   128
  0
VERTEX
  5
1D802
  8
0
 10
265.7913796602997
 20
267.0945920182516
 30
0.0
  0
VERTEX
  5
1D803
  8
0
 10
268.21681931609987
 20
266.9880710674517
 30
0.0
  0
VERTEX
  5
1D804
  8
0
 10
270.0535662471998
 20
266.90715776215171
 30
0.0
  0
SEQEND
  5
1D805
  8
0
  0
LINE
  5
1BB05
  8
0
 10
216.9955044985
 20
269.4837076977314
 30
0.0
 11
216.9955044985
 21
266.4837072060314
 31
0.0
  0
LINE
  5
1BB08
  8
0
 10
237.45787963270001
 20
269.48051153234968
 30
0.0
 11
237.45787963270001
 21
275.4805115432672
 31
0.0
  0
LINE
  5
1BB09
  8
0
 10
216.9955044985
 20
278.48370731033128
 30
0.0
 11
216.9955044985
 21
275.48370495593127
 31
0.0
  0
LINE
  5
1BB0A
  8
0
 10
228.93267944449991
 20
272.48051144033138
 30
0.0
 11
228.93267944449991
 21
275.4805116172576
 31
0.0
  0
LINE
  5
1BB0B
  8
0
 10
228.93267944449991
 20
269.48051159849263
 30
0.0
 11
228.93267944449991
 21
272.48051144033138
 31
0.0
  0
POLYLINE
  5
1BB28
  8
0
 66
     1
 10
0.0
 20
0.0
 30
0.0
 70
   128
  0
VERTEX
  5
1D806
  8
0
 10
302.5018803774999
 20
264.65402768385172
 30
0.0
  0
VERTEX
  5
1D807
  8
0
 10
302.81973704689989
 20
264.67653588785168
 30
0.0
  0
VERTEX
  5
1D808
  8
0
 10
303.06968912479988
 20
264.70707581765168
 30
0.0
  0
VERTEX
  5
1D809
  8
0
 10
303.28416153789982
 20
264.74691034685168
 30
0.0
  0
VERTEX
  5
1D80A
  8
0
 10
303.41178998349977
 20
264.78508339655173
 30
0.0
  0
VERTEX
  5
1D80B
  8
0
 10
303.4538112580999
 20
264.81895001065158
 30
0.0
  0
VERTEX
  5
1D80C
  8
0
 10
303.39176282279982
 20
264.84017671475169
 30
0.0
  0
VERTEX
  5
1D80D
  8
0
 10
303.23641821739989
 20
264.84530457685167
 30
0.0
  0
VERTEX
  5
1D80E
  8
0
 10
302.99838706849982
 20
264.83452172405168
 30
0.0
  0
VERTEX
  5
1D80F
  8
0
 10
302.73927077649978
 20
264.81387802785167
 30
0.0
  0
VERTEX
  5
1D810
  8
0
 10
302.69070789220001
 20
264.80954924055169
 30
0.0
  0
VERTEX
  5
1D811
  8
0
 10
302.3738197981998
 20
264.77939487825171
 30
0.0
  0
VERTEX
  5
1D812
  8
0
 10
302.11713239549999
 20
264.75185939505172
 30
0.0
  0
VERTEX
  5
1D813
  8
0
 10
301.92930325859987
 20
264.72871789165168
 30
0.0
  0
VERTEX
  5
1D814
  8
0
 10
301.78835317489978
 20
264.70594332945171
 30
0.0
  0
VERTEX
  5
1D815
  8
0
 10
301.74001380800001
 20
264.68515248425172
 30
0.0
  0
VERTEX
  5
1D816
  8
0
 10
301.7986945807998
 20
264.6670848263517
 30
0.0
  0
VERTEX
  5
1D817
  8
0
 10
301.95994004609997
 20
264.65324909815172
 30
0.0
  0
VERTEX
  5
1D818
  8
0
 10
302.17846557499979
 20
264.64747117295173
 30
0.0
  0
VERTEX
  5
1D819
  8
0
 10
302.45440527789992
 20
264.65204396675159
 30
0.0
  0
VERTEX
  5
1D81A
  8
0
 10
302.5018803774999
 20
264.65402768385172
 30
0.0
  0
SEQEND
  5
1D81B
  8
0
  0
POLYLINE
  5
1BB29
  8
0
 66
     1
 10
0.0
 20
0.0
 30
0.0
 70
   128
  0
VERTEX
  5
1D81C
  8
0
 10
297.61212393639988
 20
265.8300701660516
 30
0.0
  0
VERTEX
  5
1D81D
  8
0
 10
297.9395322501
 20
265.83837942615162
 30
0.0
  0
VERTEX
  5
1D81E
  8
0
 10
298.20049628609991
 20
265.88526965505167
 30
0.0
  0
VERTEX
  5
1D81F
  8
0
 10
298.39863702649973
 20
265.9709811342517
 30
0.0
  0
VERTEX
  5
1D820
  8
0
 10
298.50085899229998
 20
266.08062015305171
 30
0.0
  0
VERTEX
  5
1D821
  8
0
 10
298.50911423559978
 20
266.2159413231517
 30
0.0
  0
VERTEX
  5
1D822
  8
0
 10
298.41552004219989
 20
266.34624825245169
 30
0.0
  0
VERTEX
  5
1D823
  8
0
 10
298.25107082719978
 20
266.45729543095172
 30
0.0
  0
VERTEX
  5
1D824
  8
0
 10
298.00253435969989
 20
266.55411945115168
 30
0.0
  0
VERTEX
  5
1D825
  8
0
 10
297.70947322249981
 20
266.60650448335173
 30
0.0
  0
VERTEX
  5
1D826
  8
0
 10
297.64563664789989
 20
266.61093944145171
 30
0.0
  0
VERTEX
  5
1D827
  8
0
 10
297.31751307839983
 20
266.59597681295168
 30
0.0
  0
VERTEX
  5
1D828
  8
0
 10
297.0543734728999
 20
266.5270328653516
 30
0.0
  0
VERTEX
  5
1D829
  8
0
 10
296.86624631279977
 20
266.42516852745172
 30
0.0
  0
VERTEX
  5
1D82A
  8
0
 10
296.75578400489979
 20
266.2942692769517
 30
0.0
  0
VERTEX
  5
1D82B
  8
0
 10
296.75143286579993
 20
266.16749392285169
 30
0.0
  0
VERTEX
  5
1D82C
  8
0
 10
296.83771058919979
 20
266.04872421755169
 30
0.0
  0
VERTEX
  5
1D82D
  8
0
 10
297.01932594179999
 20
265.94430805575172
 30
0.0
  0
VERTEX
  5
1D82E
  8
0
 10
297.25541993969978
 20
265.87484070485181
 30
0.0
  0
VERTEX
  5
1D82F
  8
0
 10
297.54174575209981
 20
265.83434493675168
 30
0.0
  0
VERTEX
  5
1D830
  8
0
 10
297.61212393639988
 20
265.8300701660516
 30
0.0
  0
SEQEND
  5
1D831
  8
0
  0
POLYLINE
  5
1BB2A
  8
0
 66
     1
 10
0.0
 20
0.0
 30
0.0
 70
   128
  0
VERTEX
  5
1D832
  8
0
 10
294.89982947710001
 20
265.24444149265167
 30
0.0
  0
VERTEX
  5
1D833
  8
0
 10
295.24835273619988
 20
265.2427632493517
 30
0.0
  0
VERTEX
  5
1D834
  8
0
 10
295.50390765069977
 20
265.26276433295158
 30
0.0
  0
VERTEX
  5
1D835
  8
0
 10
295.6926755606998
 20
265.30399957135171
 30
0.0
  0
VERTEX
  5
1D836
  8
0
 10
295.78713402149992
 20
265.36083632535173
 30
0.0
  0
VERTEX
  5
1D837
  8
0
 10
295.78579291699998
 20
265.43436983055159
 30
0.0
  0
VERTEX
  5
1D838
  8
0
 10
295.68541869519981
 20
265.50779343975171
 30
0.0
  0
VERTEX
  5
1D839
  8
0
 10
295.51094099879992
 20
265.57473318105173
 30
0.0
  0
VERTEX
  5
1D83A
  8
0
 10
295.2558033167997
 20
265.6321063769517
 30
0.0
  0
VERTEX
  5
1D83B
  8
0
 10
294.94748339059993
 20
265.66316784745158
 30
0.0
  0
VERTEX
  5
1D83C
  8
0
 10
294.59891542790001
 20
265.65843672885171
 30
0.0
  0
VERTEX
  5
1D83D
  8
0
 10
294.33951601379982
 20
265.62159547045172
 30
0.0
  0
VERTEX
  5
1D83E
  8
0
 10
294.15357932449979
 20
265.5645109845517
 30
0.0
  0
VERTEX
  5
1D83F
  8
0
 10
294.05462071299979
 20
265.4928345365517
 30
0.0
  0
VERTEX
  5
1D840
  8
0
 10
294.06070038669992
 20
265.42468035055168
 30
0.0
  0
VERTEX
  5
1D841
  8
0
 10
294.15894374250001
 20
265.35983981025157
 30
0.0
  0
VERTEX
  5
1D842
  8
0
 10
294.3496339022999
 20
265.30521029065159
 30
0.0
  0
VERTEX
  5
1D843
  8
0
 10
294.58335861559999
 20
265.26914202995169
 30
0.0
  0
VERTEX
  5
1D844
  8
0
 10
294.89982947710001
 20
265.24444149265167
 30
0.0
  0
SEQEND
  5
1D845
  8
0
  0
POLYLINE
  5
1BB2B
  8
0
 66
     1
 10
0.0
 20
0.0
 30
0.0
 70
   128
  0
VERTEX
  5
1D846
  8
0
 10
297.39313647149987
 20
264.85453584625168
 30
0.0
  0
VERTEX
  5
1D847
  8
0
 10
297.67745062709992
 20
264.84379397165168
 30
0.0
  0
VERTEX
  5
1D848
  8
0
 10
297.93212637299979
 20
264.8382414264517
 30
0.0
  0
VERTEX
  5
1D849
  8
0
 10
298.14641997220002
 20
264.84014318715168
 30
0.0
  0
VERTEX
  5
1D84A
  8
0
 10
298.2727371155998
 20
264.85202127525167
 30
0.0
  0
VERTEX
  5
1D84B
  8
0
 10
298.3007363974998
 20
264.87503611875172
 30
0.0
  0
VERTEX
  5
1D84C
  8
0
 10
298.22249040009979
 20
264.90531341565168
 30
0.0
  0
VERTEX
  5
1D84D
  8
0
 10
298.0624370276999
 20
264.93770667745167
 30
0.0
  0
VERTEX
  5
1D84E
  8
0
 10
297.82260283829987
 20
264.96918351775162
 30
0.0
  0
VERTEX
  5
1D84F
  8
0
 10
297.56657108659988
 20
264.98939880555167
 30
0.0
  0
VERTEX
  5
1D850
  8
0
 10
297.49033674599991
 20
264.99337741565171
 30
0.0
  0
VERTEX
  5
1D851
  8
0
 10
297.1894972025998
 20
265.00088201295171
 30
0.0
  0
VERTEX
  5
1D852
  8
0
 10
296.92120179529979
 20
264.9949718398517
 30
0.0
  0
VERTEX
  5
1D853
  8
0
 10
296.72101959579982
 20
264.9791337681516
 30
0.0
  0
VERTEX
  5
1D854
  8
0
 10
296.59893438219979
 20
264.95631263985172
 30
0.0
  0
VERTEX
  5
1D855
  8
0
 10
296.58191725609981
 20
264.93229569325172
 30
0.0
  0
VERTEX
  5
1D856
  8
0
 10
296.66303917759979
 20
264.90927153655173
 30
0.0
  0
VERTEX
  5
1D857
  8
0
 10
296.8398265539999
 20
264.88843226265169
 30
0.0
  0
VERTEX
  5
1D858
  8
0
 10
297.06261381499991
 20
264.8720391226517
 30
0.0
  0
VERTEX
  5
1D859
  8
0
 10
297.3382554947998
 20
264.8570504171517
 30
0.0
  0
VERTEX
  5
1D85A
  8
0
 10
297.39313647149987
 20
264.85453584625168
 30
0.0
  0
SEQEND
  5
1D85B
  8
0
  0
POLYLINE
  5
1BB2C
  8
0
 66
     1
 10
0.0
 20
0.0
 30
0.0
 70
   128
  0
VERTEX
  5
1D85C
  8
0
 10
305.27780279519988
 20
265.64664245975172
 30
0.0
  0
VERTEX
  5
1D85D
  8
0
 10
305.53064569829979
 20
265.77249580455168
 30
0.0
  0
VERTEX
  5
1D85E
  8
0
 10
305.76210543509978
 20
265.91987760195173
 30
0.0
  0
VERTEX
  5
1D85F
  8
0
 10
305.96201941369992
 20
266.08596966995168
 30
0.0
  0
VERTEX
  5
1D860
  8
0
 10
306.08160123229982
 20
266.2302818281517
 30
0.0
  0
VERTEX
  5
1D861
  8
0
 10
306.12518712879978
 20
266.35101662405168
 30
0.0
  0
VERTEX
  5
1D862
  8
0
 10
306.07723519199999
 20
266.42537528105169
 30
0.0
  0
VERTEX
  5
1D863
  8
0
 10
305.95082864159991
 20
266.4427090568517
 30
0.0
  0
VERTEX
  5
1D864
  8
0
 10
305.74903711669981
 20
266.40395672455168
 30
0.0
  0
VERTEX
  5
1D865
  8
0
 10
305.50577566029989
 20
266.31415301395168
 30
0.0
  0
VERTEX
  5
1D866
  8
0
 10
305.41893169280002
 20
266.27501138875181
 30
0.0
  0
VERTEX
  5
1D867
  8
0
 10
305.12207075949982
 20
266.11773894555171
 30
0.0
  0
VERTEX
  5
1D868
  8
0
 10
304.8919670283999
 20
265.9648921472517
 30
0.0
  0
VERTEX
  5
1D869
  8
0
 10
304.72203418609979
 20
265.82524591515158
 30
0.0
  0
VERTEX
  5
1D86A
  8
0
 10
304.59881648419992
 20
265.6858790797516
 30
0.0
  0
VERTEX
  5
1D86B
  8
0
 10
304.56607863310001
 20
265.5816473198517
 30
0.0
  0
VERTEX
  5
1D86C
  8
0
 10
304.6217046677998
 20
265.51978328655167
 30
0.0
  0
VERTEX
  5
1D86D
  8
0
 10
304.76854071019989
 20
265.50508515365158
 30
0.0
  0
VERTEX
  5
1D86E
  8
0
 10
304.97982427480002
 20
265.54265843165172
 30
0.0
  0
VERTEX
  5
1D86F
  8
0
 10
305.24178668849981
 20
265.6314674896517
 30
0.0
  0
VERTEX
  5
1D870
  8
0
 10
305.27780279519988
 20
265.64664245975172
 30
0.0
  0
SEQEND
  5
1D871
  8
0
  0
POLYLINE
  5
1BB2D
  8
0
 66
     1
 10
0.0
 20
0.0
 30
0.0
 70
   128
  0
VERTEX
  5
1D872
  8
0
 10
300.30385479329988
 20
267.02216306155168
 30
0.0
  0
VERTEX
  5
1D873
  8
0
 10
300.62552615999988
 20
267.06767120785167
 30
0.0
  0
VERTEX
  5
1D874
  8
0
 10
300.87877139449978
 20
267.17596353425171
 30
0.0
  0
VERTEX
  5
1D875
  8
0
 10
301.06770321719978
 20
267.3446577174517
 30
0.0
  0
VERTEX
  5
1D876
  8
0
 10
301.15502402179982
 20
267.52920114825167
 30
0.0
  0
VERTEX
  5
1D877
  8
0
 10
301.15913674229978
 20
267.74051451515169
 30
0.0
  0
VERTEX
  5
1D878
  8
0
 10
301.06117650859977
 20
267.95135477015168
 30
0.0
  0
VERTEX
  5
1D879
  8
0
 10
300.8811555803
 20
268.11858305165168
 30
0.0
  0
VERTEX
  5
1D87A
  8
0
 10
300.62071308489982
 20
268.24110412425171
 30
0.0
  0
VERTEX
  5
1D87B
  8
0
 10
300.3197096287999
 20
268.28928330375169
 30
0.0
  0
VERTEX
  5
1D87C
  8
0
 10
300.25296732779998
 20
268.28951427175173
 30
0.0
  0
VERTEX
  5
1D87D
  8
0
 10
299.93113204829979
 20
268.23805683685168
 30
0.0
  0
VERTEX
  5
1D87E
  8
0
 10
299.68156740069981
 20
268.11716371605172
 30
0.0
  0
VERTEX
  5
1D87F
  8
0
 10
299.51157495379988
 20
267.96022841165171
 30
0.0
  0
VERTEX
  5
1D880
  8
0
 10
299.40631315109982
 20
267.75524803825169
 30
0.0
  0
VERTEX
  5
1D881
  8
0
 10
299.40422698849989
 20
267.54849815195172
 30
0.0
  0
VERTEX
  5
1D882
  8
0
 10
299.4935445486999
 20
267.36034677755168
 30
0.0
  0
VERTEX
  5
1D883
  8
0
 10
299.67991337180001
 20
267.19124653765158
 30
0.0
  0
VERTEX
  5
1D884
  8
0
 10
299.9342463909997
 20
267.07615183125171
 30
0.0
  0
VERTEX
  5
1D885
  8
0
 10
300.2373807131998
 20
267.0234557373517
 30
0.0
  0
VERTEX
  5
1D886
  8
0
 10
300.30385479329988
 20
267.02216306155168
 30
0.0
  0
SEQEND
  5
1D887
  8
0
  0
POLYLINE
  5
1BB2E
  8
0
 66
     1
 10
0.0
 20
0.0
 30
0.0
 70
   128
  0
VERTEX
  5
1D888
  8
0
 10
302.97740623350001
 20
265.86058774425169
 30
0.0
  0
VERTEX
  5
1D889
  8
0
 10
303.2697372138
 20
265.94499723445159
 30
0.0
  0
VERTEX
  5
1D88A
  8
0
 10
303.52997109289981
 20
266.07348063415168
 30
0.0
  0
VERTEX
  5
1D88B
  8
0
 10
303.73369976879991
 20
266.23865255545172
 30
0.0
  0
VERTEX
  5
1D88C
  8
0
 10
303.8414500653999
 20
266.40412436255173
 30
0.0
  0
VERTEX
  5
1D88D
  8
0
 10
303.85952517389978
 20
266.57017917765171
 30
0.0
  0
VERTEX
  5
1D88E
  8
0
 10
303.77469286320002
 20
266.70296342505168
 30
0.0
  0
VERTEX
  5
1D88F
  8
0
 10
303.61201688649999
 20
266.78638385065159
 30
0.0
  0
VERTEX
  5
1D890
  8
0
 10
303.36917266249981
 20
266.82287865705172
 30
0.0
  0
VERTEX
  5
1D891
  8
0
 10
303.08646783229977
 20
266.79876671565171
 30
0.0
  0
VERTEX
  5
1D892
  8
0
 10
302.99886390559982
 20
266.78083316815167
 30
0.0
  0
VERTEX
  5
1D893
  8
0
 10
302.70827636119981
 20
266.6893623901517
 30
0.0
  0
VERTEX
  5
1D894
  8
0
 10
302.44869813320003
 20
266.55552016025172
 30
0.0
  0
VERTEX
  5
1D895
  8
0
 10
302.25972160699979
 20
266.4064731581517
 30
0.0
  0
VERTEX
  5
1D896
  8
0
 10
302.13748738169988
 20
266.23899528215168
 30
0.0
  0
VERTEX
  5
1D897
  8
0
 10
302.11816057559992
 20
266.0883892459517
 30
0.0
  0
VERTEX
  5
1D898
  8
0
 10
302.1926216780999
 20
265.96383789015169
 30
0.0
  0
VERTEX
  5
1D899
  8
0
 10
302.3643575608998
 20
265.87161460355168
 30
0.0
  0
VERTEX
  5
1D89A
  8
0
 10
302.59686037899968
 20
265.83264806695172
 30
0.0
  0
VERTEX
  5
1D89B
  8
0
 10
302.8808765112999
 20
265.8446546776517
 30
0.0
  0
VERTEX
  5
1D89C
  8
0
 10
302.97740623350001
 20
265.86058774425169
 30
0.0
  0
SEQEND
  5
1D89D
  8
0
  0
POLYLINE
  5
1BB2F
  8
0
 66
     1
 10
0.0
 20
0.0
 30
0.0
 70
   128
  0
VERTEX
  5
1D89E
  8
0
 10
300.1571975647999
 20
264.99123164845167
 30
0.0
  0
VERTEX
  5
1D89F
  8
0
 10
300.44130310409992
 20
264.9843417240516
 30
0.0
  0
VERTEX
  5
1D8A0
  8
0
 10
300.70182010529987
 20
264.99510222505171
 30
0.0
  0
VERTEX
  5
1D8A1
  8
0
 10
300.9252183138999
 20
265.02787919175171
 30
0.0
  0
VERTEX
  5
1D8A2
  8
0
 10
301.05679556730001
 20
265.07964023775162
 30
0.0
  0
VERTEX
  5
1D8A3
  8
0
 10
301.09331831329968
 20
265.15023635155171
 30
0.0
  0
VERTEX
  5
1D8A4
  8
0
 10
301.0217927395999
 20
265.2269791943516
 30
0.0
  0
VERTEX
  5
1D8A5
  8
0
 10
300.86950287219997
 20
265.2969066185517
 30
0.0
  0
VERTEX
  5
1D8A6
  8
0
 10
300.63355788589979
 20
265.3599720580516
 30
0.0
  0
VERTEX
  5
1D8A7
  8
0
 10
300.3605239092999
 20
265.39748573135171
 30
0.0
  0
VERTEX
  5
1D8A8
  8
0
 10
300.26250407100002
 20
265.40426017175167
 30
0.0
  0
VERTEX
  5
1D8A9
  8
0
 10
299.955689162
 20
265.40541687435172
 30
0.0
  0
VERTEX
  5
1D8AA
  8
0
 10
299.6813885867
 20
265.37638196185179
 30
0.0
  0
VERTEX
  5
1D8AB
  8
0
 10
299.47730228299991
 20
265.32614455945168
 30
0.0
  0
VERTEX
  5
1D8AC
  8
0
 10
299.34924170369982
 20
265.25844113355168
 30
0.0
  0
VERTEX
  5
1D8AD
  8
0
 10
299.32849928730002
 20
265.18932396005169
 30
0.0
  0
VERTEX
  5
1D8AE
  8
0
 10
299.40410777919988
 20
265.1235893500517
 30
0.0
  0
VERTEX
  5
1D8AF
  8
0
 10
299.57831725479991
 20
265.0651078803516
 30
0.0
  0
VERTEX
  5
1D8B0
  8
0
 10
299.80620071289991
 20
265.02415017615169
 30
0.0
  0
VERTEX
  5
1D8B1
  8
0
 10
300.08710250259992
 20
264.99556416105168
 30
0.0
  0
VERTEX
  5
1D8B2
  8
0
 10
300.1571975647999
 20
264.99123164845167
 30
0.0
  0
SEQEND
  5
1D8B3
  8
0
  0
POLYLINE
  5
1BB30
  8
0
 66
     1
 10
0.0
 20
0.0
 30
0.0
 70
   128
  0
VERTEX
  5
1D8B4
  8
0
 10
279.22453805799978
 20
265.89409673045168
 30
0.0
  0
VERTEX
  5
1D8B5
  8
0
 10
279.51344922179987
 20
265.89257494935168
 30
0.0
  0
VERTEX
  5
1D8B6
  8
0
 10
279.77001741529989
 20
265.91349804235159
 30
0.0
  0
VERTEX
  5
1D8B7
  8
0
 10
279.97077330939987
 20
265.96005672045169
 30
0.0
  0
VERTEX
  5
1D8B8
  8
0
 10
280.07585629819982
 20
266.0249941183518
 30
0.0
  0
VERTEX
  5
1D8B9
  8
0
 10
280.09234443299988
 20
266.11038894785167
 30
0.0
  0
VERTEX
  5
1D8BA
  8
0
 10
280.00711724159987
 20
266.20329582525159
 30
0.0
  0
VERTEX
  5
1D8BB
  8
0
 10
279.84314486379981
 20
266.28762149645172
 30
0.0
  0
VERTEX
  5
1D8BC
  8
0
 10
279.5989371835999
 20
266.36059993335158
 30
0.0
  0
VERTEX
  5
1D8BD
  8
0
 10
279.32296022769992
 20
266.4008423818517
 30
0.0
  0
VERTEX
  5
1D8BE
  8
0
 10
279.23769578339989
 20
266.40633718505171
 30
0.0
  0
VERTEX
  5
1D8BF
  8
0
 10
278.94558086989991
 20
266.40191526545158
 30
0.0
  0
VERTEX
  5
1D8C0
  8
0
 10
278.68630811569977
 20
266.36103392965168
 30
0.0
  0
VERTEX
  5
1D8C1
  8
0
 10
278.49778607489998
 20
266.29604624045169
 30
0.0
  0
VERTEX
  5
1D8C2
  8
0
 10
278.38057354089977
 20
266.21002183685181
 30
0.0
  0
VERTEX
  5
1D8C3
  8
0
 10
278.36812362069981
 20
266.12415017015172
 30
0.0
  0
VERTEX
  5
1D8C4
  8
0
 10
278.4486867486998
 20
266.04504176805159
 30
0.0
  0
VERTEX
  5
1D8C5
  8
0
 10
278.62428203219997
 20
265.97601027615161
 30
0.0
  0
VERTEX
  5
1D8C6
  8
0
 10
278.85578647249991
 20
265.92890584305172
 30
0.0
  0
VERTEX
  5
1D8C7
  8
0
 10
279.1361220180998
 20
265.8989880366517
 30
0.0
  0
VERTEX
  5
1D8C8
  8
0
 10
279.22453805799978
 20
265.89409673045168
 30
0.0
  0
SEQEND
  5
1D8C9
  8
0
  0
POLYLINE
  5
1BB31
  8
0
 66
     1
 10
0.0
 20
0.0
 30
0.0
 70
   128
  0
VERTEX
  5
1D8CA
  8
0
 10
281.85807242990001
 20
266.63195194135159
 30
0.0
  0
VERTEX
  5
1D8CB
  8
0
 10
282.19694718719978
 20
266.64539465135169
 30
0.0
  0
VERTEX
  5
1D8CC
  8
0
 10
282.44827017189982
 20
266.70370475775172
 30
0.0
  0
VERTEX
  5
1D8CD
  8
0
 10
282.63393118980002
 20
266.80506431885169
 30
0.0
  0
VERTEX
  5
1D8CE
  8
0
 10
282.72575959559981
 20
266.93032161725171
 30
0.0
  0
VERTEX
  5
1D8CF
  8
0
 10
282.72986486549979
 20
267.0851986987517
 30
0.0
  0
VERTEX
  5
1D8D0
  8
0
 10
282.63402059669988
 20
267.24078172275159
 30
0.0
  0
VERTEX
  5
1D8D1
  8
0
 10
282.46016874909992
 20
267.37636180055171
 30
0.0
  0
VERTEX
  5
1D8D2
  8
0
 10
282.20710977909988
 20
267.48526879975168
 30
0.0
  0
VERTEX
  5
1D8D3
  8
0
 10
281.93069323899999
 20
267.53676721285171
 30
0.0
  0
VERTEX
  5
1D8D4
  8
0
 10
281.88935741779977
 20
267.53976607155158
 30
0.0
  0
VERTEX
  5
1D8D5
  8
0
 10
281.54997602099979
 20
267.5195414705517
 30
0.0
  0
VERTEX
  5
1D8D6
  8
0
 10
281.29806444050001
 20
267.43868404455168
 30
0.0
  0
VERTEX
  5
1D8D7
  8
0
 10
281.11937716599982
 20
267.32121819085171
 30
0.0
  0
VERTEX
  5
1D8D8
  8
0
 10
281.01535961029981
 20
267.16898606545169
 30
0.0
  0
VERTEX
  5
1D8D9
  8
0
 10
281.01497963069983
 20
267.01916606555159
 30
0.0
  0
VERTEX
  5
1D8DA
  8
0
 10
281.1075009404999
 20
266.87726044485169
 30
0.0
  0
VERTEX
  5
1D8DB
  8
0
 10
281.2938101588997
 20
266.7565349621517
 30
0.0
  0
VERTEX
  5
1D8DC
  8
0
 10
281.53073117140002
 20
266.67802074385168
 30
0.0
  0
VERTEX
  5
1D8DD
  8
0
 10
281.81741461159982
 20
266.63446278705169
 30
0.0
  0
VERTEX
  5
1D8DE
  8
0
 10
281.85807242990001
 20
266.63195194135159
 30
0.0
  0
SEQEND
  5
1D8DF
  8
0
  0
POLYLINE
  5
1BB32
  8
0
 66
     1
 10
0.0
 20
0.0
 30
0.0
 70
   128
  0
VERTEX
  5
1D8E0
  8
0
 10
287.03419193619987
 20
265.29316642715168
 30
0.0
  0
VERTEX
  5
1D8E1
  8
0
 10
287.32263371350001
 20
265.28110579975169
 30
0.0
  0
VERTEX
  5
1D8E2
  8
0
 10
287.57777139539979
 20
265.27223960885169
 30
0.0
  0
VERTEX
  5
1D8E3
  8
0
 10
287.7787135540998
 20
265.2703900022517
 30
0.0
  0
VERTEX
  5
1D8E4
  8
0
 10
287.8848023711999
 20
265.2787681801517
 30
0.0
  0
VERTEX
  5
1D8E5
  8
0
 10
287.89863809939988
 20
265.2989089621517
 30
0.0
  0
VERTEX
  5
1D8E6
  8
0
 10
287.80966326589993
 20
265.32763281295172
 30
0.0
  0
VERTEX
  5
1D8E7
  8
0
 10
287.64390274879997
 20
265.35842233725168
 30
0.0
  0
VERTEX
  5
1D8E8
  8
0
 10
287.3983465134998
 20
265.38900883325169
 30
0.0
  0
VERTEX
  5
1D8E9
  8
0
 10
287.1249698101999
 20
265.40916451645171
 30
0.0
  0
VERTEX
  5
1D8EA
  8
0
 10
287.04407140609987
 20
265.41282647675172
 30
0.0
  0
VERTEX
  5
1D8EB
  8
0
 10
286.7507643996999
 20
265.41778483815159
 30
0.0
  0
VERTEX
  5
1D8EC
  8
0
 10
286.49155870079989
 20
265.40953704545171
 30
0.0
  0
VERTEX
  5
1D8ED
  8
0
 10
286.30253747099982
 20
265.39290176165167
 30
0.0
  0
VERTEX
  5
1D8EE
  8
0
 10
286.1882455646998
 20
265.37127831405161
 30
0.0
  0
VERTEX
  5
1D8EF
  8
0
 10
286.17896214130002
 20
265.35134987365171
 30
0.0
  0
VERTEX
  5
1D8F0
  8
0
 10
286.26357838509989
 20
265.3346642983517
 30
0.0
  0
VERTEX
  5
1D8F1
  8
0
 10
286.44316717980001
 20
265.32056221195171
 30
0.0
  0
VERTEX
  5
1D8F2
  8
0
 10
286.67313680049978
 20
265.3089355809517
 30
0.0
  0
VERTEX
  5
1D8F3
  8
0
 10
286.95166185499988
 20
265.29670917815167
 30
0.0
  0
VERTEX
  5
1D8F4
  8
0
 10
287.03419193619987
 20
265.29316642715168
 30
0.0
  0
SEQEND
  5
1D8F5
  8
0
  0
POLYLINE
  5
1BB33
  8
0
 66
     1
 10
0.0
 20
0.0
 30
0.0
 70
   128
  0
VERTEX
  5
1D8F6
  8
0
 10
284.44161340589989
 20
265.66863098575169
 30
0.0
  0
VERTEX
  5
1D8F7
  8
0
 10
284.73124727599998
 20
265.66700675915172
 30
0.0
  0
VERTEX
  5
1D8F8
  8
0
 10
284.98846366999987
 20
265.68689980935181
 30
0.0
  0
VERTEX
  5
1D8F9
  8
0
 10
285.19003912799991
 20
265.73119164835168
 30
0.0
  0
VERTEX
  5
1D8FA
  8
0
 10
285.2964632212998
 20
265.79331458935172
 30
0.0
  0
VERTEX
  5
1D8FB
  8
0
 10
285.3123553096998
 20
265.87473825945159
 30
0.0
  0
VERTEX
  5
1D8FC
  8
0
 10
285.22607758639992
 20
265.96178711785171
 30
0.0
  0
VERTEX
  5
1D8FD
  8
0
 10
285.0637517868999
 20
266.04021006655171
 30
0.0
  0
VERTEX
  5
1D8FE
  8
0
 10
284.82088521119982
 20
266.10940547115172
 30
0.0
  0
VERTEX
  5
1D8FF
  8
0
 10
284.54280719159988
 20
266.14883766895173
 30
0.0
  0
VERTEX
  5
1D900
  8
0
 10
284.45810154079982
 20
266.1543268842517
 30
0.0
  0
VERTEX
  5
1D901
  8
0
 10
284.16554704309988
 20
266.15121812945159
 30
0.0
  0
VERTEX
  5
1D902
  8
0
 10
283.90574529769992
 20
266.11323134435168
 30
0.0
  0
VERTEX
  5
1D903
  8
0
 10
283.71653035280002
 20
266.05188326365169
 30
0.0
  0
VERTEX
  5
1D904
  8
0
 10
283.59932526939969
 20
265.97024166415167
 30
0.0
  0
VERTEX
  5
1D905
  8
0
 10
283.58701691030001
 20
265.88852555885171
 30
0.0
  0
VERTEX
  5
1D906
  8
0
 10
283.66738632319988
 20
265.81314430965159
 30
0.0
  0
VERTEX
  5
1D907
  8
0
 10
283.84243026370001
 20
265.74720480865159
 30
0.0
  0
VERTEX
  5
1D908
  8
0
 10
284.0724594890998
 20
265.70223496685168
 30
0.0
  0
VERTEX
  5
1D909
  8
0
 10
284.35134962199982
 20
265.67348131365168
 30
0.0
  0
VERTEX
  5
1D90A
  8
0
 10
284.44161340589989
 20
265.66863098575169
 30
0.0
  0
SEQEND
  5
1D90B
  8
0
  0
POLYLINE
  5
1BB34
  8
0
 66
     1
 10
0.0
 20
0.0
 30
0.0
 70
   128
  0
VERTEX
  5
1D90C
  8
0
 10
292.32124313709983
 20
266.08622671495169
 30
0.0
  0
VERTEX
  5
1D90D
  8
0
 10
292.64827892179989
 20
266.09447264505172
 30
0.0
  0
VERTEX
  5
1D90E
  8
0
 10
292.90498122569988
 20
266.14251771405168
 30
0.0
  0
VERTEX
  5
1D90F
  8
0
 10
293.09716150159989
 20
266.22963735295173
 30
0.0
  0
VERTEX
  5
1D910
  8
0
 10
293.19437667729989
 20
266.33980350025172
 30
0.0
  0
VERTEX
  5
1D911
  8
0
 10
293.20112690329978
 20
266.47662037445173
 30
0.0
  0
VERTEX
  5
1D912
  8
0
 10
293.10781583189993
 20
266.6112057996516
 30
0.0
  0
VERTEX
  5
1D913
  8
0
 10
292.94229373329989
 20
266.72763416005171
 30
0.0
  0
VERTEX
  5
1D914
  8
0
 10
292.69436821339991
 20
266.82837718555169
 30
0.0
  0
VERTEX
  5
1D915
  8
0
 10
292.40628406399992
 20
266.88298807865169
 30
0.0
  0
VERTEX
  5
1D916
  8
0
 10
292.34845265739978
 20
266.88758508695167
 30
0.0
  0
VERTEX
  5
1D917
  8
0
 10
292.02068671579991
 20
266.87461176345181
 30
0.0
  0
VERTEX
  5
1D918
  8
0
 10
291.7644910514
 20
266.80602730645171
 30
0.0
  0
VERTEX
  5
1D919
  8
0
 10
291.58214554189999
 20
266.70370662045173
 30
0.0
  0
VERTEX
  5
1D91A
  8
0
 10
291.47367998959999
 20
266.5694937242518
 30
0.0
  0
VERTEX
  5
1D91B
  8
0
 10
291.4698056876
 20
266.43763521145172
 30
0.0
  0
VERTEX
  5
1D91C
  8
0
 10
291.55660495159981
 20
266.31349922545172
 30
0.0
  0
VERTEX
  5
1D91D
  8
0
 10
291.7375944554999
 20
266.20483064485171
 30
0.0
  0
VERTEX
  5
1D91E
  8
0
 10
291.97204932570003
 20
266.13253393605169
 30
0.0
  0
VERTEX
  5
1D91F
  8
0
 10
292.25612506269999
 20
266.09043070505169
 30
0.0
  0
VERTEX
  5
1D920
  8
0
 10
292.32124313709983
 20
266.08622671495169
 30
0.0
  0
SEQEND
  5
1D921
  8
0
  0
POLYLINE
  5
1BB35
  8
0
 66
     1
 10
0.0
 20
0.0
 30
0.0
 70
   128
  0
VERTEX
  5
1D922
  8
0
 10
289.66476842759999
 20
265.4544472826517
 30
0.0
  0
VERTEX
  5
1D923
  8
0
 10
289.9561755359
 20
265.4530093205517
 30
0.0
  0
VERTEX
  5
1D924
  8
0
 10
290.21491929889999
 20
265.47181458605172
 30
0.0
  0
VERTEX
  5
1D925
  8
0
 10
290.41729196900002
 20
265.51330873205171
 30
0.0
  0
VERTEX
  5
1D926
  8
0
 10
290.52462503309999
 20
265.57147541475172
 30
0.0
  0
VERTEX
  5
1D927
  8
0
 10
290.53977951409979
 20
265.64744712245169
 30
0.0
  0
VERTEX
  5
1D928
  8
0
 10
290.45229479669979
 20
265.72754086385169
 30
0.0
  0
VERTEX
  5
1D929
  8
0
 10
290.29002115129992
 20
265.79947621955171
 30
0.0
  0
VERTEX
  5
1D92A
  8
0
 10
290.04717692729992
 20
265.86328857965168
 30
0.0
  0
VERTEX
  5
1D92B
  8
0
 10
289.77038785809981
 20
265.89965300095167
 30
0.0
  0
VERTEX
  5
1D92C
  8
0
 10
289.68735858799982
 20
265.90470635725171
 30
0.0
  0
VERTEX
  5
1D92D
  8
0
 10
289.39173445099982
 20
265.90209120345168
 30
0.0
  0
VERTEX
  5
1D92E
  8
0
 10
289.1295038162998
 20
265.8668276054517
 30
0.0
  0
VERTEX
  5
1D92F
  8
0
 10
288.9376662670997
 20
265.80910982025171
 30
0.0
  0
VERTEX
  5
1D930
  8
0
 10
288.82203325629979
 20
265.73286244105168
 30
0.0
  0
VERTEX
  5
1D931
  8
0
 10
288.81225809449978
 20
265.65742903775163
 30
0.0
  0
VERTEX
  5
1D932
  8
0
 10
288.8946764170999
 20
265.58729113465159
 30
0.0
  0
VERTEX
  5
1D933
  8
0
 10
289.07156810160001
 20
265.5262168628517
 30
0.0
  0
VERTEX
  5
1D934
  8
0
 10
289.30083736779989
 20
265.48502632805167
 30
0.0
  0
VERTEX
  5
1D935
  8
0
 10
289.57871422170001
 20
265.45869783885161
 30
0.0
  0
VERTEX
  5
1D936
  8
0
 10
289.66476842759999
 20
265.4544472826517
 30
0.0
  0
SEQEND
  5
1D937
  8
0
  0
POLYLINE
  5
1BB36
  8
0
 66
     1
 10
0.0
 20
0.0
 30
0.0
 70
   128
  0
VERTEX
  5
1D938
  8
0
 10
292.22657605999979
 20
265.07488490475168
 30
0.0
  0
VERTEX
  5
1D939
  8
0
 10
292.51217171549979
 20
265.06452487245173
 30
0.0
  0
VERTEX
  5
1D93A
  8
0
 10
292.76575967669987
 20
265.05919770725171
 30
0.0
  0
VERTEX
  5
1D93B
  8
0
 10
292.97282621260001
 20
265.06175511905172
 30
0.0
  0
VERTEX
  5
1D93C
  8
0
 10
293.08884665369987
 20
265.07448629865172
 30
0.0
  0
VERTEX
  5
1D93D
  8
0
 10
293.10656413429979
 20
265.09832070595172
 30
0.0
  0
VERTEX
  5
1D93E
  8
0
 10
293.01976487040002
 20
265.12824782565173
 30
0.0
  0
VERTEX
  5
1D93F
  8
0
 10
292.85877272480002
 20
265.15875609055172
 30
0.0
  0
VERTEX
  5
1D940
  8
0
 10
292.61674806469978
 20
265.18892349135172
 30
0.0
  0
VERTEX
  5
1D941
  8
0
 10
292.34472736709989
 20
265.20879046455173
 30
0.0
  0
VERTEX
  5
1D942
  8
0
 10
292.26454421879998
 20
265.21237233115158
 30
0.0
  0
VERTEX
  5
1D943
  8
0
 10
291.96881577369982
 20
265.2172580493517
 30
0.0
  0
VERTEX
  5
1D944
  8
0
 10
291.70676395299989
 20
265.20885006915171
 30
0.0
  0
VERTEX
  5
1D945
  8
0
 10
291.51433035730003
 20
265.19148835375171
 30
0.0
  0
VERTEX
  5
1D946
  8
0
 10
291.39781817789981
 20
265.16816058585169
 30
0.0
  0
VERTEX
  5
1D947
  8
0
 10
291.38688072559989
 20
265.14536180925171
 30
0.0
  0
VERTEX
  5
1D948
  8
0
 10
291.47049114110001
 20
265.12478889355168
 30
0.0
  0
VERTEX
  5
1D949
  8
0
 10
291.64902195329978
 20
265.10642693765169
 30
0.0
  0
VERTEX
  5
1D94A
  8
0
 10
291.8757729231998
 20
265.09179772265168
 30
0.0
  0
VERTEX
  5
1D94B
  8
0
 10
292.15181693429992
 20
265.0781016928517
 30
0.0
  0
VERTEX
  5
1D94C
  8
0
 10
292.22657605999979
 20
265.07488490475168
 30
0.0
  0
SEQEND
  5
1D94D
  8
0
  0
POLYLINE
  5
1BB37
  8
0
 66
     1
 10
0.0
 20
0.0
 30
0.0
 70
   128
  0
VERTEX
  5
1D94E
  8
0
 10
287.08044514059981
 20
266.3578134162517
 30
0.0
  0
VERTEX
  5
1D94F
  8
0
 10
287.4177105724998
 20
266.36864469775162
 30
0.0
  0
VERTEX
  5
1D950
  8
0
 10
287.67012879249978
 20
266.42216966875168
 30
0.0
  0
VERTEX
  5
1D951
  8
0
 10
287.85635605449988
 20
266.51658156345172
 30
0.0
  0
VERTEX
  5
1D952
  8
0
 10
287.94831112029988
 20
266.63402506545162
 30
0.0
  0
VERTEX
  5
1D953
  8
0
 10
287.95214071869992
 20
266.7797844989517
 30
0.0
  0
VERTEX
  5
1D954
  8
0
 10
287.85653486849992
 20
266.92593136265168
 30
0.0
  0
VERTEX
  5
1D955
  8
0
 10
287.68473193049982
 20
267.05382802915182
 30
0.0
  0
VERTEX
  5
1D956
  8
0
 10
287.43267878889992
 20
267.15956853165181
 30
0.0
  0
VERTEX
  5
1D957
  8
0
 10
287.15235814449989
 20
267.21237638425168
 30
0.0
  0
VERTEX
  5
1D958
  8
0
 10
287.10819110269989
 20
267.21582786575169
 30
0.0
  0
VERTEX
  5
1D959
  8
0
 10
286.77034452559968
 20
267.1994552148517
 30
0.0
  0
VERTEX
  5
1D95A
  8
0
 10
286.51821687819978
 20
267.1244390440516
 30
0.0
  0
VERTEX
  5
1D95B
  8
0
 10
286.33948490019998
 20
267.01413506105172
 30
0.0
  0
VERTEX
  5
1D95C
  8
0
 10
286.23522892589989
 20
266.87030160255182
 30
0.0
  0
VERTEX
  5
1D95D
  8
0
 10
286.23483404519988
 20
266.72887840695171
 30
0.0
  0
VERTEX
  5
1D95E
  8
0
 10
286.32611855859977
 20
266.59509950705171
 30
0.0
  0
VERTEX
  5
1D95F
  8
0
 10
286.51130273939998
 20
266.4796695245517
 30
0.0
  0
VERTEX
  5
1D960
  8
0
 10
286.74849197269992
 20
266.40364752545167
 30
0.0
  0
VERTEX
  5
1D961
  8
0
 10
287.03501895069991
 20
266.36070610415169
 30
0.0
  0
VERTEX
  5
1D962
  8
0
 10
287.08044514059981
 20
266.3578134162517
 30
0.0
  0
SEQEND
  5
1D963
  8
0
  0
POLYLINE
  5
1BB38
  8
0
 66
     1
 10
0.0
 20
0.0
 30
0.0
 70
   128
  0
VERTEX
  5
1D964
  8
0
 10
307.58298262949978
 20
268.06021520325169
 30
0.0
  0
VERTEX
  5
1D965
  8
0
 10
307.78276249759989
 20
268.2602334899517
 30
0.0
  0
VERTEX
  5
1D966
  8
0
 10
307.95773193239978
 20
268.49937850065169
 30
0.0
  0
VERTEX
  5
1D967
  8
0
 10
308.08261856429999
 20
268.73838195035171
 30
0.0
  0
VERTEX
  5
1D968
  8
0
 10
308.15795883530001
 20
268.97960939835173
 30
0.0
  0
VERTEX
  5
1D969
  8
0
 10
308.16159471869992
 20
269.16657054255171
 30
0.0
  0
VERTEX
  5
1D96A
  8
0
 10
308.10161754489991
 20
269.28643175795168
 30
0.0
  0
VERTEX
  5
1D96B
  8
0
 10
307.97839984299981
 20
269.32925769515168
 30
0.0
  0
VERTEX
  5
1D96C
  8
0
 10
307.82180354000002
 20
269.28577238155168
 30
0.0
  0
VERTEX
  5
1D96D
  8
0
 10
307.63237997890002
 20
269.16537099905167
 30
0.0
  0
VERTEX
  5
1D96E
  8
0
 10
307.5541339813999
 20
269.09884849025173
 30
0.0
  0
SEQEND
  5
1D96F
  8
0
  0
POLYLINE
  5
1BB39
  8
0
 66
     1
 10
0.0
 20
0.0
 30
0.0
 70
   128
  0
VERTEX
  5
1D970
  8
0
 10
307.5541339813999
 20
269.09884849025173
 30
0.0
  0
VERTEX
  5
1D971
  8
0
 10
307.31759294869988
 20
268.84096154405159
 30
0.0
  0
VERTEX
  5
1D972
  8
0
 10
307.14396461839988
 20
268.58669930525173
 30
0.0
  0
VERTEX
  5
1D973
  8
0
 10
307.02305659649983
 20
268.33742150495169
 30
0.0
  0
VERTEX
  5
1D974
  8
0
 10
306.96676000949992
 20
268.13228839465171
 30
0.0
  0
VERTEX
  5
1D975
  8
0
 10
306.97155818339979
 20
267.95914807745169
 30
0.0
  0
VERTEX
  5
1D976
  8
0
 10
307.04661533230001
 20
267.86308029125161
 30
0.0
  0
VERTEX
  5
1D977
  8
0
 10
307.17405006289982
 20
267.84405523365172
 30
0.0
  0
VERTEX
  5
1D978
  8
0
 10
307.3577366769
 20
267.90493020245168
 30
0.0
  0
VERTEX
  5
1D979
  8
0
 10
307.58298262949978
 20
268.06021520325169
 30
0.0
  0
SEQEND
  5
1D97A
  8
0
  0
POLYLINE
  5
1BB3A
  8
0
 66
     1
 10
0.0
 20
0.0
 30
0.0
 70
   128
  0
VERTEX
  5
1D97B
  8
0
 10
279.3070755898998
 20
268.26655530765169
 30
0.0
  0
VERTEX
  5
1D97C
  8
0
 10
279.62002977729981
 20
268.28914919325172
 30
0.0
  0
VERTEX
  5
1D97D
  8
0
 10
279.87182959909978
 20
268.37695428565161
 30
0.0
  0
VERTEX
  5
1D97E
  8
0
 10
280.07247373460001
 20
268.53253358435171
 30
0.0
  0
VERTEX
  5
1D97F
  8
0
 10
280.17987385389978
 20
268.72443446345181
 30
0.0
  0
VERTEX
  5
1D980
  8
0
 10
280.19996806979998
 20
268.95493307545172
 30
0.0
  0
VERTEX
  5
1D981
  8
0
 10
280.11930063359978
 20
269.18446311185181
 30
0.0
  0
VERTEX
  5
1D982
  8
0
 10
279.95999976989992
 20
269.37998124785167
 30
0.0
  0
VERTEX
  5
1D983
  8
0
 10
279.71912249919978
 20
269.53920388055172
 30
0.0
  0
VERTEX
  5
1D984
  8
0
 10
279.44389805199989
 20
269.61847805805172
 30
0.0
  0
VERTEX
  5
1D985
  8
0
 10
279.372305423
 20
269.62595471575167
 30
0.0
  0
VERTEX
  5
1D986
  8
0
 10
279.05877754089988
 20
269.59958711095169
 30
0.0
  0
VERTEX
  5
1D987
  8
0
 10
278.79984006279977
 20
269.48771291805173
 30
0.0
  0
VERTEX
  5
1D988
  8
0
 10
278.61164584749991
 20
269.32139733265171
 30
0.0
  0
VERTEX
  5
1D989
  8
0
 10
278.4914679824999
 20
269.09890064425173
 30
0.0
  0
VERTEX
  5
1D98A
  8
0
 10
278.47556099289977
 20
268.8736099881516
 30
0.0
  0
VERTEX
  5
1D98B
  8
0
 10
278.5520337521998
 20
268.6602998657516
 30
0.0
  0
VERTEX
  5
1D98C
  8
0
 10
278.72360572219992
 20
268.47142764755182
 30
0.0
  0
VERTEX
  5
1D98D
  8
0
 10
278.95443215959989
 20
268.34407487345169
 30
0.0
  0
VERTEX
  5
1D98E
  8
0
 10
279.23678681249982
 20
268.2730298621517
 30
0.0
  0
VERTEX
  5
1D98F
  8
0
 10
279.3070755898998
 20
268.26655530765169
 30
0.0
  0
SEQEND
  5
1D990
  8
0
  0
POLYLINE
  5
1BB3B
  8
0
 66
     1
 10
0.0
 20
0.0
 30
0.0
 70
   128
  0
VERTEX
  5
1D991
  8
0
 10
276.64154842489978
 20
266.89825431835169
 30
0.0
  0
VERTEX
  5
1D992
  8
0
 10
276.97799429299999
 20
266.91372917425173
 30
0.0
  0
VERTEX
  5
1D993
  8
0
 10
277.22540572279991
 20
266.9744644446518
 30
0.0
  0
VERTEX
  5
1D994
  8
0
 10
277.4139277636998
 20
267.0806855095517
 30
0.0
  0
VERTEX
  5
1D995
  8
0
 10
277.5095708668
 20
267.21338593795173
 30
0.0
  0
VERTEX
  5
1D996
  8
0
 10
277.51547172660003
 20
267.37570801205158
 30
0.0
  0
VERTEX
  5
1D997
  8
0
 10
277.42085680359992
 20
267.53687897155169
 30
0.0
  0
VERTEX
  5
1D998
  8
0
 10
277.24886760109979
 20
267.67631658745171
 30
0.0
  0
VERTEX
  5
1D999
  8
0
 10
276.99684426189992
 20
267.7886974198517
 30
0.0
  0
VERTEX
  5
1D99A
  8
0
 10
276.7194293439
 20
267.84186476305172
 30
0.0
  0
VERTEX
  5
1D99B
  8
0
 10
276.6764245926999
 20
267.84497910565159
 30
0.0
  0
VERTEX
  5
1D99C
  8
0
 10
276.33939757939987
 20
267.82317125625173
 30
0.0
  0
VERTEX
  5
1D99D
  8
0
 10
276.08808949590002
 20
267.73895734375168
 30
0.0
  0
VERTEX
  5
1D99E
  8
0
 10
275.90959593650001
 20
267.61746445125181
 30
0.0
  0
VERTEX
  5
1D99F
  8
0
 10
275.8033134042999
 20
267.45906883305167
 30
0.0
  0
VERTEX
  5
1D9A0
  8
0
 10
275.80075040460002
 20
267.30253958535172
 30
0.0
  0
VERTEX
  5
1D9A1
  8
0
 10
275.89119300239992
 20
267.15499760045168
 30
0.0
  0
VERTEX
  5
1D9A2
  8
0
 10
276.07581093909988
 20
267.02879780365163
 30
0.0
  0
VERTEX
  5
1D9A3
  8
0
 10
276.3138644396999
 20
266.94592313295158
 30
0.0
  0
VERTEX
  5
1D9A4
  8
0
 10
276.60158351059999
 20
266.90069997145167
 30
0.0
  0
VERTEX
  5
1D9A5
  8
0
 10
276.64154842489978
 20
266.89825431835169
 30
0.0
  0
SEQEND
  5
1D9A6
  8
0
  0
POLYLINE
  5
1BB3C
  8
0
 66
     1
 10
0.0
 20
0.0
 30
0.0
 70
   128
  0
VERTEX
  5
1D9A7
  8
0
 10
294.98443827030002
 20
267.24373774065168
 30
0.0
  0
VERTEX
  5
1D9A8
  8
0
 10
295.28606757519992
 20
267.2611683739517
 30
0.0
  0
VERTEX
  5
1D9A9
  8
0
 10
295.54922208189993
 20
267.34055803545158
 30
0.0
  0
VERTEX
  5
1D9AA
  8
0
 10
295.7445167004999
 20
267.4799081070517
 30
0.0
  0
VERTEX
  5
1D9AB
  8
0
 10
295.84006294609981
 20
267.64328071305169
 30
0.0
  0
VERTEX
  5
1D9AC
  8
0
 10
295.85740789769989
 20
267.84440541095171
 30
0.0
  0
VERTEX
  5
1D9AD
  8
0
 10
295.77671810980002
 20
268.05688479375169
 30
0.0
  0
VERTEX
  5
1D9AE
  8
0
 10
295.61656042929991
 20
268.23866033385173
 30
0.0
  0
VERTEX
  5
1D9AF
  8
0
 10
295.37571296089982
 20
268.38949733805168
 30
0.0
  0
VERTEX
  5
1D9B0
  8
0
 10
295.08521482349988
 20
268.4726495427517
 30
0.0
  0
VERTEX
  5
1D9B1
  8
0
 10
294.99381110069999
 20
268.48218256065172
 30
0.0
  0
VERTEX
  5
1D9B2
  8
0
 10
294.6913473308
 20
268.45986062115162
 30
0.0
  0
VERTEX
  5
1D9B3
  8
0
 10
294.4338701664999
 20
268.35810804195171
 30
0.0
  0
VERTEX
  5
1D9B4
  8
0
 10
294.25028786059988
 20
268.20853018595182
 30
0.0
  0
VERTEX
  5
1D9B5
  8
0
 10
294.13225576280001
 20
268.0076401812517
 30
0.0
  0
VERTEX
  5
1D9B6
  8
0
 10
294.11821886899997
 20
267.80597531625159
 30
0.0
  0
VERTEX
  5
1D9B7
  8
0
 10
294.19203922149973
 20
267.61902907325168
 30
0.0
  0
VERTEX
  5
1D9B8
  8
0
 10
294.36069056389988
 20
267.44479724595169
 30
0.0
  0
VERTEX
  5
1D9B9
  8
0
 10
294.59814056749991
 20
267.32161865955158
 30
0.0
  0
VERTEX
  5
1D9BA
  8
0
 10
294.88512203099981
 20
267.25260020625171
 30
0.0
  0
VERTEX
  5
1D9BB
  8
0
 10
294.98443827030002
 20
267.24373774065168
 30
0.0
  0
SEQEND
  5
1D9BC
  8
0
  0
POLYLINE
  5
1BB3D
  8
0
 66
     1
 10
0.0
 20
0.0
 30
0.0
 70
   128
  0
VERTEX
  5
1D9BD
  8
0
 10
289.73773941399992
 20
267.57350230045159
 30
0.0
  0
VERTEX
  5
1D9BE
  8
0
 10
290.04884585739978
 20
267.5903741402517
 30
0.0
  0
VERTEX
  5
1D9BF
  8
0
 10
290.30805155629992
 20
267.67126509375169
 30
0.0
  0
VERTEX
  5
1D9C0
  8
0
 10
290.50303325059991
 20
267.81439447235181
 30
0.0
  0
VERTEX
  5
1D9C1
  8
0
 10
290.60108289119989
 20
267.98542254995169
 30
0.0
  0
VERTEX
  5
1D9C2
  8
0
 10
290.61915799969989
 20
268.19705256655158
 30
0.0
  0
VERTEX
  5
1D9C3
  8
0
 10
290.53836390369997
 20
268.41732898185171
 30
0.0
  0
VERTEX
  5
1D9C4
  8
0
 10
290.3769694268999
 20
268.60754230445173
 30
0.0
  0
VERTEX
  5
1D9C5
  8
0
 10
290.13504907489983
 20
268.76302847095172
 30
0.0
  0
VERTEX
  5
1D9C6
  8
0
 10
289.85371515149973
 20
268.8443664593517
 30
0.0
  0
VERTEX
  5
1D9C7
  8
0
 10
289.7778980434
 20
268.8527669889516
 30
0.0
  0
VERTEX
  5
1D9C8
  8
0
 10
289.46591243149987
 20
268.8306648416517
 30
0.0
  0
VERTEX
  5
1D9C9
  8
0
 10
289.20935913919988
 20
268.72652435135171
 30
0.0
  0
VERTEX
  5
1D9CA
  8
0
 10
289.0256129204999
 20
268.57255810335158
 30
0.0
  0
VERTEX
  5
1D9CB
  8
0
 10
288.90726789829978
 20
268.3649402243517
 30
0.0
  0
VERTEX
  5
1D9CC
  8
0
 10
288.89193460339987
 20
268.15358960455171
 30
0.0
  0
VERTEX
  5
1D9CD
  8
0
 10
288.96784111859978
 20
267.95369052715171
 30
0.0
  0
VERTEX
  5
1D9CE
  8
0
 10
289.1397856175999
 20
267.77370312645172
 30
0.0
  0
VERTEX
  5
1D9CF
  8
0
 10
289.37184140079989
 20
267.65151732995167
 30
0.0
  0
VERTEX
  5
1D9D0
  8
0
 10
289.65441212059977
 20
267.58163088395168
 30
0.0
  0
VERTEX
  5
1D9D1
  8
0
 10
289.73773941399992
 20
267.57350230045159
 30
0.0
  0
SEQEND
  5
1D9D2
  8
0
  0
POLYLINE
  5
1BB3E
  8
0
 66
     1
 10
0.0
 20
0.0
 30
0.0
 70
   128
  0
VERTEX
  5
1D9D3
  8
0
 10
284.51874926679989
 20
267.92953947015172
 30
0.0
  0
VERTEX
  5
1D9D4
  8
0
 10
284.83112230900002
 20
267.94937664105169
 30
0.0
  0
VERTEX
  5
1D9D5
  8
0
 10
285.08458361029989
 20
268.03333350845168
 30
0.0
  0
VERTEX
  5
1D9D6
  8
0
 10
285.28317138549983
 20
268.18269902295162
 30
0.0
  0
VERTEX
  5
1D9D7
  8
0
 10
285.38748696439978
 20
268.36562940305168
 30
0.0
  0
VERTEX
  5
1D9D8
  8
0
 10
285.40685102339989
 20
268.58813726735173
 30
0.0
  0
VERTEX
  5
1D9D9
  8
0
 10
285.3262580930998
 20
268.81282070115162
 30
0.0
  0
VERTEX
  5
1D9DA
  8
0
 10
285.16596630209978
 20
269.00573858445171
 30
0.0
  0
VERTEX
  5
1D9DB
  8
0
 10
284.92479845879978
 20
269.16286387875181
 30
0.0
  0
VERTEX
  5
1D9DC
  8
0
 10
284.64794233439989
 20
269.24259254165167
 30
0.0
  0
VERTEX
  5
1D9DD
  8
0
 10
284.57439765329991
 20
269.25049015715172
 30
0.0
  0
VERTEX
  5
1D9DE
  8
0
 10
284.26134660839989
 20
269.22620871495172
 30
0.0
  0
VERTEX
  5
1D9DF
  8
0
 10
284.00283381339977
 20
269.11816784575171
 30
0.0
  0
VERTEX
  5
1D9E0
  8
0
 10
283.81555601950009
 20
268.95718687605159
 30
0.0
  0
VERTEX
  5
1D9E1
  8
0
 10
283.69657769799983
 20
268.74176451395169
 30
0.0
  0
VERTEX
  5
1D9E2
  8
0
 10
283.68156477809998
 20
268.52426343985161
 30
0.0
  0
VERTEX
  5
1D9E3
  8
0
 10
283.75826850529978
 20
268.31714474985171
 30
0.0
  0
VERTEX
  5
1D9E4
  8
0
 10
283.9303843676999
 20
268.13238525225159
 30
0.0
  0
VERTEX
  5
1D9E5
  8
0
 10
284.1625668108
 20
268.00702923365168
 30
0.0
  0
VERTEX
  5
1D9E6
  8
0
 10
284.44562181830003
 20
267.93646851015171
 30
0.0
  0
VERTEX
  5
1D9E7
  8
0
 10
284.51874926679989
 20
267.92953947015172
 30
0.0
  0
SEQEND
  5
1D9E8
  8
0
  0
POLYLINE
  5
1BB3F
  8
0
 66
     1
 10
0.0
 20
0.0
 30
0.0
 70
   128
  0
VERTEX
  5
1D9E9
  8
0
 10
305.43064400549969
 20
268.27186012095171
 30
0.0
  0
VERTEX
  5
1D9EA
  8
0
 10
305.67560419440002
 20
268.44384559825181
 30
0.0
  0
VERTEX
  5
1D9EB
  8
0
 10
305.87733611459998
 20
268.67100262475168
 30
0.0
  0
VERTEX
  5
1D9EC
  8
0
 10
306.01481422779989
 20
268.93902608585159
 30
0.0
  0
VERTEX
  5
1D9ED
  8
0
 10
306.06148466469989
 20
269.19095256755168
 30
0.0
  0
VERTEX
  5
1D9EE
  8
0
 10
306.02311417459993
 20
269.42746007275173
 30
0.0
  0
VERTEX
  5
1D9EF
  8
0
 10
305.89947924019998
 20
269.60337945655169
 30
0.0
  0
VERTEX
  5
1D9F0
  8
0
 10
305.71787878869992
 20
269.69960743025172
 30
0.0
  0
VERTEX
  5
1D9F1
  8
0
 10
305.47902807589981
 20
269.71362569755172
 30
0.0
  0
VERTEX
  5
1D9F2
  8
0
 10
305.23934289809989
 20
269.63696294855168
 30
0.0
  0
VERTEX
  5
1D9F3
  8
0
 10
305.17437383529978
 20
269.60253009035171
 30
0.0
  0
VERTEX
  5
1D9F4
  8
0
 10
304.93239387869988
 20
269.42054965925172
 30
0.0
  0
VERTEX
  5
1D9F5
  8
0
 10
304.73514720799989
 20
269.18098369075182
 30
0.0
  0
VERTEX
  5
1D9F6
  8
0
 10
304.6065948902999
 20
268.92138683625171
 30
0.0
  0
VERTEX
  5
1D9F7
  8
0
 10
304.55472394819981
 20
268.65442508295172
 30
0.0
  0
VERTEX
  5
1D9F8
  8
0
 10
304.59108278149978
 20
268.43590327925159
 30
0.0
  0
VERTEX
  5
1D9F9
  8
0
 10
304.70574721689991
 20
268.26733016795163
 30
0.0
  0
VERTEX
  5
1D9FA
  8
0
 10
304.8960499465
 20
268.17286425665168
 30
0.0
  0
VERTEX
  5
1D9FB
  8
0
 10
305.11427745219999
 20
268.16731357405172
 30
0.0
  0
VERTEX
  5
1D9FC
  8
0
 10
305.36481067539989
 20
268.23985615205157
 30
0.0
  0
VERTEX
  5
1D9FD
  8
0
 10
305.43064400549969
 20
268.27186012095171
 30
0.0
  0
SEQEND
  5
1D9FE
  8
0
  0
ARC
  5
1BB40
  8
0
 10
344.2791801465678
 20
350.91708179628392
 30
0.0
 40
116.19823830009661
 50
224.9465476123853
 51
226.7580653679274
  0
POLYLINE
  5
1BB42
  8
0
 66
     1
 10
0.0
 20
0.0
 30
0.0
 70
   128
  0
VERTEX
  5
1D9FF
  8
0
 10
265.75857475399988
 20
266.25250877275158
 30
0.0
  0
VERTEX
  5
1DA00
  8
0
 10
266.16423651569988
 20
266.34960287645168
 30
0.0
  0
VERTEX
  5
1DA01
  8
0
 10
266.66839495300002
 20
266.51640274955167
 30
0.0
  0
VERTEX
  5
1DA02
  8
0
 10
267.3389844596
 20
266.71282799375172
 30
0.0
  0
VERTEX
  5
1DA03
  8
0
 10
267.77644529939988
 20
266.78109021315157
 30
0.0
  0
VERTEX
  5
1DA04
  8
0
 10
268.0198855697999
 20
266.79085233635169
 30
0.0
  0
VERTEX
  5
1DA05
  8
0
 10
268.26839968559989
 20
266.77906179255172
 30
0.0
  0
VERTEX
  5
1DA06
  8
0
 10
268.50684061639981
 20
266.74581730195172
 30
0.0
  0
VERTEX
  5
1DA07
  8
0
 10
268.72545555229999
 20
266.69492983645171
 30
0.0
  0
VERTEX
  5
1DA08
  8
0
 10
269.09001246090003
 20
266.56748020485168
 30
0.0
  0
VERTEX
  5
1DA09
  8
0
 10
269.60308924319997
 20
266.31241516605172
 30
0.0
  0
VERTEX
  5
1DA0A
  8
0
 10
270.22158429019993
 20
266.03351199455159
 30
0.0
  0
SEQEND
  5
1DA0B
  8
0
  0
LINE
  5
1BB69
  8
0
 10
261.86785176389981
 20
269.00050455165172
 30
0.0
 11
262.05000355840002
 21
269.00050455165172
 31
0.0
  0
LINE
  5
1BB6A
  8
0
 10
261.86785176389981
 20
269.00050455165172
 30
0.0
 11
261.86314422621132
 21
269.48051144033138
 31
0.0
  0
ARC
  5
1BB6F
  8
0
 10
264.84014505999988
 20
271.78273586325167
 30
0.0
 40
4.07128217016185
 50
223.1083072651987
 51
226.50662173750109
  0
LINE
  5
1BBAC
  8
0
 10
197.09999933839981
 20
266.48051144033138
 30
0.0
 11
249.31819811459991
 21
266.48051144033138
 31
0.0
  0
LINE
  5
1BBAD
  8
0
 10
192.65985312445309
 20
269.48051187991592
 30
0.0
 11
249.31819811459991
 21
269.48051144033138
 31
0.0
  0
ARC
  5
1BBAE
  8
0
 10
249.31773819259979
 20
270.1939129857314
 30
0.0
 40
3.7134015739239379
 50
270.00709634879718
 51
315.14807914750241
  0
ARC
  5
1BBAF
  8
0
 10
249.31779887479979
 20
270.19449139203141
 30
0.0
 40
0.7139800632965412
 50
270.03203837189062
 51
315.74678035609759
  0
ARC
  5
1BBB1
  8
0
 10
249.11011501599981
 20
270.2169820933313
 30
0.0
 40
0.7364706529753732
 50
270.00025546239959
 51
315.00390313589543
  0
LINE
  5
1BBB2
  8
0
 10
251.32898315790001
 20
271.39450599103128
 30
0.0
 11
249.6309138833999
 21
269.69625417743129
 31
0.0
  0
POLYLINE
  5
1BBB3
  8
0
 66
     1
 10
0.0
 20
0.0
 30
0.0
 70
   128
  0
VERTEX
  5
1DA0C
  8
0
 10
249.82919618490001
 20
269.69625417743129
 30
0.0
  0
VERTEX
  5
1DA0D
  8
0
 10
250.03878101699999
 20
269.90745951083142
 30
0.0
  0
VERTEX
  5
1DA0E
  8
0
 10
250.2487011253998
 20
270.11898149403129
 30
0.0
  0
VERTEX
  5
1DA0F
  8
0
 10
250.4589490591998
 20
270.33080895093133
 30
0.0
  0
VERTEX
  5
1DA10
  8
0
 10
250.66952481859991
 20
270.54294933233132
 30
0.0
  0
VERTEX
  5
1DA11
  8
0
 10
250.88042095299991
 20
270.7553914621314
 30
0.0
  0
VERTEX
  5
1DA12
  8
0
 10
251.0916374623998
 20
270.96813534053138
 30
0.0
  0
VERTEX
  5
1DA13
  8
0
 10
251.30316689609981
 20
271.18117351683128
 30
0.0
  0
VERTEX
  5
1DA14
  8
0
 10
251.5150092541999
 20
271.39450599103128
 30
0.0
  0
SEQEND
  5
1DA15
  8
0
  0
ARC
  5
1BBB6
  8
0
 10
253.97092533529991
 20
268.75290397813143
 30
0.0
 40
3.7360309027462208
 50
93.848210241099821
 51
135.0036739437989
  0
ARC
  5
1BBB7
  8
0
 10
254.1492713845
 20
268.77140219353129
 30
0.0
 40
3.7175284390708212
 50
93.856805089893584
 51
135.12159049090269
  0
ARC
  5
1BBB8
  8
0
 10
254.1202213718943
 20
268.81358429407987
 30
0.0
 40
0.6675371367764664
 50
87.550403596004585
 51
136.48839225637121
  0
LINE
  5
1BBBA
  8
0
 10
254.14875224229991
 20
269.48051144033138
 30
0.0
 11
262.0556886271188
 21
269.48051144033138
 31
0.0
  0
LINE
  5
1BBBD
  8
0
 10
213.3350007235999
 20
278.47810819903128
 30
0.0
 11
213.3350007235999
 21
275.47810584463127
 31
0.0
  0
LINE
  5
1BBC0
  8
0
 10
197.09999933839981
 20
275.48051144033138
 30
0.0
 11
197.09999933839981
 21
278.48051144033138
 31
0.0
  0
LINE
  5
1BBC1
  8
0
 10
199.6189996599999
 20
278.47810819903128
 30
0.0
 11
199.6189996599999
 21
275.47810584463127
 31
0.0
  0
LINE
  5
1BBC7
  8
0
 10
202.95000150799979
 20
284.33250993643128
 30
0.0
 11
202.95000150799979
 21
287.2325105980313
 31
0.0
  0
ARC
  5
1BBC8
  8
0
 10
205.70000083849979
 20
284.33251014933131
 30
0.0
 40
2.75
 50
180.0
 51
0.0
  0
LINE
  5
1BBC9
  8
0
 10
208.45000147819971
 20
287.2325105980313
 30
0.0
 11
208.45000147819971
 21
284.33250993643128
 31
0.0
  0
ARC
  5
1BBCA
  8
0
 10
205.70000083849979
 20
287.23251014933129
 30
0.0
 40
2.75
 50
0.0
 51
180.0
  0
LINE
  5
1BBCB
  8
0
 10
229.14999797939981
 20
284.33250993643128
 30
0.0
 11
229.14999797939981
 21
287.2325105980313
 31
0.0
  0
ARC
  5
1BBCC
  8
0
 10
231.90000083849989
 20
284.33251014933131
 30
0.0
 40
2.75
 50
180.0
 51
0.0
  0
LINE
  5
1BBCD
  8
0
 10
234.65000167489981
 20
287.2325105980313
 30
0.0
 11
234.65000167489981
 21
284.33250993643128
 31
0.0
  0
ARC
  5
1BBCE
  8
0
 10
231.90000083849989
 20
287.23251014933129
 30
0.0
 40
2.75
 50
0.0
 51
180.0
  0
CIRCLE
  5
1BBCF
  8
0
 10
218.8000008384997
 20
287.23251014933129
 30
0.0
 40
2.349999999999993
  0
ARC
  5
1BBD0
  8
0
 10
234.60000083849991
 20
290.03051014933141
 30
0.0
 40
3.0
 50
0.0
 51
90.0
  0
ARC
  5
1BBD1
  8
0
 10
203.0000008385
 20
290.03051014933141
 30
0.0
 40
3.0
 50
90.0
 51
180.0
  0
LINE
  5
1BBD2
  8
0
 10
203.00000235439981
 20
293.0305114403314
 30
0.0
 11
234.60000082849999
 21
293.0305114403314
 31
0.0
  0
LINE
  5
1BBD3
  8
0
 10
237.59999945760001
 20
290.03050908603132
 30
0.0
 11
237.59999945760001
 21
278.48051144033138
 31
0.0
  0
LINE
  5
1BBD4
  8
0
 10
200.0
 20
278.48051144033138
 30
0.0
 11
200.0
 21
290.03050908603132
 31
0.0
  0
LINE
  5
1BBD5
  8
0
 10
228.93267944449991
 20
272.48051144033138
 30
0.0
 11
237.45787963270001
 21
272.48051144033138
 31
0.0
  0
LINE
  5
1BBDB
  8
0
 10
249.31819811459991
 20
275.48051144033138
 30
0.0
 11
192.65985312445309
 21
275.48051193206987
 31
0.0
  0
LINE
  5
1BBDC
  8
0
 10
197.09999933840001
 20
278.48051144033138
 30
0.0
 11
249.31819811459991
 21
278.48051144033138
 31
0.0
  0
ARC
  5
1BBDF
  8
0
 10
249.31781136899991
 20
274.76656108203127
 30
0.0
 40
0.7139504630813613
 50
44.252218284801387
 51
89.968962987200584
  0
ARC
  5
1BBE0
  8
0
 10
249.11011501599981
 20
274.7440407873313
 30
0.0
 40
0.7364706529753438
 50
44.996096864104643
 51
89.999744537600463
  0
POLYLINE
  5
1BBE3
  8
0
 66
     1
 10
0.0
 20
0.0
 30
0.0
 70
   128
  0
VERTEX
  5
1DA16
  8
0
 10
251.5150092541999
 20
273.56651688963132
 30
0.0
  0
VERTEX
  5
1DA17
  8
0
 10
251.30316689609981
 20
273.77984936383132
 30
0.0
  0
VERTEX
  5
1DA18
  8
0
 10
251.0916374623998
 20
273.99288754013139
 30
0.0
  0
VERTEX
  5
1DA19
  8
0
 10
250.88042095299991
 20
274.20563141853142
 30
0.0
  0
VERTEX
  5
1DA1A
  8
0
 10
250.66952481859991
 20
274.41807354833128
 30
0.0
  0
VERTEX
  5
1DA1B
  8
0
 10
250.4589490591998
 20
274.63021392973133
 30
0.0
  0
VERTEX
  5
1DA1C
  8
0
 10
250.2487011253998
 20
274.84204511193138
 30
0.0
  0
VERTEX
  5
1DA1D
  8
0
 10
250.03878101699999
 20
275.05356336983141
 30
0.0
  0
VERTEX
  5
1DA1E
  8
0
 10
249.82919618490001
 20
275.26476870323131
 30
0.0
  0
SEQEND
  5
1DA1F
  8
0
  0
LINE
  5
1BBE4
  8
0
 10
249.6309138833999
 20
275.26476870323131
 30
0.0
 11
251.32898315790001
 21
273.56651688963132
 31
0.0
  0
ARC
  5
1BBE7
  8
0
 10
254.14928031989979
 20
276.18964219013139
 30
0.0
 40
3.717549943424058
 50
224.87854717699861
 51
266.14320575921749
  0
ARC
  5
1BBE8
  8
0
 10
253.97092533529991
 20
276.2081189025314
 30
0.0
 40
3.7360309027462208
 50
224.9963260562009
 51
266.15178975890018
  0
LINE
  5
1BBEC
  8
0
 10
228.93267944449991
 20
272.48051144033138
 30
0.0
 11
192.65985419701681
 21
272.48051144033138
 31
0.0
  0
LINE
  5
1BC27
  8
0
 10
213.3350007235999
 20
269.4837076977314
 30
0.0
 11
213.3350007235999
 21
266.4837072060314
 31
0.0
  0
LINE
  5
1BC29
  8
0
 10
197.09999933839981
 20
266.48051144033138
 30
0.0
 11
197.09999933839981
 21
269.48051193203128
 31
0.0
  0
LINE
  5
1BC2A
  8
0
 10
199.6189996599999
 20
269.48051193203128
 30
0.0
 11
199.6189996599999
 21
266.48051144033138
 31
0.0
  0
ARC
  5
1BC2F
  8
0
 10
234.60000083849991
 20
254.9313028013313
 30
0.0
 40
3.0
 50
270.0
 51
0.0
  0
LINE
  5
1BC30
  8
0
 10
234.60000082849999
 20
251.93130210193129
 30
0.0
 11
203.00000235439981
 21
251.93130210193129
 31
0.0
  0
ARC
  5
1BC31
  8
0
 10
203.0000008385
 20
254.9313028013313
 30
0.0
 40
3.0
 50
180.0
 51
270.0
  0
LINE
  5
1BC32
  8
0
 10
202.95000150799979
 20
260.62930360593128
 30
0.0
 11
202.95000150799979
 21
257.72930294433132
 31
0.0
  0
ARC
  5
1BC33
  8
0
 10
205.70000083849979
 20
257.7293028013313
 30
0.0
 40
2.75
 50
180.0
 51
0.0
  0
LINE
  5
1BC34
  8
0
 10
208.45000147819971
 20
257.72930294433132
 30
0.0
 11
208.45000147819971
 21
260.62930360593128
 31
0.0
  0
ARC
  5
1BC35
  8
0
 10
205.70000083849979
 20
260.62930280133128
 30
0.0
 40
2.75
 50
0.0
 51
180.0
  0
LINE
  5
1BC36
  8
0
 10
229.14999797939981
 20
260.62930360593128
 30
0.0
 11
229.14999797939981
 21
257.72930294433132
 31
0.0
  0
ARC
  5
1BC37
  8
0
 10
231.90000083849989
 20
257.7293028013313
 30
0.0
 40
2.75
 50
180.0
 51
0.0
  0
LINE
  5
1BC38
  8
0
 10
234.65000167489981
 20
257.72930294433132
 30
0.0
 11
234.65000167489981
 21
260.62930360593128
 31
0.0
  0
ARC
  5
1BC39
  8
0
 10
231.90000083849989
 20
260.62930280133128
 30
0.0
 40
2.75
 50
0.0
 51
180.0
  0
CIRCLE
  5
1BC3A
  8
0
 10
218.8000008384997
 20
257.7293028013313
 30
0.0
 40
2.349999999999993
  0
LINE
  5
1BC3B
  8
0
 10
237.59999945760001
 20
266.48051144033138
 30
0.0
 11
237.59999945760001
 21
254.93130259373129
 31
0.0
  0
LINE
  5
1BC3C
  8
0
 10
200.0
 20
254.93130259373129
 30
0.0
 11
200.0
 21
266.48051144033138
 31
0.0
  0
POLYLINE
  5
1BC43
  8
0
 66
     1
 10
0.0
 20
0.0
 30
0.0
 70
   128
  0
VERTEX
  5
1DA20
  8
0
 10
263.91081586479982
 20
272.48049938505181
 30
0.0
  0
VERTEX
  5
1DA21
  8
0
 10
263.91311064359979
 20
271.46159523555173
 30
0.0
  0
VERTEX
  5
1DA22
  8
0
 10
263.94049897790001
 20
270.49014755915181
 30
0.0
  0
VERTEX
  5
1DA23
  8
0
 10
263.99812921879987
 20
269.59963553975172
 30
0.0
  0
VERTEX
  5
1DA24
  8
0
 10
264.08185139299979
 20
268.80955734685182
 30
0.0
  0
VERTEX
  5
1DA25
  8
0
 10
264.32193890209987
 20
267.56498256155169
 30
0.0
  0
VERTEX
  5
1DA26
  8
0
 10
264.66523930429997
 20
266.74537771775169
 30
0.0
  0
VERTEX
  5
1DA27
  8
0
 10
265.1305131613999
 20
266.31593184005169
 30
0.0
  0
VERTEX
  5
1DA28
  8
0
 10
265.75857475399988
 20
266.25250877275158
 30
0.0
  0
SEQEND
  5
1DA29
  8
0
  0
POLYLINE
  5
1BC44
  8
0
 66
     1
 10
0.0
 20
0.0
 30
0.0
 70
   128
  0
VERTEX
  5
1DA2A
  8
0
 10
270.22158429019993
 20
266.03351199455159
 30
0.0
  0
VERTEX
  5
1DA2B
  8
0
 10
270.59333100909998
 20
266.14025646275172
 30
0.0
  0
VERTEX
  5
1DA2C
  8
0
 10
270.83884254099991
 20
266.63140059835172
 30
0.0
  0
VERTEX
  5
1DA2D
  8
0
 10
271.00190594790001
 20
267.51605087345172
 30
0.0
  0
VERTEX
  5
1DA2E
  8
0
 10
271.10612466929979
 20
268.8050720972517
 30
0.0
  0
VERTEX
  5
1DA2F
  8
0
 10
271.14253565669992
 20
269.60561090535168
 30
0.0
  0
VERTEX
  5
1DA30
  8
0
 10
271.17078080769988
 20
270.5020498616517
 30
0.0
  0
VERTEX
  5
1DA31
  8
0
 10
271.19001820679978
 20
271.47001439165172
 30
0.0
  0
VERTEX
  5
1DA32
  8
0
 10
271.20852544899981
 20
272.48052173685181
 30
0.0
  0
SEQEND
  5
1DA33
  8
0
  0
ARC
  5
1BC51
  8
0
 10
-2.7445917695001749
 20
272.37669554195168
 30
0.0
 40
264.81611805265658
 50
359.26950543349869
 51
0.0224614825002393
  0
POLYLINE
  5
1BC54
  8
0
 66
     1
 10
0.0
 20
0.0
 30
0.0
 70
   128
  0
VERTEX
  5
1DA34
  8
0
 10
264.2635785042998
 20
272.4805105609517
 30
0.0
  0
VERTEX
  5
1DA35
  8
0
 10
264.26546350119997
 20
271.62527704075171
 30
0.0
  0
VERTEX
  5
1DA36
  8
0
 10
264.29265066980003
 20
270.8046477420516
 30
0.0
  0
VERTEX
  5
1DA37
  8
0
 10
264.4321925937997
 20
269.37959754295167
 30
0.0
  0
VERTEX
  5
1DA38
  8
0
 10
264.66614827509989
 20
268.3072727305518
 30
0.0
  0
VERTEX
  5
1DA39
  8
0
 10
264.9965517222999
 20
267.5851363820517
 30
0.0
  0
VERTEX
  5
1DA3A
  8
0
 10
265.43689593669978
 20
267.18741135135173
 30
0.0
  0
VERTEX
  5
1DA3B
  8
0
 10
265.7913796602997
 20
267.0945920182516
 30
0.0
  0
SEQEND
  5
1DA3C
  8
0
  0
POLYLINE
  5
1BC55
  8
0
 66
     1
 10
0.0
 20
0.0
 30
0.0
 70
   128
  0
VERTEX
  5
1DA3D
  8
0
 10
270.0535662471998
 20
266.90715776215171
 30
0.0
  0
VERTEX
  5
1DA3E
  8
0
 10
270.34555450079978
 20
267.03248770365173
 30
0.0
  0
VERTEX
  5
1DA3F
  8
0
 10
270.57859376070002
 20
267.47853161225169
 30
0.0
  0
VERTEX
  5
1DA40
  8
0
 10
270.73754444719998
 20
268.25058498805168
 30
0.0
  0
VERTEX
  5
1DA41
  8
0
 10
270.84414735429982
 20
269.36082207985169
 30
0.0
  0
VERTEX
  5
1DA42
  8
0
 10
270.91337814929989
 20
270.8039995415516
 30
0.0
  0
VERTEX
  5
1DA43
  8
0
 10
270.93428447839977
 20
271.62718438935173
 30
0.0
  0
VERTEX
  5
1DA44
  8
0
 10
270.95323875539998
 20
272.48052918745168
 30
0.0
  0
SEQEND
  5
1DA45
  8
0
  0
LINE
  5
1BC97
  8
0
 10
73.195895820799933
 20
180.0802038983
 30
0.0
 11
73.001702025499753
 21
180.66920395939999
 31
0.0
  0
ARC
  5
1BCA9
  8
0
 10
73.950790661499923
 20
173.66920359
 30
0.0
 40
0.5
 50
0.0
 51
90.0
  0
ARC
  5
1BCAA
  8
0
 10
73.950790661499923
 20
168.16920359
 30
0.0
 40
0.5
 50
270.0
 51
0.0
  0
ARC
  5
1BCAD
  8
0
 10
72.950790661499923
 20
173.66920359
 30
0.0
 40
0.5
 50
90.0
 51
180.0
  0
ARC
  5
1BCAE
  8
0
 10
72.950790661499923
 20
168.16920359
 30
0.0
 40
0.5
 50
180.0
 51
270.0
  0
LINE
  5
1BCAF
  8
0
 10
72.950790944099936
 20
167.66920369120001
 30
0.0
 11
73.950791107999976
 21
167.66920369120001
 31
0.0
  0
LINE
  5
1BCB0
  8
0
 10
73.950791107999976
 20
174.1692038253
 30
0.0
 11
72.950790944099936
 21
174.1692038253
 31
0.0
  0
ARC
  5
1BCB3
  8
0
 10
73.950790989299776
 20
179.5802047032
 30
0.0
 40
0.5
 50
0.0
 51
90.0
  0
ARC
  5
1BCB4
  8
0
 10
73.950790661499923
 20
174.0802047032
 30
0.0
 40
0.5000000000000079
 50
335.7322613029998
 51
0.0
  0
ARC
  5
1BCB7
  8
0
 10
72.950790989299776
 20
179.5802047032
 30
0.0
 40
0.5
 50
90.0
 51
113.5781803642941
  0
ARC
  5
1BCB8
  8
0
 10
72.950790661499923
 20
174.0802047032
 30
0.0
 40
0.5
 50
180.0
 51
204.2677386970002
  0
LINE
  5
1BCB9
  8
0
 10
73.950791435799829
 20
180.0802038983
 30
0.0
 11
72.950791271899774
 21
180.0802038983
 31
0.0
  0
ARC
  5
1BCBB
  8
0
 10
73.950790661499923
 20
166.36920359000001
 30
0.0
 40
0.5
 50
0.0
 51
90.0
  0
ARC
  5
1BCBC
  8
0
 10
73.950790661499923
 20
160.86920359000001
 30
0.0
 40
0.5
 50
270.0
 51
0.0
  0
ARC
  5
1BCBF
  8
0
 10
72.950790661499923
 20
166.36920359000001
 30
0.0
 40
0.5
 50
90.0
 51
180.0
  0
LINE
  5
1BCC0
  8
0
 10
73.023307263312901
 20
160.3652037689267
 30
0.0
 11
73.950791107999976
 21
160.3652037689267
 31
0.0
  0
LINE
  5
1BCC1
  8
0
 10
73.950791107999976
 20
166.8692036532
 30
0.0
 11
72.950790944099936
 21
166.8692036532
 31
0.0
  0
ARC
  5
1BCC4
  8
0
 10
73.950790989299776
 20
186.66920359
 30
0.0
 40
0.5
 50
0.0
 51
90.0
  0
ARC
  5
1BCC5
  8
0
 10
73.950790989299776
 20
181.16920359
 30
0.0
 40
0.5
 50
270.0
 51
0.0
  0
ARC
  5
1BCC8
  8
0
 10
72.950790989299776
 20
186.66920359
 30
0.0
 40
0.5
 50
90.0
 51
113.5781803642941
  0
ARC
  5
1BCC9
  8
0
 10
72.950790989299776
 20
181.16920359
 30
0.0
 40
0.5000000000000067
 50
246.42181963569391
 51
270.0
  0
LINE
  5
1BCCA
  8
0
 10
72.950791271899774
 20
180.66920395939999
 30
0.0
 11
73.950791435799829
 21
180.66920395939999
 31
0.0
  0
LINE
  5
1BCCB
  8
0
 10
73.950791435799829
 20
187.16920409350001
 30
0.0
 11
72.950791271899774
 21
187.16920409350001
 31
0.0
  0
ARC
  5
1BCCE
  8
0
 10
73.95079139219979
 20
198.18748702560001
 30
0.0
 40
0.5
 50
0.0
 51
90.0
  0
ARC
  5
1BCCF
  8
0
 10
73.95079139219979
 20
192.68748702560001
 30
0.0
 40
0.5
 50
270.0
 51
0.0
  0
ARC
  5
1BCD2
  8
0
 10
72.950791392199775
 20
198.18748702560001
 30
0.0
 40
0.5
 50
90.0
 51
180.0
  0
ARC
  5
1BCD3
  8
0
 10
72.950791392199775
 20
192.68748702560001
 30
0.0
 40
0.5
 50
180.0
 51
270.0
  0
LINE
  5
1BCD4
  8
0
 10
72.950791674799802
 20
192.1874886379
 30
0.0
 11
73.950791838699843
 21
192.1874886379
 31
0.0
  0
LINE
  5
1BCD5
  8
0
 10
73.950791838699843
 20
198.68748690929999
 30
0.0
 11
72.950791674799802
 21
198.68748690929999
 31
0.0
  0
LINE
  5
1BCD9
  8
0
 10
72.450790661499923
 20
201.4746336266
 30
0.0
 11
69.450790661499923
 21
201.4746336266
 31
0.0
  0
LINE
  5
1BCDA
  8
0
 10
63.450793015899762
 20
201.4746336266
 30
0.0
 11
60.450790661499923
 21
201.4746336266
 31
0.0
  0
ARC
  5
1BCE0
  8
0
 10
87.856898772899953
 20
156.66515174349999
 30
0.0
 40
18.814386546637628
 50
143.88772916499809
 51
144.96956582590141
  0
LINE
  5
1BD3B
  8
0
 10
74.450790258599909
 20
168.1698383339259
 30
0.0
 11
74.450790661499923
 21
173.66920359
 31
0.0
  0
LINE
  5
1BD3F
  8
0
 10
74.450790586399762
 20
178.81813328710001
 30
0.0
 11
74.450790989299776
 21
179.5802047032
 31
0.0
  0
LINE
  5
1BD40
  8
0
 10
74.450790258599909
 20
174.08181969079999
 30
0.0
 11
74.450790258599909
 21
175.45099951770629
 31
0.0
  0
LINE
  5
1BD43
  8
0
 10
74.450790661499923
 20
160.86920370032621
 30
0.0
 11
74.450790661499923
 21
166.36920359000001
 31
0.0
  0
LINE
  5
1BD48
  8
0
 10
74.450790586399762
 20
181.1708180233999
 30
0.0
 11
74.450790989299776
 21
186.66920359
 31
0.0
  0
LINE
  5
1BD4B
  8
0
 10
74.450791392199775
 20
192.68748713592609
 30
0.0
 11
74.450790989299776
 21
198.17160870879999
 31
0.0
  0
LINE
  5
1BD4F
  8
0
 10
72.450790661499923
 20
192.67621692270001
 30
0.0
 11
72.450790661499923
 21
201.4746336266
 31
0.0
  0
LINE
  5
1BD53
  8
0
 10
45.900790661499961
 20
150.0
 30
0.0
 11
59.95319661489998
 21
150.0
 31
0.0
  0
LINE
  5
1BD54
  8
0
 10
59.95319661489998
 20
153.0000000261
 30
0.0
 11
45.900790661499961
 21
153.0000000261
 31
0.0
  0
ARC
  5
1BD55
  8
0
 10
59.975684095915199
 20
153.4335217654974
 30
0.0
 40
0.4341045787970764
 50
267.03063557448849
 51
300.7052773933172
  0
ARC
  5
1BD56
  8
0
 10
59.953195626599829
 20
153.49999991679999
 30
0.0
 40
3.5000000000000009
 50
270.0
 51
287.69832393874049
  0
LINE
  5
1BD59
  8
0
 10
45.900790661499961
 20
153.0000000261
 30
0.0
 11
45.900790661499961
 21
150.0
 31
0.0
  0
LINE
  5
1BD5C
  8
0
 10
60.450790661499923
 20
191.45084113254319
 30
0.0
 11
60.450790661499923
 21
201.4746336266
 31
0.0
  0
LINE
  5
1BD63
  8
0
 10
60.153196275199889
 20
177.02738810330001
 30
0.0
 11
60.153196275199889
 21
177.0085437223
 31
0.0
  0
LINE
  5
1BD69
  8
0
 10
60.153196275199889
 20
189.44684099634441
 30
0.0
 11
60.153196275199889
 21
176.94683987875729
 31
0.0
  0
LINE
  5
1BD71
  8
0
 10
72.747596248899981
 20
177.0085437223
 30
0.0
 11
72.747596248899981
 21
177.02738810330001
 31
0.0
  0
LINE
  5
1BD75
  8
0
 10
72.747596248899981
 20
189.44684099634441
 30
0.0
 11
72.747596248900209
 21
176.94683987875729
 31
0.0
  0
LINE
  5
1BD77
  8
0
 10
72.45078993080007
 20
161.79649827579939
 30
0.0
 11
72.450789930800283
 21
174.9468395509318
 31
0.0
  0
LINE
  5
1BD78
  8
0
 10
86.999999999999773
 20
150.0
 30
0.0
 11
86.999999999999773
 21
153.0000000261
 31
0.0
  0
ARC
  5
1BD7B
  8
0
 10
72.9250497158271
 20
153.43313055067199
 30
0.0
 40
0.4337169378196279
 50
239.37945130207541
 51
272.97978733691809
  0
ARC
  5
1BD7C
  8
0
 10
72.947595626599863
 20
153.49999991679999
 30
0.0
 40
3.5
 50
252.311516069475
 51
270.0
  0
LINE
  5
1BD7D
  8
0
 10
72.94759590919989
 20
150.0
 30
0.0
 11
87.0
 21
150.0
 31
0.0
  0
LINE
  5
1BD7E
  8
0
 10
87.0
 20
153.0000000261
 30
0.0
 11
72.94759590919989
 21
153.0000000261
 31
0.0
  0
ARC
  5
1BDB1
  8
0
 10
380.54537914706611
 20
178.3563143750053
 30
0.0
 40
7.174644941983626
 50
35.251087843358
 51
90.075069777601755
  0
ARC
  5
1BDB3
  8
0
 10
349.38685250666481
 20
176.8960408558263
 30
0.0
 40
38.658968808877638
 50
347.72340282489102
 51
1.0935265553911291
  0
ARC
  5
1BDC9
  8
0
 10
373.03597955455479
 20
168.16920359
 30
0.0
 40
0.5
 50
180.0
 51
270.0
  0
ARC
  5
1BDCA
  8
0
 10
373.03597955455479
 20
173.66920359
 30
0.0
 40
0.5
 50
155.7322613031026
 51
180.0
  0
ARC
  5
1BDCB
  8
0
 10
374.03597955455479
 20
168.16920359
 30
0.0
 40
0.5
 50
270.0
 51
301.56932898609682
  0
LINE
  5
1BDCD
  8
0
 10
373.03597910805479
 20
167.66920369120001
 30
0.0
 11
374.03597927195477
 21
167.66920369120001
 31
0.0
  0
ARC
  5
1BDCF
  8
0
 10
373.03597955455479
 20
174.0802047032
 30
0.0
 40
0.5
 50
180.0
 51
270.0
  0
ARC
  5
1BDD0
  8
0
 10
373.03597955455479
 20
179.5802047032
 30
0.0
 40
0.5
 50
90.0
 51
180.0
  0
LINE
  5
1BDD1
  8
0
 10
373.45460311104688
 20
180.0802038983
 30
0.0
 11
373.03597910805479
 21
180.0802038983
 31
0.0
  0
ARC
  5
1BDD4
  8
0
 10
373.03597955455479
 20
160.86920359000001
 30
0.0
 40
0.5
 50
180.0
 51
270.0
  0
ARC
  5
1BDD5
  8
0
 10
373.03597955455479
 20
166.36920359000001
 30
0.0
 40
0.5
 50
90.0
 51
180.0
  0
ARC
  5
1BDD6
  8
0
 10
374.03597955455479
 20
160.86920359000001
 30
0.0
 40
0.5
 50
270.0
 51
0.0
  0
ARC
  5
1BDD7
  8
0
 10
374.03597955455479
 20
166.36920359000001
 30
0.0
 40
0.5
 50
0.0
 51
90.0
  0
LINE
  5
1BDDA
  8
0
 10
374.03597927195477
 20
166.8692036532
 30
0.0
 11
373.03597910805479
 21
166.8692036532
 31
0.0
  0
LINE
  5
1BDDB
  8
0
 10
373.03597910805479
 20
160.3692035773
 30
0.0
 11
374.03597927195477
 21
160.3692035773
 31
0.0
  0
ARC
  5
1BDDE
  8
0
 10
373.03597970305458
 20
181.16920359
 30
0.0
 40
0.5
 50
180.0
 51
270.0
  0
ARC
  5
1BDDF
  8
0
 10
373.03597970305458
 20
186.66920359
 30
0.0
 40
0.5
 50
90.0
 51
180.0
  0
ARC
  5
1BDE0
  8
0
 10
374.03597970305458
 20
186.66920359
 30
0.0
 40
0.5
 50
0.0
 51
90.0
  0
LINE
  5
1BDE3
  8
0
 10
374.03597942045462
 20
187.16920409350001
 30
0.0
 11
373.03597925655458
 21
187.16920409350001
 31
0.0
  0
LINE
  5
1BDE4
  8
0
 10
373.03597925655458
 20
180.66920395939999
 30
0.0
 11
373.71049465158558
 21
180.66920395939999
 31
0.0
  0
ARC
  5
1BDE7
  8
0
 10
373.03597882385498
 20
192.68748702560001
 30
0.0
 40
0.5
 50
180.0
 51
270.0
  0
ARC
  5
1BDE8
  8
0
 10
373.03597882385498
 20
198.18748702560001
 30
0.0
 40
0.5
 50
90.0
 51
180.0
  0
ARC
  5
1BDE9
  8
0
 10
374.03597882385498
 20
192.68748702560001
 30
0.0
 40
0.5
 50
270.0
 51
0.0
  0
ARC
  5
1BDEA
  8
0
 10
374.03597882385498
 20
198.18748702560001
 30
0.0
 40
0.5
 50
0.0
 51
90.0
  0
LINE
  5
1BDED
  8
0
 10
374.03597854125502
 20
198.68748690929999
 30
0.0
 11
373.03597837735492
 21
198.68748690929999
 31
0.0
  0
LINE
  5
1BDEE
  8
0
 10
373.03597837735492
 20
192.1874886379
 30
0.0
 11
374.03597854125502
 21
192.1874886379
 31
0.0
  0
LINE
  5
1BDF1
  8
0
 10
377.53597882385498
 20
201.4746336266
 30
0.0
 11
374.53597882385498
 21
201.4746336266
 31
0.0
  0
LINE
  5
1BDF4
  8
0
 10
377.53597882385498
 20
158.1430601422
 30
0.0
 11
383.53597882385498
 21
158.1430601422
 31
0.0
  0
LINE
  5
1BDF5
  8
0
 10
386.53597882385498
 20
201.4746336266
 30
0.0
 11
383.53597646945491
 21
201.4746336266
 31
0.0
  0
LINE
  5
1BDF7
  8
0
 10
383.53597882385498
 20
201.93129833790121
 30
0.0
 11
377.53597882385498
 21
201.93130206253099
 31
0.0
  0
POLYLINE
  5
1BDF8
  8
0
 66
     1
 10
0.0
 20
0.0
 30
0.0
 70
   128
  0
VERTEX
  5
1DA46
  8
0
 10
385.01427695155462
 20
179.2968703434
 30
0.0
  0
VERTEX
  5
1DA47
  8
0
 10
384.81141254305447
 20
179.21201195570001
 30
0.0
  0
VERTEX
  5
1DA48
  8
0
 10
384.5694772898546
 20
179.21930421139999
 30
0.0
  0
VERTEX
  5
1DA49
  8
0
 10
384.32630524035471
 20
179.31113261729999
 30
0.0
  0
VERTEX
  5
1DA4A
  8
0
 10
384.08933207385462
 20
179.48912326249999
 30
0.0
  0
VERTEX
  5
1DA4B
  8
0
 10
383.91887396575453
 20
179.7101931647
 30
0.0
  0
VERTEX
  5
1DA4C
  8
0
 10
383.8083446025546
 20
179.9601936713
 30
0.0
  0
VERTEX
  5
1DA4D
  8
0
 10
383.7717659771547
 20
180.23122157899999
 30
0.0
  0
VERTEX
  5
1DA4E
  8
0
 10
383.81877169015462
 20
180.45444842430001
 30
0.0
  0
VERTEX
  5
1DA4F
  8
0
 10
383.94172489645462
 20
180.64254205669999
 30
0.0
  0
VERTEX
  5
1DA50
  8
0
 10
384.00464877485479
 20
180.6956013665
 30
0.0
  0
VERTEX
  5
1DA51
  8
0
 10
384.21926274895458
 20
180.7839708402999
 30
0.0
  0
VERTEX
  5
1DA52
  8
0
 10
384.46956872935471
 20
180.77631164339999
 30
0.0
  0
VERTEX
  5
1DA53
  8
0
 10
384.71829891205471
 20
180.67103307689999
 30
0.0
  0
VERTEX
  5
1DA54
  8
0
 10
384.92511212825463
 20
180.50164598969999
 30
0.0
  0
VERTEX
  5
1DA55
  8
0
 10
385.10346040125461
 20
180.26146348570001
 30
0.0
  0
VERTEX
  5
1DA56
  8
0
 10
385.20534709095477
 20
180.0038615242
 30
0.0
  0
VERTEX
  5
1DA57
  8
0
 10
385.23322343825453
 20
179.7606019303
 30
0.0
  0
VERTEX
  5
1DA58
  8
0
 10
385.1869404315546
 20
179.51967623089999
 30
0.0
  0
VERTEX
  5
1DA59
  8
0
 10
385.06134599445448
 20
179.33514956389999
 30
0.0
  0
VERTEX
  5
1DA5A
  8
0
 10
385.01427695155462
 20
179.2968703434
 30
0.0
  0
SEQEND
  5
1DA5B
  8
0
  0
POLYLINE
  5
1BDFA
  8
0
 66
     1
 10
0.0
 20
0.0
 30
0.0
 70
   128
  0
VERTEX
  5
1DA5C
  8
0
 10
387.38897070285452
 20
177.75986958300001
 30
0.0
  0
VERTEX
  5
1DA5D
  8
0
 10
387.3340040445546
 20
177.7330772951
 30
0.0
  0
VERTEX
  5
1DA5E
  8
0
 10
387.20549270505472
 20
177.7443816885
 30
0.0
  0
VERTEX
  5
1DA5F
  8
0
 10
387.06499338145449
 20
177.8399782255
 30
0.0
  0
VERTEX
  5
1DA60
  8
0
 10
386.92281022665469
 20
178.0038798228
 30
0.0
  0
VERTEX
  5
1DA61
  8
0
 10
386.77886128425462
 20
178.24944350870001
 30
0.0
  0
VERTEX
  5
1DA62
  8
0
 10
386.6715915500547
 20
178.5317776725
 30
0.0
  0
VERTEX
  5
1DA63
  8
0
 10
386.61215826865458
 20
178.82475685329999
 30
0.0
  0
VERTEX
  5
1DA64
  8
0
 10
386.61152869465468
 20
179.08885944639999
 30
0.0
  0
VERTEX
  5
1DA65
  8
0
 10
386.66475191705467
 20
179.2898220941
 30
0.0
  0
VERTEX
  5
1DA66
  8
0
 10
386.76342368125461
 20
179.41257786009999
 30
0.0
  0
VERTEX
  5
1DA67
  8
0
 10
386.89344003795458
 20
179.43838667130001
 30
0.0
  0
VERTEX
  5
1DA68
  8
0
 10
387.03950121995467
 20
179.37509212640001
 30
0.0
  0
VERTEX
  5
1DA69
  8
0
 10
387.19486072655468
 20
179.21796869490001
 30
0.0
  0
VERTEX
  5
1DA6A
  8
0
 10
387.32667639845448
 20
179.00030743330001
 30
0.0
  0
VERTEX
  5
1DA6B
  8
0
 10
387.43764162065457
 20
178.72465271499999
 30
0.0
  0
VERTEX
  5
1DA6C
  8
0
 10
387.50706613065472
 20
178.43264397230001
 30
0.0
  0
VERTEX
  5
1DA6D
  8
0
 10
387.52769678825462
 20
178.17488368599999
 30
0.0
  0
VERTEX
  5
1DA6E
  8
0
 10
387.5010535120548
 20
177.9465159401
 30
0.0
  0
VERTEX
  5
1DA6F
  8
0
 10
387.42342218755471
 20
177.79068704700001
 30
0.0
  0
VERTEX
  5
1DA70
  8
0
 10
387.38897070285452
 20
177.75986958300001
 30
0.0
  0
SEQEND
  5
1DA71
  8
0
  0
POLYLINE
  5
1BDFB
  8
0
 66
     1
 10
0.0
 20
0.0
 30
0.0
 70
   128
  0
VERTEX
  5
1DA72
  8
0
 10
384.7979865967547
 20
182.35816676170001
 30
0.0
  0
VERTEX
  5
1DA73
  8
0
 10
384.63047891855467
 20
182.2977965698
 30
0.0
  0
VERTEX
  5
1DA74
  8
0
 10
384.40459966655482
 20
182.31250774119999
 30
0.0
  0
VERTEX
  5
1DA75
  8
0
 10
384.15369018905471
 20
182.39451441910001
 30
0.0
  0
VERTEX
  5
1DA76
  8
0
 10
383.88362899415461
 20
182.54359122369999
 30
0.0
  0
VERTEX
  5
1DA77
  8
0
 10
383.65352526305469
 20
182.7302692458
 30
0.0
  0
VERTEX
  5
1DA78
  8
0
 10
383.47236439585458
 20
182.9429218546
 30
0.0
  0
VERTEX
  5
1DA79
  8
0
 10
383.37070867415468
 20
183.1559451297
 30
0.0
  0
VERTEX
  5
1DA7A
  8
0
 10
383.35895538325462
 20
183.32953061910001
 30
0.0
  0
VERTEX
  5
1DA7B
  8
0
 10
383.42910632485467
 20
183.47600903360001
 30
0.0
  0
VERTEX
  5
1DA7C
  8
0
 10
383.4608234464547
 20
183.50423183289999
 30
0.0
  0
VERTEX
  5
1DA7D
  8
0
 10
383.62968340515482
 20
183.5702421144
 30
0.0
  0
VERTEX
  5
1DA7E
  8
0
 10
383.85098427535468
 20
183.5665373132
 30
0.0
  0
VERTEX
  5
1DA7F
  8
0
 10
384.1161876916546
 20
183.4873935208
 30
0.0
  0
VERTEX
  5
1DA80
  8
0
 10
384.37902182335461
 20
183.3413286135
 30
0.0
  0
VERTEX
  5
1DA81
  8
0
 10
384.61948558685458
 20
183.13747327780001
 30
0.0
  0
VERTEX
  5
1DA82
  8
0
 10
384.78562980885482
 20
182.9229766503
 30
0.0
  0
VERTEX
  5
1DA83
  8
0
 10
384.8808184265547
 20
182.7146174385999
 30
0.0
  0
VERTEX
  5
1DA84
  8
0
 10
384.8985768854547
 20
182.5192837045
 30
0.0
  0
VERTEX
  5
1DA85
  8
0
 10
384.83252748845462
 20
182.3875797913
 30
0.0
  0
VERTEX
  5
1DA86
  8
0
 10
384.7979865967547
 20
182.35816676170001
 30
0.0
  0
SEQEND
  5
1DA87
  8
0
  0
POLYLINE
  5
1BDFC
  8
0
 66
     1
 10
0.0
 20
0.0
 30
0.0
 70
   128
  0
VERTEX
  5
1DA88
  8
0
 10
387.1718719601547
 20
180.7557778433
 30
0.0
  0
VERTEX
  5
1DA89
  8
0
 10
387.09171861405463
 20
180.75758088379999
 30
0.0
  0
VERTEX
  5
1DA8A
  8
0
 10
386.96561753745459
 20
180.84733244029999
 30
0.0
  0
VERTEX
  5
1DA8B
  8
0
 10
386.81492209435459
 20
181.0049271211
 30
0.0
  0
VERTEX
  5
1DA8C
  8
0
 10
386.63959130645458
 20
181.23314213009999
 30
0.0
  0
VERTEX
  5
1DA8D
  8
0
 10
386.48166507475457
 20
181.48311469699999
 30
0.0
  0
VERTEX
  5
1DA8E
  8
0
 10
386.34802028535461
 20
181.74057323490001
 30
0.0
  0
VERTEX
  5
1DA8F
  8
0
 10
386.25388219945472
 20
181.98425192389999
 30
0.0
  0
VERTEX
  5
1DA90
  8
0
 10
386.21874526145461
 20
182.16328006239999
 30
0.0
  0
VERTEX
  5
1DA91
  8
0
 10
386.23761758205478
 20
182.28258248419999
 30
0.0
  0
VERTEX
  5
1DA92
  8
0
 10
386.25583425165479
 20
182.3025016114
 30
0.0
  0
VERTEX
  5
1DA93
  8
0
 10
386.34636625645481
 20
182.30376075949999
 30
0.0
  0
VERTEX
  5
1DA94
  8
0
 10
386.47584989665461
 20
182.2179878131
 30
0.0
  0
VERTEX
  5
1DA95
  8
0
 10
386.63351535795459
 20
182.04749431459999
 30
0.0
  0
VERTEX
  5
1DA96
  8
0
 10
386.7873586713547
 20
181.83049429210001
 30
0.0
  0
VERTEX
  5
1DA97
  8
0
 10
386.94227114315458
 20
181.56408388169999
 30
0.0
  0
VERTEX
  5
1DA98
  8
0
 10
387.06940785045458
 20
181.2971910462
 30
0.0
  0
VERTEX
  5
1DA99
  8
0
 10
387.15587556355467
 20
181.0658337548
 30
0.0
  0
VERTEX
  5
1DA9A
  8
0
 10
387.19907775515458
 20
180.875810422
 30
0.0
  0
VERTEX
  5
1DA9B
  8
0
 10
387.18619197605472
 20
180.77169787139999
 30
0.0
  0
VERTEX
  5
1DA9C
  8
0
 10
387.1718719601547
 20
180.7557778433
 30
0.0
  0
SEQEND
  5
1DA9D
  8
0
  0
LINE
  5
1BE3D
  8
0
 10
372.5359795545549
 20
173.66920359
 30
0.0
 11
372.5359795545549
 21
168.16920359
 31
0.0
  0
LINE
  5
1BE42
  8
0
 10
372.5359795545549
 20
179.5802047032
 30
0.0
 11
372.5359795545549
 21
174.0802047032
 31
0.0
  0
LINE
  5
1BE46
  8
0
 10
372.5359795545549
 20
166.36920359000001
 30
0.0
 11
372.5359795545549
 21
160.86920359000001
 31
0.0
  0
LINE
  5
1BE4A
  8
0
 10
372.53597970305458
 20
186.66920347967371
 30
0.0
 11
372.53597970305458
 21
181.16920359
 31
0.0
  0
LINE
  5
1BE4E
  8
0
 10
372.53597922675499
 20
198.18685228167411
 30
0.0
 11
372.53597882385498
 21
192.68748702560001
 31
0.0
  0
ARC
  5
1BE4F
  8
0
 10
397.34428118335501
 20
225.4145993962
 30
0.0
 40
46.226529857739379
 50
241.98338361230259
 51
243.03516905790559
  0
LINE
  5
1BE50
  8
0
 10
377.03847636817409
 20
184.62597732902401
 30
0.0
 11
375.6304039209549
 21
184.60529167210001
 31
0.0
  0
ARC
  5
1BE51
  8
0
 10
375.81140008195479
 20
186.0873077306
 30
0.0
 40
1.4930275309612011
 50
211.32283967800021
 51
263.03704320619801
  0
LINE
  5
1BE52
  8
0
 10
377.53597882385498
 20
185.31114291399999
 30
0.0
 11
374.53597882385498
 21
185.31114291399999
 31
0.0
  0
POLYLINE
  5
1BE53
  8
0
 66
     1
 10
0.0
 20
0.0
 30
0.0
 70
   128
  0
VERTEX
  5
1DA9E
  8
0
 10
377.61742551444189
 20
184.91469519243319
 30
0.0
  0
VERTEX
  5
1DA9F
  8
0
 10
377.56258484715499
 20
185.07929202170001
 30
0.0
  0
VERTEX
  5
1DAA0
  8
0
 10
377.53597882385498
 20
185.31114291399999
 30
0.0
  0
SEQEND
  5
1DAA1
  8
0
  0
LINE
  5
1BE54
  8
0
 10
374.53597882385498
 20
185.31114291399999
 30
0.0
 11
374.53597882385498
 21
182.3502300307
 31
0.0
  0
LINE
  5
1BE55
  8
0
 10
374.53597882385498
 20
201.4746336266
 30
0.0
 11
374.53597882385498
 21
185.31114291399999
 31
0.0
  0
LINE
  5
1BE5B
  8
0
 10
401.08597882385487
 20
153.0000000261
 30
0.0
 11
398.08597646945509
 21
153.0000000261
 31
0.0
  0
LINE
  5
1BE5C
  8
0
 10
401.08597882385487
 20
153.0000000261
 30
0.0
 11
401.08597882385487
 21
150.0
 31
0.0
  0
LINE
  5
1BE5D
  8
0
 10
398.08558300135468
 20
150.0
 30
0.0
 11
401.08558535575452
 21
150.0
 31
0.0
  0
ARC
  5
1BE5E
  8
0
 10
387.0359769135689
 20
153.49999983951369
 30
0.0
 40
0.4999998134142121
 50
179.99999114364209
 51
269.99990813028973
  0
ARC
  5
1BE5F
  8
0
 10
387.0359805954119
 20
153.500000650603
 30
0.0
 40
3.5000017715570571
 50
180.00001201251251
 51
269.95414386408828
  0
LINE
  5
1BE60
  8
0
 10
398.08837971085472
 20
153.0000000261
 30
0.0
 11
387.03597611185478
 21
153.0000000261
 31
0.0
  0
LINE
  5
1BE61
  8
0
 10
387.03317940235479
 20
150.0
 30
0.0
 11
398.08558300135468
 21
150.0
 31
0.0
  0
LINE
  5
1BE62
  8
0
 10
383.53597882385498
 20
164.00137594872379
 30
0.0
 11
383.53597882385498
 21
153.50000010799999
 31
0.0
  0
LINE
  5
1BE63
  8
0
 10
386.53597882385469
 20
153.50000010799999
 30
0.0
 11
386.53597882385469
 21
167.26443832425829
 31
0.0
  0
ARC
  5
1BE66
  8
0
 10
363.71001432745493
 20
225.4481608207
 30
0.0
 40
46.264453784689763
 50
296.96548115317779
 51
298.01640085439499
  0
LINE
  5
1BE67
  8
0
 10
384.03348098405741
 20
184.62597749341191
 30
0.0
 11
385.44155186405487
 21
184.60529167210001
 31
0.0
  0
POLYLINE
  5
1BE68
  8
0
 66
     1
 10
0.0
 20
0.0
 30
0.0
 70
   128
  0
VERTEX
  5
1DAA2
  8
0
 10
383.53597646945491
 20
185.31114291399999
 30
0.0
  0
VERTEX
  5
1DAA3
  8
0
 10
383.51230224965479
 20
185.09251307700001
 30
0.0
  0
VERTEX
  5
1DAA4
  8
0
 10
383.45513312541812
 20
184.91442857262319
 30
0.0
  0
SEQEND
  5
1DAA5
  8
0
  0
LINE
  5
1BE69
  8
0
 10
386.53597882385498
 20
185.31114291399999
 30
0.0
 11
383.53597646945491
 21
185.31114291399999
 31
0.0
  0
ARC
  5
1BE6A
  8
0
 10
385.3232433202549
 20
185.99011353660001
 30
0.0
 40
1.3898663633645481
 50
274.88305441740022
 51
330.75697386600092
  0
LINE
  5
1BE6B
  8
0
 10
386.53597882385498
 20
185.31114291399999
 30
0.0
 11
386.53597882385498
 21
182.3246540502
 31
0.0
  0
LINE
  5
1BE6D
  8
0
 10
386.53597882385498
 20
201.4746336266
 30
0.0
 11
386.53597882385498
 21
185.31114291399999
 31
0.0
  0
LINE
  5
1BE70
  8
0
 10
383.53597882385498
 20
185.31114291399999
 30
0.0
 11
383.53597882385498
 21
201.93129833789999
 31
0.0
  0
LINE
  5
1BE71
  8
0
 10
380.53597882385469
 20
192.8748792037
 30
0.0
 11
380.53597882385469
 21
201.93129833789999
 31
0.0
  0
LINE
  5
1BE72
  8
0
 10
380.53597882385469
 20
185.50590109079999
 30
0.0
 11
380.53597882385469
 21
192.8748792037
 31
0.0
  0
LINE
  5
1BE76
  8
0
 10
386.8331797420546
 20
187.1262297260383
 30
0.0
 11
386.8331797420546
 21
189.41135388096109
 31
0.0
  0
LINE
  5
1BE77
  8
0
 10
377.53597882385498
 20
201.93130206320001
 30
0.0
 11
377.53597882385498
 21
185.31114291399999
 31
0.0
  0
LINE
  5
1BE78
  8
0
 10
380.53597882385469
 20
185.50590109079999
 30
0.0
 11
380.53597882385469
 21
192.8748754785
 31
0.0
  0
LINE
  5
1BE7B
  8
0
 10
374.23877976835479
 20
189.4116034754112
 30
0.0
 11
374.23877976835479
 21
187.12746035309999
 31
0.0
  0
ARC
  5
1BE7E
  8
0
 10
374.03597704974868
 20
153.50000065165889
 30
0.0
 40
3.5000017741064848
 50
270.04588667040588
 51
359.9999879702022
  0
LINE
  5
1BE7F
  8
0
 10
362.98637650905471
 20
150.0
 30
0.0
 11
374.0387801080546
 21
150.0
 31
0.0
  0
LINE
  5
1BE80
  8
0
 10
374.03838291455509
 20
153.0000000261
 30
0.0
 11
362.9859793155552
 21
153.0000000261
 31
0.0
  0
ARC
  5
1BE81
  8
0
 10
374.03596906384911
 20
153.50000395952691
 30
0.0
 40
0.5000097600223837
 50
270.27660259080608
 51
359.9995367466596
  0
LINE
  5
1BE82
  8
0
 10
374.53597955455513
 20
167.2644369384754
 30
0.0
 11
374.53597955455513
 21
153.50000010799999
 31
0.0
  0
LINE
  5
1BE83
  8
0
 10
377.5359788238552
 20
153.50000010806181
 30
0.0
 11
377.5359788238552
 21
164.0013762973656
 31
0.0
  0
LINE
  5
1BE84
  8
0
 10
359.98597882385502
 20
150.0
 30
0.0
 11
359.98597882385502
 21
153.0000000261
 31
0.0
  0
LINE
  5
1BE85
  8
0
 10
359.98637601735459
 20
150.0
 30
0.0
 11
362.98637650905471
 21
150.0
 31
0.0
  0
LINE
  5
1BE86
  8
0
 10
362.9859793155552
 20
153.0000000261
 30
0.0
 11
359.98597882385502
 21
153.0000000261
 31
0.0
  0
POLYLINE
  5
1BEB8
  8
0
 66
     1
 10
0.0
 20
0.0
 30
0.0
 70
   128
  0
VERTEX
  5
1DAA6
  8
0
 10
287.14806661009987
 20
72.255416214403823
 30
0.0
  0
VERTEX
  5
1DAA7
  8
0
 10
288.9245383440998
 20
72.178991883903834
 30
0.0
  0
VERTEX
  5
1DAA8
  8
0
 10
290.85552021859979
 20
72.095258533903831
 30
0.0
  0
VERTEX
  5
1DAA9
  8
0
 10
293.15280243749982
 20
71.99411317700384
 30
0.0
  0
VERTEX
  5
1DAAA
  8
0
 10
295.8746336399999
 20
71.873361617303829
 30
0.0
  0
VERTEX
  5
1DAAB
  8
0
 10
299.01080653069999
 20
71.737168729303832
 30
0.0
  0
VERTEX
  5
1DAAC
  8
0
 10
302.1776758133999
 20
71.612930297803842
 30
0.0
  0
VERTEX
  5
1DAAD
  8
0
 10
303.84992882609981
 20
71.79202362890382
 30
0.0
  0
VERTEX
  5
1DAAE
  8
0
 10
305.23391887539992
 20
72.230032086303837
 30
0.0
  0
VERTEX
  5
1DAAF
  8
0
 10
306.34260997169991
 20
72.806025296403831
 30
0.0
  0
VERTEX
  5
1DAB0
  8
0
 10
307.21182450649991
 20
73.43792021270383
 30
0.0
  0
VERTEX
  5
1DAB1
  8
0
 10
308.02754387259978
 20
74.231638014303826
 30
0.0
  0
VERTEX
  5
1DAB2
  8
0
 10
308.8089905678998
 20
75.28176754710384
 30
0.0
  0
VERTEX
  5
1DAB3
  8
0
 10
309.17517170309981
 20
75.943107157903839
 30
0.0
  0
VERTEX
  5
1DAB4
  8
0
 10
309.55068096519989
 20
76.84665769330384
 30
0.0
  0
VERTEX
  5
1DAB5
  8
0
 10
309.8555885254998
 20
78.017300367303832
 30
0.0
  0
VERTEX
  5
1DAB6
  8
0
 10
309.98637601729979
 20
79.447595775103835
 30
0.0
  0
SEQEND
  5
1DAB7
  8
0
  0
POLYLINE
  5
1BEB9
  8
0
 66
     1
 10
0.0
 20
0.0
 30
0.0
 70
   128
  0
VERTEX
  5
1DAB8
  8
0
 10
276.90588012339981
 20
72.700774669603831
 30
0.0
  0
VERTEX
  5
1DAB9
  8
0
 10
280.03307506439978
 20
72.563501447403837
 30
0.0
  0
VERTEX
  5
1DABA
  8
0
 10
284.78842303149992
 20
72.356930375103843
 30
0.0
  0
VERTEX
  5
1DABB
  8
0
 10
287.14806661009987
 20
72.255416214403823
 30
0.0
  0
SEQEND
  5
1DABC
  8
0
  0
POLYLINE
  5
1BEBA
  8
0
 66
     1
 10
0.0
 20
0.0
 30
0.0
 70
   128
  0
VERTEX
  5
1DABD
  8
0
 10
270.59530541300001
 20
72.97803312540384
 30
0.0
  0
VERTEX
  5
1DABE
  8
0
 10
274.5739154516998
 20
72.80314192170384
 30
0.0
  0
VERTEX
  5
1DABF
  8
0
 10
275.29900595539999
 20
72.771313041403815
 30
0.0
  0
SEQEND
  5
1DAC0
  8
0
  0
LINE
  5
1BEBB
  8
0
 10
264.67403844
 20
73.237540572803837
 30
0.0
 11
265.82394614809982
 21
73.187226802103837
 31
0.0
  0
LINE
  5
1BEBC
  8
0
 10
265.50614163279988
 20
85.694024711803834
 30
0.0
 11
264.67400863759991
 21
85.65762490030383
 31
0.0
  0
POLYLINE
  5
1BEBD
  8
0
 66
     1
 10
0.0
 20
0.0
 30
0.0
 70
   128
  0
VERTEX
  5
1DAC1
  8
0
 10
275.4405967890998
 20
86.130058765403817
 30
0.0
  0
VERTEX
  5
1DAC2
  8
0
 10
273.29898700119969
 20
86.035918816903816
 30
0.0
  0
VERTEX
  5
1DAC3
  8
0
 10
270.28147950769988
 20
85.903354361603832
 30
0.0
  0
SEQEND
  5
1DAC4
  8
0
  0
POLYLINE
  5
1BEBE
  8
0
 66
     1
 10
0.0
 20
0.0
 30
0.0
 70
   128
  0
VERTEX
  5
1DAC5
  8
0
 10
286.9906805454998
 20
86.633066087903828
 30
0.0
  0
VERTEX
  5
1DAC6
  8
0
 10
286.38462796809989
 20
86.607033759303832
 30
0.0
  0
VERTEX
  5
1DAC7
  8
0
 10
284.87877622239989
 20
86.542200669603844
 30
0.0
  0
VERTEX
  5
1DAC8
  8
0
 10
282.98258110879988
 20
86.46015673870383
 30
0.0
  0
VERTEX
  5
1DAC9
  8
0
 10
280.69223538039978
 20
86.360443755903844
 30
0.0
  0
VERTEX
  5
1DACA
  8
0
 10
278.0257396399997
 20
86.243696883303841
 30
0.0
  0
VERTEX
  5
1DACB
  8
0
 10
275.4405967890998
 20
86.130058765403817
 30
0.0
  0
SEQEND
  5
1DACC
  8
0
  0
POLYLINE
  5
1BEBF
  8
0
 66
     1
 10
0.0
 20
0.0
 30
0.0
 70
   128
  0
VERTEX
  5
1DACD
  8
0
 10
309.98637601729979
 20
79.447595775103835
 30
0.0
  0
VERTEX
  5
1DACE
  8
0
 10
309.8836772144
 20
80.714548379103832
 30
0.0
  0
VERTEX
  5
1DACF
  8
0
 10
309.6628718078
 20
81.695681810303824
 30
0.0
  0
VERTEX
  5
1DAD0
  8
0
 10
309.42487046119982
 20
82.388384640203824
 30
0.0
  0
VERTEX
  5
1DAD1
  8
0
 10
309.17767509819993
 20
82.946798205303836
 30
0.0
  0
VERTEX
  5
1DAD2
  8
0
 10
308.61530527470001
 20
83.910955488603818
 30
0.0
  0
VERTEX
  5
1DAD3
  8
0
 10
307.95694217079989
 20
84.742911532503825
 30
0.0
  0
VERTEX
  5
1DAD4
  8
0
 10
307.1002297102998
 20
85.549826174903828
 30
0.0
  0
VERTEX
  5
1DAD5
  8
0
 10
306.01620003579978
 20
86.282598227203835
 30
0.0
  0
VERTEX
  5
1DAD6
  8
0
 10
304.6849451958999
 20
86.871775239703837
 30
0.0
  0
VERTEX
  5
1DAD7
  8
0
 10
303.15285250540001
 20
87.22022213040384
 30
0.0
  0
VERTEX
  5
1DAD8
  8
0
 10
300.43529793620002
 20
87.217197194703829
 30
0.0
  0
VERTEX
  5
1DAD9
  8
0
 10
297.58635982869981
 20
87.096743658103847
 30
0.0
  0
VERTEX
  5
1DADA
  8
0
 10
294.63521465659989
 20
86.966397613203824
 30
0.0
  0
VERTEX
  5
1DADB
  8
0
 10
291.76043793559978
 20
86.839370802003828
 30
0.0
  0
VERTEX
  5
1DADC
  8
0
 10
289.39732238649981
 20
86.736597493203845
 30
0.0
  0
VERTEX
  5
1DADD
  8
0
 10
287.68015727399978
 20
86.662680283103825
 30
0.0
  0
VERTEX
  5
1DADE
  8
0
 10
286.9906805454998
 20
86.633066087903828
 30
0.0
  0
SEQEND
  5
1DADF
  8
0
  0
LINE
  5
1BEC5
  8
0
 10
202.46199965479991
 20
82.447594404200004
 30
0.0
 11
202.46199965479991
 21
76.447595775103835
 31
0.0
  0
LINE
  5
1BEC6
  8
0
 10
207.4620023369996
 20
76.447595775103835
 30
0.0
 11
207.4620023369998
 21
82.447594404200004
 31
0.0
  0
LINE
  5
1BEC8
  8
0
 10
237.45787963269979
 20
76.447595775103835
 30
0.0
 11
237.45787963270001
 21
82.447594404200004
 31
0.0
  0
LINE
  5
1BECB
  8
0
 10
221.12256735559981
 20
82.447594404200004
 30
0.0
 11
221.12256735559961
 21
76.447595775103835
 31
0.0
  0
POLYLINE
  5
1BECE
  8
0
 66
     1
 10
0.0
 20
0.0
 30
0.0
 70
   128
  0
VERTEX
  5
1DAE0
  8
0
 10
286.89463511109989
 20
72.26632013910384
 30
0.0
  0
VERTEX
  5
1DAE1
  8
0
 10
286.97113022209987
 20
72.262967377903834
 30
0.0
  0
VERTEX
  5
1DAE2
  8
0
 10
287.05643191929988
 20
72.259305417503839
 30
0.0
  0
SEQEND
  5
1DAE3
  8
0
  0
POLYLINE
  5
1BECF
  8
0
 66
     1
 10
0.0
 20
0.0
 30
0.0
 70
   128
  0
VERTEX
  5
1DAE4
  8
0
 10
265.82394614809982
 20
73.187226802103837
 30
0.0
  0
VERTEX
  5
1DAE5
  8
0
 10
266.0696066915998
 20
73.200481384903838
 30
0.0
  0
VERTEX
  5
1DAE6
  8
0
 10
266.49256870149969
 20
73.288334906103813
 30
0.0
  0
VERTEX
  5
1DAE7
  8
0
 10
267.00723245739982
 20
73.445400595603829
 30
0.0
  0
VERTEX
  5
1DAE8
  8
0
 10
267.67397001379982
 20
73.636046051903833
 30
0.0
  0
VERTEX
  5
1DAE9
  8
0
 10
268.09779629109988
 20
73.710585385503833
 30
0.0
  0
VERTEX
  5
1DAEA
  8
0
 10
268.33557412030001
 20
73.727732896803829
 30
0.0
  0
VERTEX
  5
1DAEB
  8
0
 10
268.58326867219989
 20
73.724793642703816
 30
0.0
  0
VERTEX
  5
1DAEC
  8
0
 10
268.82729753849981
 20
73.699375987003833
 30
0.0
  0
VERTEX
  5
1DAED
  8
0
 10
269.05465200539987
 20
73.654583096503814
 30
0.0
  0
VERTEX
  5
1DAEE
  8
0
 10
269.43312659859981
 20
73.531093448403837
 30
0.0
  0
VERTEX
  5
1DAEF
  8
0
 10
269.95072588319999
 20
73.273061215803835
 30
0.0
  0
VERTEX
  5
1DAF0
  8
0
 10
270.29246911399991
 20
73.083820194003835
 30
0.0
  0
VERTEX
  5
1DAF1
  8
0
 10
270.5382488667999
 20
72.987614572003835
 30
0.0
  0
VERTEX
  5
1DAF2
  8
0
 10
270.59530541300001
 20
72.97803312540384
 30
0.0
  0
SEQEND
  5
1DAF3
  8
0
  0
ARC
  5
1BED0
  8
0
 10
312.09594723302462
 20
125.0755719295435
 30
0.0
 40
70.245676883263783
 50
224.3539581742028
 51
227.53983167588461
  0
ARC
  5
1BED1
  8
0
 10
274.69754560439992
 20
39.990721713503831
 30
0.0
 40
32.78672752065615
 50
86.137776351795495
 51
88.948819133890652
  0
ARC
  5
1BED3
  8
0
 10
312.17581590036781
 20
33.734963626486383
 30
0.0
 40
70.362056888529892
 50
132.46163960256189
 51
135.63892234767019
  0
POLYLINE
  5
1BED4
  8
0
 66
     1
 10
0.0
 20
0.0
 30
0.0
 70
   128
  0
VERTEX
  5
1DAF4
  8
0
 10
265.50614163279988
 20
85.694024711803834
 30
0.0
  0
VERTEX
  5
1DAF5
  8
0
 10
265.75857475399988
 20
85.675597563303839
 30
0.0
  0
VERTEX
  5
1DAF6
  8
0
 10
266.16423651569988
 20
85.578503459603837
 30
0.0
  0
VERTEX
  5
1DAF7
  8
0
 10
266.66839495300002
 20
85.411703586503833
 30
0.0
  0
VERTEX
  5
1DAF8
  8
0
 10
267.3389844596
 20
85.215278342303833
 30
0.0
  0
VERTEX
  5
1DAF9
  8
0
 10
267.77644529939988
 20
85.147016122903835
 30
0.0
  0
VERTEX
  5
1DAFA
  8
0
 10
268.0198855697999
 20
85.137253999703844
 30
0.0
  0
VERTEX
  5
1DAFB
  8
0
 10
268.26839968559989
 20
85.149044543503834
 30
0.0
  0
VERTEX
  5
1DAFC
  8
0
 10
268.50684061639981
 20
85.182289034103832
 30
0.0
  0
VERTEX
  5
1DAFD
  8
0
 10
268.72545555229999
 20
85.233176499603843
 30
0.0
  0
VERTEX
  5
1DAFE
  8
0
 10
269.09001246090003
 20
85.360626131303832
 30
0.0
  0
VERTEX
  5
1DAFF
  8
0
 10
269.60308924319997
 20
85.615691170103844
 30
0.0
  0
VERTEX
  5
1DB00
  8
0
 10
270.22158429019993
 20
85.894594341503819
 30
0.0
  0
VERTEX
  5
1DB01
  8
0
 10
270.28147950769988
 20
85.903354361603832
 30
0.0
  0
SEQEND
  5
1DB02
  8
0
  0
POLYLINE
  5
1BED7
  8
0
 66
     1
 10
0.0
 20
0.0
 30
0.0
 70
   128
  0
VERTEX
  5
1DB03
  8
0
 10
297.59889170529982
 20
77.783475071103837
 30
0.0
  0
VERTEX
  5
1DB04
  8
0
 10
297.6212602071048
 20
79.447595775103835
 30
0.0
  0
SEQEND
  5
1DB05
  8
0
  0
POLYLINE
  5
1BED8
  8
0
 66
     1
 10
0.0
 20
0.0
 30
0.0
 70
   128
  0
VERTEX
  5
1DB06
  8
0
 10
297.62128815049982
 20
79.447595775103835
 30
0.0
  0
VERTEX
  5
1DB07
  8
0
 10
297.62121364469982
 20
79.444894939603842
 30
0.0
  0
VERTEX
  5
1DB08
  8
0
 10
297.6211242377999
 20
79.442160576503824
 30
0.0
  0
SEQEND
  5
1DB09
  8
0
  0
ARC
  5
1BEDD
  8
0
 10
274.76473579989988
 20
79.269633597103834
 30
0.0
 40
19.396484672410072
 50
346.77494924309877
 51
0.5256944723115197
  0
ARC
  5
1BEE4
  8
0
 10
264.30767650109988
 20
79.096010772403829
 30
0.0
 40
22.16552601175146
 50
349.12770426609768
 51
0.9088519526772131
  0
ARC
  5
1BEEC
  8
0
 10
222.78571677989979
 20
79.008016850903843
 30
0.0
 40
55.794863246467287
 50
356.08453315610097
 51
0.4514085384990131
  0
ARC
  5
1BEF1
  8
0
 10
527.02609238099978
 20
79.34376019750384
 30
0.0
 40
265.17973351817369
 50
179.22499970579099
 51
180.72948760809979
  0
LINE
  5
1BF0A
  8
0
 10
240.24564102289989
 20
85.447594895899996
 30
0.0
 11
237.61140629649981
 21
85.447594895899996
 31
0.0
  0
LINE
  5
1BF0D
  8
0
 10
249.3181981146565
 20
85.447594895942174
 30
0.0
 11
240.24564102289989
 21
85.447594895899996
 31
0.0
  0
LINE
  5
1BF0E
  8
0
 10
248.53079840539971
 20
82.447594404200004
 30
0.0
 11
237.59999945759981
 21
82.447594404200004
 31
0.0
  0
LINE
  5
1BF0F
  8
0
 10
253.45007404680001
 20
82.654921710500005
 30
0.0
 11
251.75200477239991
 21
84.353169798799996
 31
0.0
  0
ARC
  5
1BF10
  8
0
 10
253.97087276079989
 20
83.175636539500005
 30
0.0
 40
0.7364612913369151
 50
224.99538531420299
 51
269.99975646778961
  0
ARC
  5
1BF11
  8
0
 10
253.9709081629999
 20
83.175176408799999
 30
0.0
 40
3.735999789935303
 50
224.99622131099821
 51
266.15275286792371
  0
LINE
  5
1BF12
  8
0
 10
251.32898315790001
 20
80.533599853500007
 30
0.0
 11
249.6309138833999
 21
82.231851667100017
 31
0.0
  0
ARC
  5
1BF13
  8
0
 10
249.11011501599981
 20
81.711123751200006
 30
0.0
 40
0.736470652975353
 50
44.996096864104572
 51
89.999744537600463
  0
ARC
  5
1BF14
  8
0
 10
249.11008738589999
 20
81.711617993200008
 30
0.0
 40
3.7359769028655179
 50
44.996035514100832
 51
89.999525899608884
  0
LINE
  5
1BF16
  8
0
 10
261.86297908419988
 20
82.439175248099986
 30
0.0
 11
253.97086963059971
 21
82.439175248099986
 31
0.0
  0
LINE
  5
1BF1A
  8
0
 10
249.11011829969991
 20
82.447594404200004
 30
0.0
 11
248.53079840539971
 21
82.447594404200004
 31
0.0
  0
ARC
  5
1BF1B
  8
0
 10
254.14913602919981
 20
83.157036865999999
 30
0.0
 40
0.7178617205010297
 50
224.38365070720189
 51
269.9693682397089
  0
POLYLINE
  5
1BF1C
  8
0
 66
     1
 10
0.0
 20
0.0
 30
0.0
 70
   128
  0
VERTEX
  5
1DB0A
  8
0
 10
251.9502870737999
 20
84.353169798799996
 30
0.0
  0
VERTEX
  5
1DB0B
  8
0
 10
252.15987190599981
 20
84.141964465399994
 30
0.0
  0
VERTEX
  5
1DB0C
  8
0
 10
252.36979201429989
 20
83.930446207499998
 30
0.0
  0
VERTEX
  5
1DB0D
  8
0
 10
252.58003994820001
 20
83.718615025299997
 30
0.0
  0
VERTEX
  5
1DB0E
  8
0
 10
252.7906157075999
 20
83.506478369199996
 30
0.0
  0
VERTEX
  5
1DB0F
  8
0
 10
253.0015118419999
 20
83.294036239400015
 30
0.0
  0
VERTEX
  5
1DB10
  8
0
 10
253.2127283512998
 20
83.081292360999996
 30
0.0
  0
VERTEX
  5
1DB11
  8
0
 10
253.4242577850998
 20
82.868254184700007
 30
0.0
  0
VERTEX
  5
1DB12
  8
0
 10
253.63610014319991
 20
82.654921710500005
 30
0.0
  0
SEQEND
  5
1DB13
  8
0
  0
ARC
  5
1BF1D
  8
0
 10
249.31773819259979
 20
81.734193350499993
 30
0.0
 40
3.7134015739239241
 50
44.851920852497557
 51
89.992903651189749
  0
LINE
  5
1BF1F
  8
0
 10
237.59999945760001
 20
76.447595775103835
 30
0.0
 11
237.59999945760001
 21
61.897596838403821
 31
0.0
  0
ARC
  5
1BF20
  8
0
 10
234.60000083849991
 20
61.897595775103831
 30
0.0
 40
3.0
 50
270.0
 51
0.0
  0
LINE
  5
1BF21
  8
0
 10
234.60000082849999
 20
58.897594484103841
 30
0.0
 11
203.00000235439981
 21
58.897594484103841
 31
0.0
  0
ARC
  5
1BF22
  8
0
 10
203.0000008385
 20
61.897595775103831
 30
0.0
 40
3.0
 50
180.0
 51
270.0
  0
LINE
  5
1BF23
  8
0
 10
200.0
 20
61.897596838403821
 30
0.0
 11
200.0
 21
72.950000437503832
 31
0.0
  0
LINE
  5
1BF24
  8
0
 10
202.95000150799979
 20
67.598792165500001
 30
0.0
 11
202.95000150799979
 21
64.698791503900011
 31
0.0
  0
ARC
  5
1BF25
  8
0
 10
205.70000083849979
 20
64.698791952599976
 30
0.0
 40
2.75
 50
180.0
 51
0.0
  0
LINE
  5
1BF26
  8
0
 10
208.45000147819971
 20
64.698791503900011
 30
0.0
 11
208.45000147819971
 21
67.598792165500001
 31
0.0
  0
ARC
  5
1BF27
  8
0
 10
205.70000083849979
 20
67.598791952599996
 30
0.0
 40
2.75
 50
0.0
 51
180.0
  0
LINE
  5
1BF28
  8
0
 10
229.14999797939981
 20
67.598792165500001
 30
0.0
 11
229.14999797939981
 21
64.698791503900011
 31
0.0
  0
ARC
  5
1BF29
  8
0
 10
231.90000083849989
 20
64.698791952599976
 30
0.0
 40
2.75
 50
180.0
 51
0.0
  0
LINE
  5
1BF2A
  8
0
 10
234.65000167489981
 20
64.698791503900011
 30
0.0
 11
234.65000167489981
 21
67.598792165500001
 31
0.0
  0
ARC
  5
1BF2B
  8
0
 10
231.90000083849989
 20
67.598791952599996
 30
0.0
 40
2.75
 50
0.0
 51
180.0
  0
CIRCLE
  5
1BF2C
  8
0
 10
218.8000008384997
 20
64.698791952599976
 30
0.0
 40
2.3500000000000001
  0
LINE
  5
1BF2D
  8
0
 10
237.59999945760001
 20
76.447595775103835
 30
0.0
 11
200.0
 21
76.447595775103835
 31
0.0
  0
LINE
  5
1BF2E
  8
0
 10
200.0
 20
76.447595775103835
 30
0.0
 11
200.0
 21
72.950000437503832
 31
0.0
  0
LINE
  5
1BF32
  8
0
 10
197.09999933839981
 20
73.453193902999999
 30
0.0
 11
197.09999933839981
 21
76.453196257299993
 31
0.0
  0
LINE
  5
1BF34
  8
0
 10
197.09999933839981
 20
73.453193902999999
 30
0.0
 11
200.0
 21
73.453193902999999
 31
0.0
  0
LINE
  5
1BF35
  8
0
 10
237.45787963270001
 20
79.447595775099998
 30
0.0
 11
221.12256735559981
 21
79.447595775099998
 31
0.0
  0
LINE
  5
1BF3B
  8
0
 10
237.59999945760001
 20
76.447595775103835
 30
0.0
 11
248.53079840539971
 21
76.447597146000007
 31
0.0
  0
LINE
  5
1BF3C
  8
0
 10
249.31819811464081
 20
73.447594791637556
 30
0.0
 11
237.59999945760001
 21
73.447594791600011
 31
0.0
  0
ARC
  5
1BF3D
  8
0
 10
249.11011501599981
 20
77.184067799000005
 30
0.0
 40
0.736470652975358
 50
270.00025546239959
 51
315.00390313589531
  0
LINE
  5
1BF3E
  8
0
 10
249.6309138833999
 20
76.663339883099994
 30
0.0
 11
251.32898315790001
 21
78.361591696700003
 31
0.0
  0
ARC
  5
1BF3F
  8
0
 10
253.9709081629999
 20
75.720015141399998
 30
0.0
 40
3.735999789935303
 50
93.847247130313576
 51
135.00377868900159
  0
ARC
  5
1BF40
  8
0
 10
253.97087276079989
 20
75.719555010800008
 30
0.0
 40
0.7364612913369251
 50
90.000243532197345
 51
135.00461468579681
  0
LINE
  5
1BF41
  8
0
 10
253.45007404680001
 20
76.240269839700005
 30
0.0
 11
251.75200477239991
 21
74.5420217514
 31
0.0
  0
ARC
  5
1BF42
  8
0
 10
249.11008696819999
 20
77.183568207000008
 30
0.0
 40
3.7359734155154309
 50
270.00048050739332
 51
315.00402703699621
  0
LINE
  5
1BF47
  8
0
 10
261.86314299699978
 20
76.456016302099997
 30
0.0
 11
253.97086963059971
 21
76.456016302099997
 31
0.0
  0
LINE
  5
1BF48
  8
0
 10
249.11011829969991
 20
76.447597146000007
 30
0.0
 11
248.53079840539971
 21
76.447597146000007
 31
0.0
  0
ARC
  5
1BF4A
  8
0
 10
254.1490324636998
 20
75.738400774300004
 30
0.0
 40
0.7176155825502059
 50
90.022373402698364
 51
135.62460765039771
  0
POLYLINE
  5
1BF4B
  8
0
 66
     1
 10
0.0
 20
0.0
 30
0.0
 70
   128
  0
VERTEX
  5
1DB14
  8
0
 10
251.9502870737999
 20
74.5420217514
 30
0.0
  0
VERTEX
  5
1DB15
  8
0
 10
252.15987190599981
 20
74.753227084900004
 30
0.0
  0
VERTEX
  5
1DB16
  8
0
 10
252.36979201429989
 20
74.964745342699985
 30
0.0
  0
VERTEX
  5
1DB17
  8
0
 10
252.58003994820001
 20
75.176576525000002
 30
0.0
  0
VERTEX
  5
1DB18
  8
0
 10
252.7906157075999
 20
75.388713180999986
 30
0.0
  0
VERTEX
  5
1DB19
  8
0
 10
253.0015118419999
 20
75.601155310899998
 30
0.0
  0
VERTEX
  5
1DB1A
  8
0
 10
253.2127283512998
 20
75.813899189200001
 30
0.0
  0
VERTEX
  5
1DB1B
  8
0
 10
253.4242577850998
 20
76.026937365500004
 30
0.0
  0
VERTEX
  5
1DB1C
  8
0
 10
253.63610014319991
 20
76.240269839700005
 30
0.0
  0
SEQEND
  5
1DB1D
  8
0
  0
ARC
  5
1BF4C
  8
0
 10
249.3177898685999
 20
77.160867599300005
 30
0.0
 40
3.7132728301042182
 50
270.00629923419677
 51
315.14894540129711
  0
LINE
  5
1BF4E
  8
0
 10
207.4620023369998
 20
79.450397193400477
 30
0.0
 11
221.12256735559981
 21
79.450397193399951
 31
0.0
  0
LINE
  5
1BF5E
  8
0
 10
193.1413829325997
 20
79.447595775103835
 30
0.0
 11
202.46199965479991
 21
79.447595775103835
 31
0.0
  0
LINE
  5
1BF5F
  8
0
 10
207.4620023369998
 20
79.450397193399994
 30
0.0
 11
214.1413584350999
 21
79.450397193399994
 31
0.0
  0
LINE
  5
1BF60
  8
0
 10
192.65985312445309
 20
76.447596098272697
 30
0.0
 11
200.0
 21
76.447595564031971
 31
0.0
  0
LINE
  5
1BF78
  8
0
 10
200.0
 20
82.447593263683785
 30
0.0
 11
192.65985312445309
 21
82.447596150426762
 31
0.0
  0
LINE
  5
1BF80
  8
0
 10
237.59999945760001
 20
82.447594404200004
 30
0.0
 11
200.0
 21
82.447594404200004
 31
0.0
  0
LINE
  5
1BF81
  8
0
 10
200.0
 20
85.947595909200004
 30
0.0
 11
200.0
 21
82.447594404200004
 31
0.0
  0
LINE
  5
1BF83
  8
0
 10
202.95000150799979
 20
91.301998495999996
 30
0.0
 11
202.95000150799979
 21
94.201999157599985
 31
0.0
  0
ARC
  5
1BF84
  8
0
 10
205.70000083849979
 20
91.301999300599988
 30
0.0
 40
2.75
 50
180.0
 51
0.0
  0
LINE
  5
1BF85
  8
0
 10
208.45000147819971
 20
94.201999157599985
 30
0.0
 11
208.45000147819971
 21
91.301998495999996
 31
0.0
  0
ARC
  5
1BF86
  8
0
 10
205.70000083849979
 20
94.201999300599994
 30
0.0
 40
2.75
 50
0.0
 51
180.0
  0
LINE
  5
1BF87
  8
0
 10
229.14999797939981
 20
91.301998495999996
 30
0.0
 11
229.14999797939981
 21
94.201999157599985
 31
0.0
  0
ARC
  5
1BF88
  8
0
 10
231.90000083849989
 20
91.301999300599988
 30
0.0
 40
2.75
 50
180.0
 51
0.0
  0
LINE
  5
1BF89
  8
0
 10
234.65000167489981
 20
94.201999157599985
 30
0.0
 11
234.65000167489981
 21
91.301998495999996
 31
0.0
  0
ARC
  5
1BF8A
  8
0
 10
231.90000083849989
 20
94.201999300599994
 30
0.0
 40
2.75
 50
0.0
 51
180.0
  0
CIRCLE
  5
1BF8B
  8
0
 10
218.8000008384997
 20
94.201999300599994
 30
0.0
 40
2.350000000000009
  0
ARC
  5
1BF8C
  8
0
 10
234.60000083849991
 20
96.999999300599995
 30
0.0
 40
3.0
 50
0.0
 51
90.0
  0
ARC
  5
1BF8D
  8
0
 10
203.0000008385
 20
96.999999300599995
 30
0.0
 40
3.0
 50
90.0
 51
180.0
  0
LINE
  5
1BF8E
  8
0
 10
203.00000235439981
 20
100.0
 30
0.0
 11
234.60000082849999
 21
100.0
 31
0.0
  0
LINE
  5
1BF8F
  8
0
 10
200.0
 20
85.947595909200004
 30
0.0
 11
200.0
 21
96.999999508200005
 31
0.0
  0
LINE
  5
1BF90
  8
0
 10
237.59999945760001
 20
96.999999508200005
 30
0.0
 11
237.59999945760001
 21
82.447594404200004
 31
0.0
  0
LINE
  5
1BF91
  8
0
 10
237.61140629649981
 20
85.447594895899996
 30
0.0
 11
237.59999945760001
 21
85.447594895899996
 31
0.0
  0
LINE
  5
1BF93
  8
0
 10
197.09999933839981
 20
82.447594404200004
 30
0.0
 11
197.09999933839981
 21
85.447594895899996
 31
0.0
  0
LINE
  5
1BF94
  8
0
 10
200.0
 20
85.447594895899996
 30
0.0
 11
197.09999933839981
 21
85.447594895899996
 31
0.0
  0
POLYLINE
  5
1BFAC
  8
0
 66
     1
 10
0.0
 20
0.0
 30
0.0
 70
   128
  0
VERTEX
  5
1DB1E
  8
0
 10
302.60018333789998
 20
79.447595775103835
 30
0.0
  0
VERTEX
  5
1DB1F
  8
0
 10
302.55409404629972
 20
78.264078497803837
 30
0.0
  0
VERTEX
  5
1DB20
  8
0
 10
302.43814811110002
 20
77.111391723103836
 30
0.0
  0
VERTEX
  5
1DB21
  8
0
 10
302.24096104500001
 20
76.042199879803832
 30
0.0
  0
VERTEX
  5
1DB22
  8
0
 10
301.95274278519992
 20
75.085701793403842
 30
0.0
  0
VERTEX
  5
1DB23
  8
0
 10
301.58256813879979
 20
74.283657968003837
 30
0.0
  0
VERTEX
  5
1DB24
  8
0
 10
301.11248120660002
 20
73.644729703603829
 30
0.0
  0
VERTEX
  5
1DB25
  8
0
 10
300.80495104189981
 20
73.392844200103823
 30
0.0
  0
VERTEX
  5
1DB26
  8
0
 10
300.44660791749988
 20
73.18696230650383
 30
0.0
  0
VERTEX
  5
1DB27
  8
0
 10
300.01349076629981
 20
73.06398302310383
 30
0.0
  0
VERTEX
  5
1DB28
  8
0
 10
299.53978285189987
 20
73.05578738450383
 30
0.0
  0
VERTEX
  5
1DB29
  8
0
 10
299.11276027559978
 20
73.162021487903843
 30
0.0
  0
VERTEX
  5
1DB2A
  8
0
 10
298.78339990969988
 20
73.340902477503832
 30
0.0
  0
VERTEX
  5
1DB2B
  8
0
 10
298.32149371499992
 20
73.825801163903833
 30
0.0
  0
VERTEX
  5
1DB2C
  8
0
 10
298.02709147329978
 20
74.44729879490383
 30
0.0
  0
VERTEX
  5
1DB2D
  8
0
 10
297.8127084671998
 20
75.209377706003835
 30
0.0
  0
VERTEX
  5
1DB2E
  8
0
 10
297.68272563809978
 20
76.111069321603836
 30
0.0
  0
VERTEX
  5
1DB2F
  8
0
 10
297.60820493099982
 20
77.147076278903825
 30
0.0
  0
VERTEX
  5
1DB30
  8
0
 10
297.59889170529982
 20
77.783475071103837
 30
0.0
  0
SEQEND
  5
1DB31
  8
0
  0
POLYLINE
  5
1BFB2
  8
0
 66
     1
 10
0.0
 20
0.0
 30
0.0
 70
   128
  0
VERTEX
  5
1DB32
  8
0
 10
293.64680573340002
 20
74.832173436803828
 30
0.0
  0
VERTEX
  5
1DB33
  8
0
 10
293.57742592689988
 20
74.576368927903843
 30
0.0
  0
VERTEX
  5
1DB34
  8
0
 10
293.29951927059977
 20
73.998364061103828
 30
0.0
  0
VERTEX
  5
1DB35
  8
0
 10
292.9017923771998
 20
73.553128540503835
 30
0.0
  0
VERTEX
  5
1DB36
  8
0
 10
292.62735769149981
 20
73.388817161303834
 30
0.0
  0
VERTEX
  5
1DB37
  8
0
 10
292.27485582229968
 20
73.274696618303835
 30
0.0
  0
VERTEX
  5
1DB38
  8
0
 10
291.83290228249979
 20
73.246689885803832
 30
0.0
  0
VERTEX
  5
1DB39
  8
0
 10
291.3535319268999
 20
73.328527063103834
 30
0.0
  0
VERTEX
  5
1DB3A
  8
0
 10
290.91975912449988
 20
73.512697964903836
 30
0.0
  0
VERTEX
  5
1DB3B
  8
0
 10
290.55816754699981
 20
73.763812333303832
 30
0.0
  0
VERTEX
  5
1DB3C
  8
0
 10
290.00379964709992
 20
74.387437105103842
 30
0.0
  0
VERTEX
  5
1DB3D
  8
0
 10
289.60796520109989
 20
75.169826298903828
 30
0.0
  0
VERTEX
  5
1DB3E
  8
0
 10
289.30752798909998
 20
76.088047027503833
 30
0.0
  0
VERTEX
  5
1DB3F
  8
0
 10
289.11200985309978
 20
77.130237966703831
 30
0.0
  0
VERTEX
  5
1DB40
  8
0
 10
289.02026340359998
 20
78.25978696340384
 30
0.0
  0
VERTEX
  5
1DB41
  8
0
 10
289.01583077828718
 20
79.447595775103835
 30
0.0
  0
SEQEND
  5
1DB42
  8
0
  0
POLYLINE
  5
1BFC2
  8
0
 66
     1
 10
0.0
 20
0.0
 30
0.0
 70
   128
  0
VERTEX
  5
1DB43
  8
0
 10
286.07533201569981
 20
74.915135651803837
 30
0.0
  0
VERTEX
  5
1DB44
  8
0
 10
285.87433025239989
 20
74.234484136103831
 30
0.0
  0
VERTEX
  5
1DB45
  8
0
 10
285.53849533199991
 20
73.639611154803831
 30
0.0
  0
VERTEX
  5
1DB46
  8
0
 10
285.01552417869988
 20
73.222728818603827
 30
0.0
  0
VERTEX
  5
1DB47
  8
0
 10
284.63023230429991
 20
73.096165806003825
 30
0.0
  0
VERTEX
  5
1DB48
  8
0
 10
284.13730189199993
 20
73.045602440803833
 30
0.0
  0
VERTEX
  5
1DB49
  8
0
 10
283.5906602441998
 20
73.083175718703842
 30
0.0
  0
VERTEX
  5
1DB4A
  8
0
 10
283.07899907229989
 20
73.201524466203836
 30
0.0
  0
VERTEX
  5
1DB4B
  8
0
 10
282.26836100219998
 20
73.610606044503839
 30
0.0
  0
VERTEX
  5
1DB4C
  8
0
 10
281.67403563859989
 20
74.201872944803839
 30
0.0
  0
VERTEX
  5
1DB4D
  8
0
 10
281.22691139579979
 20
74.972654134003832
 30
0.0
  0
VERTEX
  5
1DB4E
  8
0
 10
280.89688792819987
 20
75.906897336203841
 30
0.0
  0
VERTEX
  5
1DB4F
  8
0
 10
280.66926524039991
 20
76.993486285203815
 30
0.0
  0
VERTEX
  5
1DB50
  8
0
 10
280.53876832129981
 20
78.189207613403823
 30
0.0
  0
VERTEX
  5
1DB51
  8
0
 10
280.49932494759992
 20
79.447595775103835
 30
0.0
  0
VERTEX
  5
1DB52
  8
0
 10
280.49932494759992
 20
79.447595775103835
 30
0.0
  0
SEQEND
  5
1DB53
  8
0
  0
POLYLINE
  5
1BFC9
  8
0
 66
     1
 10
0.0
 20
0.0
 30
0.0
 70
   128
  0
VERTEX
  5
1DB54
  8
0
 10
278.4503482281998
 20
75.198086351103839
 30
0.0
  0
VERTEX
  5
1DB55
  8
0
 10
278.32557335489992
 20
74.209919571803823
 30
0.0
  0
VERTEX
  5
1DB56
  8
0
 10
278.12635973089982
 20
73.49466755980383
 30
0.0
  0
VERTEX
  5
1DB57
  8
0
 10
277.79668644069989
 20
73.055645823403836
 30
0.0
  0
VERTEX
  5
1DB58
  8
0
 10
277.21611484879992
 20
72.882300615303834
 30
0.0
  0
VERTEX
  5
1DB59
  8
0
 10
276.4245130121999
 20
72.89719432590384
 30
0.0
  0
VERTEX
  5
1DB5A
  8
0
 10
275.75025036929992
 20
72.92663902040384
 30
0.0
  0
VERTEX
  5
1DB5B
  8
0
 10
274.88504424690001
 20
72.987011075003835
 30
0.0
  0
VERTEX
  5
1DB5C
  8
0
 10
274.03173670169991
 20
73.202779889103823
 30
0.0
  0
VERTEX
  5
1DB5D
  8
0
 10
273.41060414909998
 20
73.634012043403843
 30
0.0
  0
VERTEX
  5
1DB5E
  8
0
 10
272.93533161279993
 20
74.315702915103842
 30
0.0
  0
VERTEX
  5
1DB5F
  8
0
 10
272.58516922589979
 20
75.263867527203843
 30
0.0
  0
VERTEX
  5
1DB60
  8
0
 10
272.34098389739978
 20
76.470112800603815
 30
0.0
  0
VERTEX
  5
1DB61
  8
0
 10
272.19530269500001
 20
77.892667055103843
 30
0.0
  0
VERTEX
  5
1DB62
  8
0
 10
272.14595749969982
 20
79.447595775103835
 30
0.0
  0
SEQEND
  5
1DB63
  8
0
  0
LINE
  5
1C361
  8
1
 10
132.0
 20
79.447595775103835
 30
0.0
 11
314.98637601735459
 21
79.447595775103835
 31
0.0
  0
LINE
  5
1C362
  8
0
 10
253.72023496999759
 20
79.447595775103835
 30
0.0
 11
261.84637918917451
 21
79.447595775103835
 31
0.0
  0
ARC
  5
1C9C2
  8
0
 10
271.2182528885275
 20
184.12892990995161
 30
0.0
 40
0.1739999999999991
 50
93.212153002693995
 51
179.15822603199939
  0
LINE
  5
1C9C3
  8
0
 10
271.2085030972998
 20
184.30265653879999
 30
0.0
 11
298.35996849748699
 21
185.82643624311811
 31
0.0
  0
LINE
  5
1C9C6
  8
0
 10
298.35996849748699
 20
185.8264362431182
 30
0.0
 11
298.35996851319987
 21
185.82643624400001
 31
0.0
  0
ARC
  5
1C9C7
  8
0
 10
299.44607673203012
 20
175.05738761634311
 30
0.0
 40
10.82367956879032
 50
71.437557691928362
 51
95.759069865090737
  0
ARC
  5
1C9C8
  8
0
 10
299.47876679003912
 20
175.32846095712841
 30
0.0
 40
10.55644657611362
 50
54.252186057639641
 51
71.137393055111048
  0
ARC
  5
1C9C9
  8
0
 10
299.55072999852769
 20
175.4400935604053
 30
0.0
 40
10.42380594557334
 50
36.25410869651715
 51
54.214738725890861
  0
ARC
  5
1C9CA
  8
0
 10
299.53224623898018
 20
175.41371033086079
 30
0.0
 40
10.4543185920343
 50
17.821822118436462
 51
36.31080425975582
  0
ARC
  5
1C9CB
  8
0
 10
299.51799947730979
 20
175.40842941990101
 30
0.0
 40
10.469497978716729
 50
359.1613778035715
 51
17.825473250119838
  0
ARC
  5
1C9D2
  8
0
 10
272.15927437010129
 20
63.58715983968078
 30
0.0
 40
105.3924508024573
 50
86.529327908965968
 51
89.925420116325995
  0
ARC
  5
1C9D3
  8
0
 10
277.30372225360537
 20
133.6192948720516
 30
0.0
 40
35.143255190249469
 50
74.965894698940659
 51
84.35705573165302
  0
ARC
  5
1C9D4
  8
0
 10
314.66589569684112
 20
222.8994489115382
 30
0.0
 40
61.739142071800288
 50
245.774860844134
 51
250.54408439258279
  0
ARC
  5
1C9D5
  8
0
 10
297.52550443723158
 20
176.77305253399871
 30
0.0
 40
12.63315647360789
 50
271.93897532122259
 51
291.81998013346288
  0
LINE
  5
1C9D7
  8
1
 10
380.53597882385498
 20
145.0
 30
0.0
 11
380.53597882385498
 21
210.0465046145477
 31
0.0
  0
ARC
  5
1C9D9
  8
0
 10
334.35497735209839
 20
157.2487300409189
 30
0.0
 40
57.950031224293127
 50
23.217691613700449
 51
24.845795732473022
  0
ARC
  5
1C9DA
  8
0
 10
383.00547763219402
 20
179.85811660699241
 30
0.0
 40
4.3032226701301139
 50
23.849031268521578
 51
37.827729597312178
  0
ARC
  5
1C9DC
  8
0
 10
381.9442830995352
 20
177.84344320460411
 30
0.0
 40
6.0981011742684821
 50
358.03012780642672
 51
21.65880069496621
  0
ARC
  5
1CA30
  8
0
 10
380.63018559769921
 20
172.15339023422189
 30
0.0
 40
7.8022559323955836
 50
269.30817679515462
 51
287.11562474495008
  0
ARC
  5
1CA31
  8
0
 10
381.00929936691023
 20
170.85693570225561
 30
0.0
 40
6.4516728436266106
 50
287.28634822951449
 51
308.43780864420052
  0
ARC
  5
1CA32
  8
0
 10
379.47457712976779
 20
172.17280867282639
 30
0.0
 40
8.4451958899196047
 50
311.04454054330012
 51
335.53944593623243
  0
ARC
  5
1CA33
  8
0
 10
376.47279200049229
 20
172.57058771303031
 30
0.0
 40
11.376420806996361
 50
330.04430675961049
 51
339.98023199402542
  0
ARC
  5
1CA34
  8
0
 10
378.86266398571951
 20
171.1191219413183
 30
0.0
 40
8.5812872997865561
 50
314.78380005855041
 51
330.47317622632789
  0
ARC
  5
1CA35
  8
0
 10
380.51677481234742
 20
169.4631697868017
 30
0.0
 40
6.2407356124375459
 50
292.48176789694128
 51
314.71466876817442
  0
ARC
  5
1CA36
  8
0
 10
380.5785299865409
 20
169.48390595895151
 30
0.0
 40
6.2366199781902303
 50
269.60907976448351
 51
291.88468388193837
  0
ARC
  5
1CA96
  8
0
 10
380.52657850064338
 20
178.3563143750053
 30
0.0
 40
7.174644941983626
 50
89.924930222398245
 51
144.74891215664249
  0
ARC
  5
1CA97
  8
0
 10
411.68510514104469
 20
176.8960408558263
 30
0.0
 40
38.658968808877638
 50
178.90647344460871
 51
192.2765971751094
  0
POLYLINE
  5
1CA98
  8
0
 66
     1
 10
0.0
 20
0.0
 30
0.0
 70
   128
  0
VERTEX
  5
1DB64
  8
0
 10
376.05768069615488
 20
179.2968703434
 30
0.0
  0
VERTEX
  5
1DB65
  8
0
 10
376.26054510465502
 20
179.21201195570001
 30
0.0
  0
VERTEX
  5
1DB66
  8
0
 10
376.50248035785489
 20
179.21930421139999
 30
0.0
  0
VERTEX
  5
1DB67
  8
0
 10
376.74565240735478
 20
179.31113261729999
 30
0.0
  0
VERTEX
  5
1DB68
  8
0
 10
376.98262557385488
 20
179.48912326249999
 30
0.0
  0
VERTEX
  5
1DB69
  8
0
 10
377.15308368195502
 20
179.7101931647
 30
0.0
  0
VERTEX
  5
1DB6A
  8
0
 10
377.2636130451549
 20
179.9601936713
 30
0.0
  0
VERTEX
  5
1DB6B
  8
0
 10
377.3001916705548
 20
180.23122157899999
 30
0.0
  0
VERTEX
  5
1DB6C
  8
0
 10
377.25318595755488
 20
180.45444842430001
 30
0.0
  0
VERTEX
  5
1DB6D
  8
0
 10
377.13023275125488
 20
180.64254205669999
 30
0.0
  0
VERTEX
  5
1DB6E
  8
0
 10
377.06730887285471
 20
180.6956013665
 30
0.0
  0
VERTEX
  5
1DB6F
  8
0
 10
376.85269489875492
 20
180.7839708402999
 30
0.0
  0
VERTEX
  5
1DB70
  8
0
 10
376.60238891835479
 20
180.77631164339999
 30
0.0
  0
VERTEX
  5
1DB71
  8
0
 10
376.35365873565479
 20
180.67103307689999
 30
0.0
  0
VERTEX
  5
1DB72
  8
0
 10
376.14684551945493
 20
180.50164598969999
 30
0.0
  0
VERTEX
  5
1DB73
  8
0
 10
375.96849724645489
 20
180.26146348570001
 30
0.0
  0
VERTEX
  5
1DB74
  8
0
 10
375.86661055675472
 20
180.0038615242
 30
0.0
  0
VERTEX
  5
1DB75
  8
0
 10
375.83873420945503
 20
179.7606019303
 30
0.0
  0
VERTEX
  5
1DB76
  8
0
 10
375.88501721615489
 20
179.51967623089999
 30
0.0
  0
VERTEX
  5
1DB77
  8
0
 10
376.01061165325501
 20
179.33514956389999
 30
0.0
  0
VERTEX
  5
1DB78
  8
0
 10
376.05768069615488
 20
179.2968703434
 30
0.0
  0
SEQEND
  5
1DB79
  8
0
  0
POLYLINE
  5
1CA99
  8
0
 66
     1
 10
0.0
 20
0.0
 30
0.0
 70
   128
  0
VERTEX
  5
1DB7A
  8
0
 10
373.68298694485497
 20
177.75986958300001
 30
0.0
  0
VERTEX
  5
1DB7B
  8
0
 10
373.73795360315489
 20
177.7330772951
 30
0.0
  0
VERTEX
  5
1DB7C
  8
0
 10
373.86646494265477
 20
177.7443816885
 30
0.0
  0
VERTEX
  5
1DB7D
  8
0
 10
374.0069642662549
 20
177.8399782255
 30
0.0
  0
VERTEX
  5
1DB7E
  8
0
 10
374.14914742105481
 20
178.0038798228
 30
0.0
  0
VERTEX
  5
1DB7F
  8
0
 10
374.29309636345488
 20
178.24944350870001
 30
0.0
  0
VERTEX
  5
1DB80
  8
0
 10
374.4003660976548
 20
178.5317776725
 30
0.0
  0
VERTEX
  5
1DB81
  8
0
 10
374.45979937905491
 20
178.82475685329999
 30
0.0
  0
VERTEX
  5
1DB82
  8
0
 10
374.46042895305482
 20
179.08885944639999
 30
0.0
  0
VERTEX
  5
1DB83
  8
0
 10
374.40720573065482
 20
179.2898220941
 30
0.0
  0
VERTEX
  5
1DB84
  8
0
 10
374.30853396645489
 20
179.41257786009999
 30
0.0
  0
VERTEX
  5
1DB85
  8
0
 10
374.17851760975492
 20
179.43838667130001
 30
0.0
  0
VERTEX
  5
1DB86
  8
0
 10
374.03245642775482
 20
179.37509212640001
 30
0.0
  0
VERTEX
  5
1DB87
  8
0
 10
373.87709692115482
 20
179.21796869490001
 30
0.0
  0
VERTEX
  5
1DB88
  8
0
 10
373.7452812492549
 20
179.00030743330001
 30
0.0
  0
VERTEX
  5
1DB89
  8
0
 10
373.63431602705492
 20
178.72465271499999
 30
0.0
  0
VERTEX
  5
1DB8A
  8
0
 10
373.56489151705478
 20
178.43264397230001
 30
0.0
  0
VERTEX
  5
1DB8B
  8
0
 10
373.54426085945488
 20
178.17488368599999
 30
0.0
  0
VERTEX
  5
1DB8C
  8
0
 10
373.5709041356547
 20
177.9465159401
 30
0.0
  0
VERTEX
  5
1DB8D
  8
0
 10
373.64853546015479
 20
177.79068704700001
 30
0.0
  0
VERTEX
  5
1DB8E
  8
0
 10
373.68298694485497
 20
177.75986958300001
 30
0.0
  0
SEQEND
  5
1DB8F
  8
0
  0
POLYLINE
  5
1CA9A
  8
0
 66
     1
 10
0.0
 20
0.0
 30
0.0
 70
   128
  0
VERTEX
  5
1DB90
  8
0
 10
376.27397105095469
 20
182.35816676170001
 30
0.0
  0
VERTEX
  5
1DB91
  8
0
 10
376.44147872915482
 20
182.2977965698
 30
0.0
  0
VERTEX
  5
1DB92
  8
0
 10
376.66735798115479
 20
182.31250774119999
 30
0.0
  0
VERTEX
  5
1DB93
  8
0
 10
376.91826745865478
 20
182.39451441910001
 30
0.0
  0
VERTEX
  5
1DB94
  8
0
 10
377.18832865355489
 20
182.54359122369999
 30
0.0
  0
VERTEX
  5
1DB95
  8
0
 10
377.41843238465481
 20
182.7302692458
 30
0.0
  0
VERTEX
  5
1DB96
  8
0
 10
377.59959325185491
 20
182.9429218546
 30
0.0
  0
VERTEX
  5
1DB97
  8
0
 10
377.70124897355481
 20
183.1559451297
 30
0.0
  0
VERTEX
  5
1DB98
  8
0
 10
377.71300226445487
 20
183.32953061910001
 30
0.0
  0
VERTEX
  5
1DB99
  8
0
 10
377.64285132285482
 20
183.47600903360001
 30
0.0
  0
VERTEX
  5
1DB9A
  8
0
 10
377.6111342012548
 20
183.50423183289999
 30
0.0
  0
VERTEX
  5
1DB9B
  8
0
 10
377.44227424255467
 20
183.5702421144
 30
0.0
  0
VERTEX
  5
1DB9C
  8
0
 10
377.22097337235482
 20
183.5665373132
 30
0.0
  0
VERTEX
  5
1DB9D
  8
0
 10
376.95576995605478
 20
183.4873935208
 30
0.0
  0
VERTEX
  5
1DB9E
  8
0
 10
376.69293582435489
 20
183.3413286135
 30
0.0
  0
VERTEX
  5
1DB9F
  8
0
 10
376.45247206085492
 20
183.13747327780001
 30
0.0
  0
VERTEX
  5
1DBA0
  8
0
 10
376.28632783885467
 20
182.9229766503
 30
0.0
  0
VERTEX
  5
1DBA1
  8
0
 10
376.1911392211548
 20
182.7146174385999
 30
0.0
  0
VERTEX
  5
1DBA2
  8
0
 10
376.17338076225468
 20
182.5192837045
 30
0.0
  0
VERTEX
  5
1DBA3
  8
0
 10
376.23943015925488
 20
182.3875797913
 30
0.0
  0
VERTEX
  5
1DBA4
  8
0
 10
376.27397105095469
 20
182.35816676170001
 30
0.0
  0
SEQEND
  5
1DBA5
  8
0
  0
POLYLINE
  5
1CA9B
  8
0
 66
     1
 10
0.0
 20
0.0
 30
0.0
 70
   128
  0
VERTEX
  5
1DBA6
  8
0
 10
373.90008568755479
 20
180.7557778433
 30
0.0
  0
VERTEX
  5
1DBA7
  8
0
 10
373.98023903365493
 20
180.75758088379999
 30
0.0
  0
VERTEX
  5
1DBA8
  8
0
 10
374.10634011025491
 20
180.84733244029999
 30
0.0
  0
VERTEX
  5
1DBA9
  8
0
 10
374.2570355533548
 20
181.0049271211
 30
0.0
  0
VERTEX
  5
1DBAA
  8
0
 10
374.43236634125492
 20
181.23314213009999
 30
0.0
  0
VERTEX
  5
1DBAB
  8
0
 10
374.59029257295492
 20
181.48311469699999
 30
0.0
  0
VERTEX
  5
1DBAC
  8
0
 10
374.72393736235489
 20
181.74057323490001
 30
0.0
  0
VERTEX
  5
1DBAD
  8
0
 10
374.81807544825477
 20
181.98425192389999
 30
0.0
  0
VERTEX
  5
1DBAE
  8
0
 10
374.85321238625488
 20
182.16328006239999
 30
0.0
  0
VERTEX
  5
1DBAF
  8
0
 10
374.83434006565471
 20
182.28258248419999
 30
0.0
  0
VERTEX
  5
1DBB0
  8
0
 10
374.81612339605482
 20
182.3025016114
 30
0.0
  0
VERTEX
  5
1DBB1
  8
0
 10
374.72559139125468
 20
182.30376075949999
 30
0.0
  0
VERTEX
  5
1DBB2
  8
0
 10
374.59610775105489
 20
182.2179878131
 30
0.0
  0
VERTEX
  5
1DBB3
  8
0
 10
374.4384422897549
 20
182.04749431459999
 30
0.0
  0
VERTEX
  5
1DBB4
  8
0
 10
374.2845989763548
 20
181.83049429210001
 30
0.0
  0
VERTEX
  5
1DBB5
  8
0
 10
374.12968650455491
 20
181.56408388169999
 30
0.0
  0
VERTEX
  5
1DBB6
  8
0
 10
374.00254979725491
 20
181.2971910462
 30
0.0
  0
VERTEX
  5
1DBB7
  8
0
 10
373.91608208415482
 20
181.0658337548
 30
0.0
  0
VERTEX
  5
1DBB8
  8
0
 10
373.87287989255492
 20
180.875810422
 30
0.0
  0
VERTEX
  5
1DBB9
  8
0
 10
373.88576567165478
 20
180.77169787139999
 30
0.0
  0
VERTEX
  5
1DBBA
  8
0
 10
373.90008568755479
 20
180.7557778433
 30
0.0
  0
SEQEND
  5
1DBBB
  8
0
  0
ARC
  5
1CA9C
  8
0
 10
379.12767454817441
 20
177.84344320460411
 30
0.0
 40
6.0981011742684821
 50
158.3411993050311
 51
181.969872193573
  0
ARC
  5
1CA9D
  8
0
 10
426.71698029561111
 20
157.2487300409189
 30
0.0
 40
57.950031224293127
 50
155.15420426753141
 51
156.7823083862921
  0
ARC
  5
1CA9E
  8
0
 10
378.06648001551548
 20
179.85811660699241
 30
0.0
 40
4.3032226701301139
 50
142.17227040268671
 51
156.150968731478
  0
ARC
  5
1CA9F
  8
0
 10
380.44177205001029
 20
172.15339023422189
 30
0.0
 40
7.8022559323955836
 50
252.88437525506291
 51
270.69182320483242
  0
ARC
  5
1CAA0
  8
0
 10
380.06265828079933
 20
170.85693570225561
 30
0.0
 40
6.4516728436266106
 50
231.5621913558131
 51
252.7136517704987
  0
ARC
  5
1CAA1
  8
0
 10
381.5973805179417
 20
172.17280867282639
 30
0.0
 40
8.4451958899196047
 50
204.46055406376311
 51
228.9554594566988
  0
ARC
  5
1CAA2
  8
0
 10
384.59916564721721
 20
172.57058771303031
 30
0.0
 40
11.376420806996361
 50
200.0197680059712
 51
209.95569324038959
  0
ARC
  5
1CAA3
  8
0
 10
382.20929366198988
 20
171.1191219413183
 30
0.0
 40
8.5812872997865561
 50
209.5268237736739
 51
225.21619994145149
  0
ARC
  5
1CAA4
  8
0
 10
380.55518283536207
 20
169.4631697868017
 30
0.0
 40
6.2407356124375459
 50
225.28533123181219
 51
247.5182321030583
  0
ARC
  5
1CAA5
  8
0
 10
380.49342766116871
 20
169.48390595895151
 30
0.0
 40
6.2366199781902303
 50
248.11531611806089
 51
270.39092023552951
  0
LINE
  5
1CAA8
  8
0
 10
193.16038750109979
 20
189.44684099634489
 30
0.0
 11
193.16038750109979
 21
176.946840996345
 31
0.0
  0
LINE
  5
1CAA9
  8
0
 10
195.97709569372631
 20
189.446840996345
 30
0.0
 11
170.7374733923227
 21
189.44684099634469
 31
0.0
  0
LINE
  5
1CAAA
  8
0
 10
197.09999933839981
 20
176.946840996345
 30
0.0
 11
170.73744998579579
 21
176.9468409963446
 31
0.0
  0
LINE
  5
1CAAB
  8
0
 10
137.0
 20
189.44684099634441
 30
0.0
 11
137.0
 21
176.94684099634409
 31
0.0
  0
POLYLINE
  5
1CBF4
  8
0
 66
     1
 10
0.0
 20
0.0
 30
0.0
 70
   128
  0
VERTEX
  5
1DBBC
  8
0
 10
297.59889170529982
 20
81.111716479103833
 30
0.0
  0
VERTEX
  5
1DBBD
  8
0
 10
297.6212602071048
 20
79.447595775103835
 30
0.0
  0
SEQEND
  5
1DBBE
  8
0
  0
ARC
  5
1CBF5
  8
0
 10
274.76473579989988
 20
79.625557953103836
 30
0.0
 40
19.396484672410072
 50
359.4743055276885
 51
13.22505075690046
  0
ARC
  5
1CBF6
  8
0
 10
264.30767650109988
 20
79.799180777803841
 30
0.0
 40
22.16552601175146
 50
359.0911480473228
 51
10.87229573390311
  0
ARC
  5
1CBF7
  8
0
 10
222.78571677989979
 20
79.887174699303813
 30
0.0
 40
55.794863246467287
 50
359.54859146150102
 51
3.915466843898979
  0
POLYLINE
  5
1CBF8
  8
0
 66
     1
 10
0.0
 20
0.0
 30
0.0
 70
   128
  0
VERTEX
  5
1DBBF
  8
0
 10
302.60018333789998
 20
79.447595775103835
 30
0.0
  0
VERTEX
  5
1DBC0
  8
0
 10
302.55409404629972
 20
80.631113052403833
 30
0.0
  0
VERTEX
  5
1DBC1
  8
0
 10
302.43814811110002
 20
81.783799827103834
 30
0.0
  0
VERTEX
  5
1DBC2
  8
0
 10
302.24096104500001
 20
82.852991670403824
 30
0.0
  0
VERTEX
  5
1DBC3
  8
0
 10
301.95274278519992
 20
83.809489756803814
 30
0.0
  0
VERTEX
  5
1DBC4
  8
0
 10
301.58256813879979
 20
84.611533582203833
 30
0.0
  0
VERTEX
  5
1DBC5
  8
0
 10
301.11248120660002
 20
85.250461846603841
 30
0.0
  0
VERTEX
  5
1DBC6
  8
0
 10
300.80495104189981
 20
85.502347350103818
 30
0.0
  0
VERTEX
  5
1DBC7
  8
0
 10
300.44660791749988
 20
85.70822924370384
 30
0.0
  0
VERTEX
  5
1DBC8
  8
0
 10
300.01349076629981
 20
85.831208527103854
 30
0.0
  0
VERTEX
  5
1DBC9
  8
0
 10
299.53978285189987
 20
85.839404165703826
 30
0.0
  0
VERTEX
  5
1DBCA
  8
0
 10
299.11276027559978
 20
85.733170062303813
 30
0.0
  0
VERTEX
  5
1DBCB
  8
0
 10
298.78339990969988
 20
85.554289072703838
 30
0.0
  0
VERTEX
  5
1DBCC
  8
0
 10
298.32149371499992
 20
85.069390386303823
 30
0.0
  0
VERTEX
  5
1DBCD
  8
0
 10
298.02709147329978
 20
84.44789275530384
 30
0.0
  0
VERTEX
  5
1DBCE
  8
0
 10
297.8127084671998
 20
83.685813844203835
 30
0.0
  0
VERTEX
  5
1DBCF
  8
0
 10
297.68272563809978
 20
82.784122228603835
 30
0.0
  0
VERTEX
  5
1DBD0
  8
0
 10
297.60820493099982
 20
81.748115271303845
 30
0.0
  0
VERTEX
  5
1DBD1
  8
0
 10
297.59889170529982
 20
81.111716479103833
 30
0.0
  0
SEQEND
  5
1DBD2
  8
0
  0
POLYLINE
  5
1CBF9
  8
0
 66
     1
 10
0.0
 20
0.0
 30
0.0
 70
   128
  0
VERTEX
  5
1DBD3
  8
0
 10
293.64680573340002
 20
84.063018113403842
 30
0.0
  0
VERTEX
  5
1DBD4
  8
0
 10
293.57742592689988
 20
84.318822622303827
 30
0.0
  0
VERTEX
  5
1DBD5
  8
0
 10
293.29951927059977
 20
84.896827489103842
 30
0.0
  0
VERTEX
  5
1DBD6
  8
0
 10
292.9017923771998
 20
85.342063009703836
 30
0.0
  0
VERTEX
  5
1DBD7
  8
0
 10
292.62735769149981
 20
85.506374388903836
 30
0.0
  0
VERTEX
  5
1DBD8
  8
0
 10
292.27485582229968
 20
85.620494931903835
 30
0.0
  0
VERTEX
  5
1DBD9
  8
0
 10
291.83290228249979
 20
85.648501664403838
 30
0.0
  0
VERTEX
  5
1DBDA
  8
0
 10
291.3535319268999
 20
85.566664487103836
 30
0.0
  0
VERTEX
  5
1DBDB
  8
0
 10
290.91975912449988
 20
85.382493585303834
 30
0.0
  0
VERTEX
  5
1DBDC
  8
0
 10
290.55816754699981
 20
85.131379216903838
 30
0.0
  0
VERTEX
  5
1DBDD
  8
0
 10
290.00379964709992
 20
84.507754445103814
 30
0.0
  0
VERTEX
  5
1DBDE
  8
0
 10
289.60796520109989
 20
83.725365251303828
 30
0.0
  0
VERTEX
  5
1DBDF
  8
0
 10
289.30752798909998
 20
82.807144522703837
 30
0.0
  0
VERTEX
  5
1DBE0
  8
0
 10
289.11200985309978
 20
81.764953583503839
 30
0.0
  0
VERTEX
  5
1DBE1
  8
0
 10
289.02026340359998
 20
80.635404586803844
 30
0.0
  0
VERTEX
  5
1DBE2
  8
0
 10
289.01583077828718
 20
79.447595775103835
 30
0.0
  0
SEQEND
  5
1DBE3
  8
0
  0
POLYLINE
  5
1CBFA
  8
0
 66
     1
 10
0.0
 20
0.0
 30
0.0
 70
   128
  0
VERTEX
  5
1DBE4
  8
0
 10
286.07533201569981
 20
83.980055898403833
 30
0.0
  0
VERTEX
  5
1DBE5
  8
0
 10
285.87433025239989
 20
84.660707414103825
 30
0.0
  0
VERTEX
  5
1DBE6
  8
0
 10
285.53849533199991
 20
85.255580395403825
 30
0.0
  0
VERTEX
  5
1DBE7
  8
0
 10
285.01552417869988
 20
85.672462731603844
 30
0.0
  0
VERTEX
  5
1DBE8
  8
0
 10
284.63023230429991
 20
85.799025744203846
 30
0.0
  0
VERTEX
  5
1DBE9
  8
0
 10
284.13730189199993
 20
85.849589109403837
 30
0.0
  0
VERTEX
  5
1DBEA
  8
0
 10
283.5906602441998
 20
85.812015831503828
 30
0.0
  0
VERTEX
  5
1DBEB
  8
0
 10
283.07899907229989
 20
85.693667084003835
 30
0.0
  0
VERTEX
  5
1DBEC
  8
0
 10
282.26836100219998
 20
85.284585505703816
 30
0.0
  0
VERTEX
  5
1DBED
  8
0
 10
281.67403563859989
 20
84.693318605403846
 30
0.0
  0
VERTEX
  5
1DBEE
  8
0
 10
281.22691139579979
 20
83.922537416203838
 30
0.0
  0
VERTEX
  5
1DBEF
  8
0
 10
280.89688792819987
 20
82.988294214003815
 30
0.0
  0
VERTEX
  5
1DBF0
  8
0
 10
280.66926524039991
 20
81.901705265003841
 30
0.0
  0
VERTEX
  5
1DBF1
  8
0
 10
280.53876832129981
 20
80.705983936803818
 30
0.0
  0
VERTEX
  5
1DBF2
  8
0
 10
280.49932494759992
 20
79.447595775103835
 30
0.0
  0
VERTEX
  5
1DBF3
  8
0
 10
280.49932494759992
 20
79.447595775103835
 30
0.0
  0
SEQEND
  5
1DBF4
  8
0
  0
POLYLINE
  5
1CBFB
  8
0
 66
     1
 10
0.0
 20
0.0
 30
0.0
 70
   128
  0
VERTEX
  5
1DBF5
  8
0
 10
278.4503482281998
 20
83.697105199103817
 30
0.0
  0
VERTEX
  5
1DBF6
  8
0
 10
278.32557335489992
 20
84.685271978403847
 30
0.0
  0
VERTEX
  5
1DBF7
  8
0
 10
278.12635973089982
 20
85.40052399040384
 30
0.0
  0
VERTEX
  5
1DBF8
  8
0
 10
277.79668644069989
 20
85.839545726803834
 30
0.0
  0
VERTEX
  5
1DBF9
  8
0
 10
277.21611484879992
 20
86.012890934903837
 30
0.0
  0
VERTEX
  5
1DBFA
  8
0
 10
276.4245130121999
 20
85.99799722430383
 30
0.0
  0
VERTEX
  5
1DBFB
  8
0
 10
275.75025036929992
 20
85.968552529803816
 30
0.0
  0
VERTEX
  5
1DBFC
  8
0
 10
274.88504424690001
 20
85.908180475203835
 30
0.0
  0
VERTEX
  5
1DBFD
  8
0
 10
274.03173670169991
 20
85.692411661103833
 30
0.0
  0
VERTEX
  5
1DBFE
  8
0
 10
273.41060414909998
 20
85.261179506803828
 30
0.0
  0
VERTEX
  5
1DBFF
  8
0
 10
272.93533161279993
 20
84.579488635103829
 30
0.0
  0
VERTEX
  5
1DC00
  8
0
 10
272.58516922589979
 20
83.631324023003828
 30
0.0
  0
VERTEX
  5
1DC01
  8
0
 10
272.34098389739978
 20
82.425078749603841
 30
0.0
  0
VERTEX
  5
1DC02
  8
0
 10
272.19530269500001
 20
81.002524495103827
 30
0.0
  0
VERTEX
  5
1DC03
  8
0
 10
272.14595749969982
 20
79.447595775103835
 30
0.0
  0
SEQEND
  5
1DC04
  8
0
  0
ARC
  5
1CC9F
  8
0
 10
388.0359779446548
 20
181.16920359
 30
0.0
 40
0.5
 50
270.0
 51
0.0
  0
ARC
  5
1CCA0
  8
0
 10
388.0359779446548
 20
186.66920359
 30
0.0
 40
0.5
 50
0.0
 51
90.0
  0
ARC
  5
1CCA1
  8
0
 10
387.03597794465492
 20
186.66920359
 30
0.0
 40
0.5
 50
90.0
 51
180.0
  0
LINE
  5
1CCA2
  8
0
 10
387.03597822725487
 20
187.16920409350001
 30
0.0
 11
388.03597839115491
 21
187.16920409350001
 31
0.0
  0
LINE
  5
1CCA3
  8
0
 10
388.03597839115491
 20
180.66920395939999
 30
0.0
 11
387.36146299612392
 21
180.66920395939999
 31
0.0
  0
LINE
  5
1CCA4
  8
0
 10
388.53597794465492
 20
186.66920347967371
 30
0.0
 11
388.53597794465492
 21
181.16920359
 31
0.0
  0
LINE
  5
1CCAE
  8
0
 10
378.03597882385498
 20
205.04650461454759
 30
0.0
 11
383.03597882385492
 21
205.04650461454759
 31
0.0
  0
LINE
  5
1CCB3
  8
0
 10
378.03597882385498
 20
205.04650461454759
 30
0.0
 11
377.53597882385498
 21
204.54650732655901
 31
0.0
  0
LINE
  5
1CCB4
  8
0
 10
383.03597882385492
 20
205.04650461454759
 30
0.0
 11
383.53597882385498
 21
204.54650732655901
 31
0.0
  0
LINE
  5
1CCB5
  8
0
 10
383.53597882385498
 20
204.54650732655901
 30
0.0
 11
383.53597882385498
 21
201.93129833790121
 31
0.0
  0
ARC
  5
1CD07
  8
0
 10
388.03597882385498
 20
192.68748702560001
 30
0.0
 40
0.5
 50
270.0
 51
0.0
  0
ARC
  5
1CD08
  8
0
 10
388.03597882385498
 20
198.18748702560001
 30
0.0
 40
0.5
 50
0.0
 51
90.0
  0
ARC
  5
1CD09
  8
0
 10
387.03597882385498
 20
192.68748702560001
 30
0.0
 40
0.5
 50
180.0
 51
270.0
  0
ARC
  5
1CD0A
  8
0
 10
387.03597882385498
 20
198.18748702560001
 30
0.0
 40
0.5
 50
90.0
 51
180.0
  0
LINE
  5
1CD0B
  8
0
 10
387.03597910645499
 20
198.68748690929999
 30
0.0
 11
388.03597927035503
 21
198.68748690929999
 31
0.0
  0
LINE
  5
1CD0C
  8
0
 10
388.03597927035503
 20
192.1874886379
 30
0.0
 11
387.03597910645499
 21
192.1874886379
 31
0.0
  0
LINE
  5
1CD0D
  8
0
 10
388.53597882385498
 20
198.18748702560001
 30
0.0
 11
388.53597882385498
 21
192.68748702560001
 31
0.0
  0
LINE
  5
1CD65
  8
0
 10
373.03597955455479
 20
173.5802047032
 30
0.0
 11
373.16860088670319
 21
173.5802047032
 31
0.0
  0
ARC
  5
1CD76
  8
0
 10
388.03597809315511
 20
168.16920359
 30
0.0
 40
0.5
 50
270.0
 51
0.0
  0
ARC
  5
1CD77
  8
0
 10
388.03597809315511
 20
173.66920359
 30
0.0
 40
0.5
 50
0.0
 51
24.267738696904988
  0
ARC
  5
1CD78
  8
0
 10
387.03597809315511
 20
168.16920359
 30
0.0
 40
0.5
 50
238.43067101390281
 51
270.0
  0
LINE
  5
1CD79
  8
0
 10
388.03597853965522
 20
167.66920369120001
 30
0.0
 11
387.03597837575512
 21
167.66920369120001
 31
0.0
  0
ARC
  5
1CD7A
  8
0
 10
388.03597809315511
 20
174.0802047032
 30
0.0
 40
0.5
 50
270.0
 51
0.0
  0
ARC
  5
1CD7B
  8
0
 10
388.03597809315511
 20
179.5802047032
 30
0.0
 40
0.5
 50
0.0
 51
90.0
  0
LINE
  5
1CD7C
  8
0
 10
387.61735453666302
 20
180.0802038983
 30
0.0
 11
388.03597853965522
 21
180.0802038983
 31
0.0
  0
ARC
  5
1CD7D
  8
0
 10
388.03597809315511
 20
160.86920359000001
 30
0.0
 40
0.5
 50
270.0
 51
0.0
  0
ARC
  5
1CD7E
  8
0
 10
388.03597809315511
 20
166.36920359000001
 30
0.0
 40
0.5
 50
0.0
 51
90.0
  0
ARC
  5
1CD7F
  8
0
 10
387.03597809315511
 20
160.86920359000001
 30
0.0
 40
0.5
 50
180.0
 51
270.0
  0
ARC
  5
1CD80
  8
0
 10
387.03597809315511
 20
166.36920359000001
 30
0.0
 40
0.5
 50
90.0
 51
180.0
  0
LINE
  5
1CD81
  8
0
 10
387.03597837575512
 20
166.8692036532
 30
0.0
 11
388.03597853965522
 21
166.8692036532
 31
0.0
  0
LINE
  5
1CD82
  8
0
 10
388.03597853965522
 20
160.3692035773
 30
0.0
 11
387.03597837575512
 21
160.3692035773
 31
0.0
  0
LINE
  5
1CD83
  8
0
 10
388.53597809315511
 20
173.66920359
 30
0.0
 11
388.53597809315511
 21
168.16920359
 31
0.0
  0
LINE
  5
1CD84
  8
0
 10
388.53597809315511
 20
179.5802047032
 30
0.0
 11
388.53597809315511
 21
174.0802047032
 31
0.0
  0
LINE
  5
1CD85
  8
0
 10
388.53597809315511
 20
166.36920359000001
 30
0.0
 11
388.53597809315511
 21
160.86920359000001
 31
0.0
  0
LINE
  5
1CD86
  8
0
 10
388.03597809315511
 20
173.5802047032
 30
0.0
 11
387.90335676100682
 21
173.5802047032
 31
0.0
  0
LINE
  5
1CD87
  8
0
 10
377.53597882385498
 20
204.54650732655901
 30
0.0
 11
377.53597882385498
 21
201.93130206320001
 31
0.0
  0
LINE
  5
1CDDD
  8
3
 10
382.99447882385539
 20
201.931298674049
 30
0.0
 11
382.99447882385522
 21
205.04650461454759
 31
0.0
  0
LINE
  5
1CDDE
  8
3
 10
378.07747882385479
 20
201.93130172638311
 30
0.0
 11
378.07747882385479
 21
205.0465046145475
 31
0.0
  0
LINE
  5
1CDDF
  8
0
 10
377.53597882385498
 20
204.54650732655901
 30
0.0
 11
383.53597882385498
 21
204.54650732655901
 31
0.0
  0
CIRCLE
  5
1CDE2
  8
0
 10
163.07044311495881
 20
79.447593895690943
 30
0.0
 40
7.4757163054473246
  0
ARC
  5
1CDE3
  8
0
 10
161.4096069708244
 20
76.065711708330809
 30
0.0
 40
6.7308690528056472
 50
206.8318862531579
 51
233.4635490607341
  0
ARC
  5
1CDE4
  8
0
 10
164.1528984517868
 20
76.553596656259174
 30
0.0
 40
7.4692358484203973
 50
307.87330751583568
 51
331.83104668397101
  0
ARC
  5
1CDE5
  8
0
 10
161.98757754378241
 20
82.341952514053105
 30
0.0
 40
7.4686989031936291
 50
127.8725410187532
 51
151.83197928083669
  0
ARC
  5
1CDE6
  8
0
 10
164.7311978032931
 20
82.829386428341095
 30
0.0
 40
6.7309876476028094
 50
26.832237838013821
 51
53.46345234873116
  0
ARC
  5
1CDE7
  8
0
 10
163.07044311495881
 20
79.447593895690829
 30
0.0
 40
10.0
 50
140.05870958652429
 51
219.9412904134756
  0
ARC
  5
1CDE8
  8
0
 10
163.07044311495881
 20
79.447593895690829
 30
0.0
 40
10.000000000000011
 50
320.05870958652429
 51
39.941290413475663
  0
ARC
  5
1CDE9
  8
0
 10
163.07044225318549
 20
88.172639821573853
 30
0.0
 40
18.40929454964694
 50
252.0681657411802
 51
287.93183425881978
  0
ARC
  5
1CDEA
  8
0
 10
163.0704422531858
 20
70.722569414912869
 30
0.0
 40
18.409273070901289
 50
72.068144108513934
 51
107.93185589148599
  0
ARC
  5
1CDEB
  8
0
 10
142.99719999999999
 20
78.844796202505336
 30
0.0
 40
5.9971999999999923
 50
180.0
 51
270.0
  0
ARC
  5
1CDEC
  8
0
 10
142.99719999999999
 20
78.844796202505336
 30
0.0
 40
3.0
 50
180.0
 51
270.0
  0
LINE
  5
1CDED
  8
0
 10
185.83725216372159
 20
75.84479569920768
 30
0.0
 11
172.39888591938319
 21
75.844795699207566
 31
0.0
  0
LINE
  5
1CDEE
  8
0
 10
153.74200031053439
 20
75.844795699207339
 30
0.0
 11
142.99719985947669
 21
75.844796202505336
 31
0.0
  0
LINE
  5
1CDEF
  8
0
 10
185.83725216372159
 20
75.84479569920768
 30
0.0
 11
191.11618223173761
 21
79.016697849123375
 31
0.0
  0
ARC
  5
1CDF0
  8
0
 10
192.65985419701701
 20
76.447596202505792
 30
0.0
 40
2.9972000000000061
 50
90.0
 51
121.00000000000171
  0
LINE
  5
1CDF1
  8
0
 10
187.38092305643701
 20
73.275693948357002
 30
0.0
 11
192.65985312445309
 21
76.447596098272697
 31
0.0
  0
ARC
  5
1CDF2
  8
0
 10
185.83725093709879
 20
75.844796202505677
 30
0.0
 40
2.9972000000000061
 50
270.0
 51
301.00000000000171
  0
LINE
  5
1CDF3
  8
0
 10
142.99494681405011
 20
72.847596625773463
 30
0.0
 11
155.49789541481681
 21
72.847596625773576
 31
0.0
  0
LINE
  5
1CDF4
  8
0
 10
170.63788479975801
 20
72.84759662577369
 30
0.0
 11
185.83725216372159
 21
72.847596625773804
 31
0.0
  0
ARC
  5
1CDF5
  8
0
 10
142.99720000000019
 20
80.050396202502952
 30
0.0
 40
3.0
 50
90.0
 51
180.0
  0
ARC
  5
1CDF6
  8
0
 10
142.99720000000019
 20
80.050396202502952
 30
0.0
 40
5.9971999999999923
 50
90.0
 51
180.0
  0
LINE
  5
1CDF7
  8
0
 10
143.07044270022061
 20
86.047596554247889
 30
0.0
 11
155.5030061968132
 21
86.047596554247889
 31
0.0
  0
LINE
  5
1CDF8
  8
0
 10
170.6429926489968
 20
86.04759655424823
 30
0.0
 11
185.83725216372159
 21
86.04759655424823
 31
0.0
  0
ARC
  5
1CDF9
  8
0
 10
185.83725093709879
 20
83.050396202503293
 30
0.0
 40
2.9972000000000061
 50
58.999999999998252
 51
90.0
  0
LINE
  5
1CDFA
  8
0
 10
187.38092305643701
 20
85.619498300342457
 30
0.0
 11
192.65985312445309
 21
82.447596150426762
 31
0.0
  0
ARC
  5
1CDFB
  8
0
 10
192.65985419701701
 20
82.447596202503291
 30
0.0
 40
2.997200000000003
 50
238.99999999999829
 51
270.0
  0
LINE
  5
1CDFC
  8
0
 10
185.83725216372159
 20
83.050396549491779
 30
0.0
 11
191.11618223173761
 21
79.878493468253509
 31
0.0
  0
LINE
  5
1CDFD
  8
0
 10
142.99720020045879
 20
83.050396202502967
 30
0.0
 11
153.7420020320248
 21
83.050396549491438
 31
0.0
  0
LINE
  5
1CDFE
  8
0
 10
172.39888419789261
 20
83.050396549491666
 30
0.0
 11
185.83725216372159
 21
83.050396549491779
 31
0.0
  0
ARC
  5
1CDFF
  8
0
 10
163.0704438976199
 20
79.447591817325247
 30
0.0
 40
5.1096139330622456
 50
39.726220567140373
 51
219.72616286405889
  0
ARC
  5
1CE00
  8
0
 10
163.07044060875131
 20
79.447595775103878
 30
0.0
 40
5.1096139330622599
 50
219.72622056714039
 51
39.726162864058971
  0
CIRCLE
  5
1CE01
  8
0
 10
163.07044311495881
 20
79.447593895691057
 30
0.0
 40
5.5946830468513919
  0
LINE
  5
1CE02
  8
0
 10
139.99720000000019
 20
80.050396202502952
 30
0.0
 11
139.99719999999999
 21
78.844796202505336
 31
0.0
  0
LINE
  5
1CE03
  8
0
 10
137.0
 20
80.050396202502952
 30
0.0
 11
137.0
 21
78.84479620250579
 31
0.0
  0
LINE
  5
1CE04
  8
1
 10
163.0704422531858
 20
89.923310201138179
 30
0.0
 11
163.0704422531858
 21
68.971877590243707
 31
0.0
  0
LINE
  5
1CE05
  8
0
 10
137.0
 20
79.447596202504315
 30
0.0
 11
139.99720000000019
 21
79.447595775103878
 31
0.0
  0
LINE
  5
1CE06
  8
0
 10
192.65985419701701
 20
79.450396202503271
 30
0.0
 11
192.65985419701701
 21
79.444796202505813
 31
0.0
  0
LINE
  5
1CF0D
  8
0
 10
251.95028707387431
 20
267.57493653739863
 30
0.0
 11
253.6361001432104
 21
269.27318462579598
 31
0.0
  0
ARC
  5
1CF14
  8
0
 10
249.31773819259979
 20
274.76710989493142
 30
0.0
 40
3.7134015739239379
 50
44.851920852497557
 51
89.992903651202766
  0
ARC
  5
1CF15
  8
0
 10
254.1202213718943
 20
276.14743858658278
 30
0.0
 40
0.6675371367764664
 50
223.5116077436293
 51
272.44959640399537
  0
LINE
  5
1CF16
  8
0
 10
254.14875224229991
 20
275.48051144033138
 30
0.0
 11
262.0556886271188
 21
275.48051144033133
 31
0.0
  0
LINE
  5
1CF17
  8
0
 10
251.95028707387431
 20
277.38608634326408
 30
0.0
 11
253.6361001432104
 21
275.68783825486668
 31
0.0
  0
ARC
  5
1CF19
  8
0
 10
161.98757606085289
 20
275.37487521077509
 30
0.0
 40
7.468694818086159
 50
127.87255097954539
 51
151.8320137065781
  0
ARC
  5
1CF1A
  8
0
 10
164.7311929011853
 20
275.86230335615971
 30
0.0
 40
6.7309919697547631
 50
26.83221812521332
 51
53.463427674978057
  0
ARC
  5
1CF1B
  8
0
 10
164.15289696870329
 20
269.58651935340339
 30
0.0
 40
7.4692399339386242
 50
307.87329755428732
 51
331.83101225895859
  0
ARC
  5
1CF1C
  8
0
 10
161.409600962007
 20
269.09862770258081
 30
0.0
 40
6.7308633216958773
 50
206.8319031270797
 51
233.46357657332811
  0
ARC
  5
1CF1D
  8
0
 10
163.07044311495881
 20
272.4805114403315
 30
0.0
 40
10.000000000000011
 50
140.05870958652429
 51
219.9412904134756
  0
ARC
  5
1CF1E
  8
0
 10
163.07044311495881
 20
272.4805114403315
 30
0.0
 40
10.0
 50
320.05870958652429
 51
39.941290413475663
  0
ARC
  5
1CF1F
  8
0
 10
163.07044225318549
 20
263.75546551444802
 30
0.0
 40
18.409294549647399
 50
72.068165741180223
 51
107.93183425881971
  0
ARC
  5
1CF20
  8
0
 10
163.0704422531858
 20
281.20553592110952
 30
0.0
 40
18.409273070901349
 50
252.06814410851391
 51
287.93185589148612
  0
ARC
  5
1CF21
  8
0
 10
142.99720185250109
 20
273.08331182783729
 30
0.0
 40
3.000000000000028
 50
90.0
 51
180.0
  0
LINE
  5
1CF22
  8
0
 10
139.9972028086699
 20
271.87531662208391
 30
0.0
 11
139.9972028086699
 21
273.08331183939708
 31
0.0
  0
LINE
  5
1CF23
  8
0
 10
136.9999981473006
 20
273.08331183939708
 30
0.0
 11
137.0000018526996
 21
271.87766305781503
 31
0.0
  0
ARC
  5
1CF24
  8
0
 10
142.99720185250109
 20
273.08331182783729
 30
0.0
 40
5.9971999999999923
 50
90.0
 51
180.0
  0
LINE
  5
1CF25
  8
0
 10
185.83725216372159
 20
279.08051140456882
 30
0.0
 11
170.64299379888601
 21
279.08051140456888
 31
0.0
  0
LINE
  5
1CF26
  8
0
 10
155.5030049350998
 20
279.08051140456888
 30
0.0
 11
142.99720205548081
 21
279.0805118278372
 31
0.0
  0
ARC
  5
1CF27
  8
0
 10
185.83725093709879
 20
276.08331182783701
 30
0.0
 40
2.9972000000000079
 50
58.999999999998252
 51
90.0
  0
LINE
  5
1CF28
  8
0
 10
192.65985312445309
 20
275.48051193206987
 30
0.0
 11
187.38092305643701
 21
278.65241408198563
 31
0.0
  0
ARC
  5
1CF29
  8
0
 10
192.65985419701701
 20
275.48051182783689
 30
0.0
 40
2.9971999999999932
 50
238.99999999999829
 51
270.0
  0
LINE
  5
1CF2A
  8
0
 10
185.83725216372159
 20
276.08331233113489
 30
0.0
 11
191.11618223173761
 21
272.9114101812192
 31
0.0
  0
LINE
  5
1CF2B
  8
0
 10
142.99720185250109
 20
276.08331182783729
 30
0.0
 11
153.74200135112571
 21
276.08331233113518
 31
0.0
  0
LINE
  5
1CF2C
  8
0
 10
172.3988848787917
 20
276.08331233113489
 30
0.0
 11
185.83725216372159
 21
276.08331233113489
 31
0.0
  0
ARC
  5
1CF2D
  8
0
 10
142.99720185250129
 20
271.87771182783968
 30
0.0
 40
5.9971999999999923
 50
180.0
 51
270.0
  0
ARC
  5
1CF2E
  8
0
 10
142.99720185250129
 20
271.87771182783968
 30
0.0
 40
3.0
 50
180.0
 51
270.0
  0
LINE
  5
1CF2F
  8
0
 10
185.83725216372159
 20
268.87771148085079
 30
0.0
 11
172.3988852384843
 21
268.87771148085079
 31
0.0
  0
LINE
  5
1CF30
  8
0
 10
153.74200099143309
 20
268.87771148085108
 30
0.0
 11
142.99720185250129
 21
268.87771182783968
 31
0.0
  0
LINE
  5
1CF31
  8
0
 10
191.11618223173761
 20
272.04961456208912
 30
0.0
 11
185.83725216372159
 21
268.87771148085079
 31
0.0
  0
ARC
  5
1CF32
  8
0
 10
192.65985419701701
 20
269.48051182783928
 30
0.0
 40
2.997200000000003
 50
90.0
 51
121.00000000000171
  0
LINE
  5
1CF33
  8
0
 10
192.65985312445309
 20
269.48051187991592
 30
0.0
 11
187.38092305643701
 21
266.30860973000023
 31
0.0
  0
ARC
  5
1CF34
  8
0
 10
185.83725093709879
 20
268.87771182783951
 30
0.0
 40
2.9972000000000198
 50
270.0
 51
301.00000000000171
  0
LINE
  5
1CF35
  8
0
 10
185.83725216372159
 20
265.8805114760944
 30
0.0
 11
170.63788353800871
 21
265.88051147609463
 31
0.0
  0
LINE
  5
1CF36
  8
0
 10
155.4978965539556
 20
265.88051147609463
 30
0.0
 11
142.99720185250129
 21
265.8805118278396
 31
0.0
  0
CIRCLE
  5
1CF37
  8
3
 10
163.07044311495881
 20
272.48051144033138
 30
0.0
 40
2.4585008617733588
  0
CIRCLE
  5
1CF38
  8
0
 10
163.07044311495881
 20
272.48051144033138
 30
0.0
 40
2.9999999999999938
  0
LINE
  5
1CF39
  8
0
 10
139.99720280506421
 20
272.48048744860603
 30
0.0
 11
137.00000000492469
 21
272.48048744860603
 31
0.0
  0
LINE
  5
1CF3A
  8
1
 10
163.0704422531858
 20
281.25401432572829
 30
0.0
 11
163.0704422531858
 21
263.70700855493442
 31
0.0
  0
CIRCLE
  5
1CF3B
  8
0
 10
163.0704422531858
 20
272.48051144033138
 30
0.0
 40
8.7735028853969972
  0
LINE
  5
1CF3C
  8
0
 10
192.65985419701701
 20
272.48331182783681
 30
0.0
 11
192.65985419701701
 21
272.47771182783941
 31
0.0
  0
LINE
  5
1CF3D
  8
0
 10
158.0704422531858
 20
275.36726278627953
 30
0.0
 11
158.07044225318549
 21
269.59376009438319
 31
0.0
  0
LINE
  5
1CF3E
  8
0
 10
158.07044225318549
 20
269.59376009438319
 30
0.0
 11
163.0704422531858
 21
266.7070087484351
 31
0.0
  0
LINE
  5
1CF3F
  8
0
 10
163.0704422531858
 20
266.7070087484351
 30
0.0
 11
168.07044225318569
 21
269.59376009438319
 31
0.0
  0
LINE
  5
1CF40
  8
0
 10
168.07044225318569
 20
269.59376009438319
 30
0.0
 11
168.07044225318569
 21
275.36726278627941
 31
0.0
  0
LINE
  5
1CF41
  8
0
 10
168.07044225318569
 20
275.36726278627941
 30
0.0
 11
163.0704422531858
 21
278.25401413222772
 31
0.0
  0
LINE
  5
1CF42
  8
0
 10
163.0704422531858
 20
278.25401413222772
 30
0.0
 11
158.0704422531858
 21
275.36726278627953
 31
0.0
  0
LINE
  5
1CF43
  8
0
 10
302.19555010429082
 20
264.64775429288261
 30
0.0
 11
270.22158429019993
 21
266.03351199455159
 31
0.0
  0
LINE
  5
1CF93
  8
1
 10
132.0
 20
272.48051153780841
 30
0.0
 11
314.98637601735459
 21
272.48051153780841
 31
0.0
  0
LINE
  5
1CF94
  8
0
 10
264.68747928739981
 20
266.27795809335169
 30
0.0
 11
262.05000355841457
 21
269.00050455143742
 31
0.0
  0
LINE
  5
1CF95
  8
0
 10
264.68747928739981
 20
266.27795809335169
 30
0.0
 11
264.67403844
 21
266.27045163345173
 31
0.0
  0
ARC
  5
1CF96
  8
0
 10
302.19761486859989
 20
272.5243843499652
 30
0.0
 40
7.7888847064444988
 50
359.67727288449947
 51
90.015245970508118
  0
LINE
  5
1CF97
  8
0
 10
264.67403844
 20
278.69057144216521
 30
0.0
 11
265.75857475399988
 21
278.70851430286518
 31
0.0
  0
POLYLINE
  5
1CF98
  8
0
 66
     1
 10
0.0
 20
0.0
 30
0.0
 70
   128
  0
VERTEX
  5
1DC05
  8
0
 10
265.7913796602997
 20
277.86643105736522
 30
0.0
  0
VERTEX
  5
1DC06
  8
0
 10
268.21681931609987
 20
277.97295200816518
 30
0.0
  0
VERTEX
  5
1DC07
  8
0
 10
270.0535662471998
 20
278.05386531346522
 30
0.0
  0
SEQEND
  5
1DC08
  8
0
  0
POLYLINE
  5
1CF99
  8
0
 66
     1
 10
0.0
 20
0.0
 30
0.0
 70
   128
  0
VERTEX
  5
1DC09
  8
0
 10
302.5018803774999
 20
280.30699539176521
 30
0.0
  0
VERTEX
  5
1DC0A
  8
0
 10
302.81973704689989
 20
280.28448718776519
 30
0.0
  0
VERTEX
  5
1DC0B
  8
0
 10
303.06968912479988
 20
280.25394725796508
 30
0.0
  0
VERTEX
  5
1DC0C
  8
0
 10
303.28416153789982
 20
280.21411272876509
 30
0.0
  0
VERTEX
  5
1DC0D
  8
0
 10
303.41178998349977
 20
280.17593967906521
 30
0.0
  0
VERTEX
  5
1DC0E
  8
0
 10
303.4538112580999
 20
280.14207306496519
 30
0.0
  0
VERTEX
  5
1DC0F
  8
0
 10
303.39176282279982
 20
280.12084636086519
 30
0.0
  0
VERTEX
  5
1DC10
  8
0
 10
303.23641821739989
 20
280.1157184987652
 30
0.0
  0
VERTEX
  5
1DC11
  8
0
 10
302.99838706849982
 20
280.12650135156508
 30
0.0
  0
VERTEX
  5
1DC12
  8
0
 10
302.73927077649978
 20
280.14714504776521
 30
0.0
  0
VERTEX
  5
1DC13
  8
0
 10
302.69070789220001
 20
280.15147383506519
 30
0.0
  0
VERTEX
  5
1DC14
  8
0
 10
302.3738197981998
 20
280.18162819736523
 30
0.0
  0
VERTEX
  5
1DC15
  8
0
 10
302.11713239549999
 20
280.20916368056521
 30
0.0
  0
VERTEX
  5
1DC16
  8
0
 10
301.92930325859987
 20
280.2323051839652
 30
0.0
  0
VERTEX
  5
1DC17
  8
0
 10
301.78835317489978
 20
280.25507974616522
 30
0.0
  0
VERTEX
  5
1DC18
  8
0
 10
301.74001380800001
 20
280.27587059136522
 30
0.0
  0
VERTEX
  5
1DC19
  8
0
 10
301.7986945807998
 20
280.29393824926518
 30
0.0
  0
VERTEX
  5
1DC1A
  8
0
 10
301.95994004609997
 20
280.30777397746522
 30
0.0
  0
VERTEX
  5
1DC1B
  8
0
 10
302.17846557499979
 20
280.31355190266521
 30
0.0
  0
VERTEX
  5
1DC1C
  8
0
 10
302.45440527789992
 20
280.30897910886517
 30
0.0
  0
VERTEX
  5
1DC1D
  8
0
 10
302.5018803774999
 20
280.30699539176521
 30
0.0
  0
SEQEND
  5
1DC1E
  8
0
  0
POLYLINE
  5
1CF9A
  8
0
 66
     1
 10
0.0
 20
0.0
 30
0.0
 70
   128
  0
VERTEX
  5
1DC1F
  8
0
 10
297.61212393639988
 20
279.13095290956522
 30
0.0
  0
VERTEX
  5
1DC20
  8
0
 10
297.9395322501
 20
279.1226436494652
 30
0.0
  0
VERTEX
  5
1DC21
  8
0
 10
298.20049628609991
 20
279.07575342056521
 30
0.0
  0
VERTEX
  5
1DC22
  8
0
 10
298.39863702649973
 20
278.99004194136518
 30
0.0
  0
VERTEX
  5
1DC23
  8
0
 10
298.50085899229998
 20
278.88040292256511
 30
0.0
  0
VERTEX
  5
1DC24
  8
0
 10
298.50911423559978
 20
278.7450817524653
 30
0.0
  0
VERTEX
  5
1DC25
  8
0
 10
298.41552004219989
 20
278.61477482316519
 30
0.0
  0
VERTEX
  5
1DC26
  8
0
 10
298.25107082719978
 20
278.50372764466522
 30
0.0
  0
VERTEX
  5
1DC27
  8
0
 10
298.00253435969989
 20
278.40690362446531
 30
0.0
  0
VERTEX
  5
1DC28
  8
0
 10
297.70947322249981
 20
278.35451859226521
 30
0.0
  0
VERTEX
  5
1DC29
  8
0
 10
297.64563664789989
 20
278.35008363416517
 30
0.0
  0
VERTEX
  5
1DC2A
  8
0
 10
297.31751307839983
 20
278.36504626266532
 30
0.0
  0
VERTEX
  5
1DC2B
  8
0
 10
297.0543734728999
 20
278.43399021026522
 30
0.0
  0
VERTEX
  5
1DC2C
  8
0
 10
296.86624631279977
 20
278.53585454816528
 30
0.0
  0
VERTEX
  5
1DC2D
  8
0
 10
296.75578400489979
 20
278.6667537986653
 30
0.0
  0
VERTEX
  5
1DC2E
  8
0
 10
296.75143286579993
 20
278.79352915276519
 30
0.0
  0
VERTEX
  5
1DC2F
  8
0
 10
296.83771058919979
 20
278.91229885806518
 30
0.0
  0
VERTEX
  5
1DC30
  8
0
 10
297.01932594179999
 20
279.01671501986522
 30
0.0
  0
VERTEX
  5
1DC31
  8
0
 10
297.25541993969978
 20
279.08618237076519
 30
0.0
  0
VERTEX
  5
1DC32
  8
0
 10
297.54174575209981
 20
279.12667813886532
 30
0.0
  0
VERTEX
  5
1DC33
  8
0
 10
297.61212393639988
 20
279.13095290956522
 30
0.0
  0
SEQEND
  5
1DC34
  8
0
  0
POLYLINE
  5
1CF9B
  8
0
 66
     1
 10
0.0
 20
0.0
 30
0.0
 70
   128
  0
VERTEX
  5
1DC35
  8
0
 10
294.89982947710001
 20
279.7165815829652
 30
0.0
  0
VERTEX
  5
1DC36
  8
0
 10
295.24835273619988
 20
279.7182598262653
 30
0.0
  0
VERTEX
  5
1DC37
  8
0
 10
295.50390765069977
 20
279.69825874266519
 30
0.0
  0
VERTEX
  5
1DC38
  8
0
 10
295.6926755606998
 20
279.65702350426523
 30
0.0
  0
VERTEX
  5
1DC39
  8
0
 10
295.78713402149992
 20
279.60018675026532
 30
0.0
  0
VERTEX
  5
1DC3A
  8
0
 10
295.78579291699998
 20
279.52665324506518
 30
0.0
  0
VERTEX
  5
1DC3B
  8
0
 10
295.68541869519981
 20
279.45322963586523
 30
0.0
  0
VERTEX
  5
1DC3C
  8
0
 10
295.51094099879992
 20
279.38628989456532
 30
0.0
  0
VERTEX
  5
1DC3D
  8
0
 10
295.2558033167997
 20
279.3289166986653
 30
0.0
  0
VERTEX
  5
1DC3E
  8
0
 10
294.94748339059993
 20
279.29785522816519
 30
0.0
  0
VERTEX
  5
1DC3F
  8
0
 10
294.59891542790001
 20
279.30258634676522
 30
0.0
  0
VERTEX
  5
1DC40
  8
0
 10
294.33951601379982
 20
279.33942760516533
 30
0.0
  0
VERTEX
  5
1DC41
  8
0
 10
294.15357932449979
 20
279.39651209106518
 30
0.0
  0
VERTEX
  5
1DC42
  8
0
 10
294.05462071299979
 20
279.46818853906518
 30
0.0
  0
VERTEX
  5
1DC43
  8
0
 10
294.06070038669992
 20
279.5363427250652
 30
0.0
  0
VERTEX
  5
1DC44
  8
0
 10
294.15894374250001
 20
279.60118326536519
 30
0.0
  0
VERTEX
  5
1DC45
  8
0
 10
294.3496339022999
 20
279.65581278496518
 30
0.0
  0
VERTEX
  5
1DC46
  8
0
 10
294.58335861559999
 20
279.69188104566518
 30
0.0
  0
VERTEX
  5
1DC47
  8
0
 10
294.89982947710001
 20
279.7165815829652
 30
0.0
  0
SEQEND
  5
1DC48
  8
0
  0
POLYLINE
  5
1CF9C
  8
0
 66
     1
 10
0.0
 20
0.0
 30
0.0
 70
   128
  0
VERTEX
  5
1DC49
  8
0
 10
297.39313647149987
 20
280.10648722936509
 30
0.0
  0
VERTEX
  5
1DC4A
  8
0
 10
297.67745062709992
 20
280.1172291039652
 30
0.0
  0
VERTEX
  5
1DC4B
  8
0
 10
297.93212637299979
 20
280.12278164916518
 30
0.0
  0
VERTEX
  5
1DC4C
  8
0
 10
298.14641997220002
 20
280.1208798884652
 30
0.0
  0
VERTEX
  5
1DC4D
  8
0
 10
298.2727371155998
 20
280.10900180036521
 30
0.0
  0
VERTEX
  5
1DC4E
  8
0
 10
298.3007363974998
 20
280.08598695686521
 30
0.0
  0
VERTEX
  5
1DC4F
  8
0
 10
298.22249040009979
 20
280.05570965996532
 30
0.0
  0
VERTEX
  5
1DC50
  8
0
 10
298.0624370276999
 20
280.02331639816521
 30
0.0
  0
VERTEX
  5
1DC51
  8
0
 10
297.82260283829987
 20
279.99183955786521
 30
0.0
  0
VERTEX
  5
1DC52
  8
0
 10
297.56657108659988
 20
279.97162427006532
 30
0.0
  0
VERTEX
  5
1DC53
  8
0
 10
297.49033674599991
 20
279.96764565996523
 30
0.0
  0
VERTEX
  5
1DC54
  8
0
 10
297.1894972025998
 20
279.96014106266517
 30
0.0
  0
VERTEX
  5
1DC55
  8
0
 10
296.92120179529979
 20
279.96605123576529
 30
0.0
  0
VERTEX
  5
1DC56
  8
0
 10
296.72101959579982
 20
279.98188930746528
 30
0.0
  0
VERTEX
  5
1DC57
  8
0
 10
296.59893438219979
 20
280.00471043576522
 30
0.0
  0
VERTEX
  5
1DC58
  8
0
 10
296.58191725609981
 20
280.02872738236522
 30
0.0
  0
VERTEX
  5
1DC59
  8
0
 10
296.66303917759979
 20
280.05175153906521
 30
0.0
  0
VERTEX
  5
1DC5A
  8
0
 10
296.8398265539999
 20
280.0725908129653
 30
0.0
  0
VERTEX
  5
1DC5B
  8
0
 10
297.06261381499991
 20
280.08898395296518
 30
0.0
  0
VERTEX
  5
1DC5C
  8
0
 10
297.3382554947998
 20
280.10397265846518
 30
0.0
  0
VERTEX
  5
1DC5D
  8
0
 10
297.39313647149987
 20
280.10648722936509
 30
0.0
  0
SEQEND
  5
1DC5E
  8
0
  0
POLYLINE
  5
1CF9D
  8
0
 66
     1
 10
0.0
 20
0.0
 30
0.0
 70
   128
  0
VERTEX
  5
1DC5F
  8
0
 10
305.27780279519988
 20
279.31438061586528
 30
0.0
  0
VERTEX
  5
1DC60
  8
0
 10
305.53064569829979
 20
279.1885272710652
 30
0.0
  0
VERTEX
  5
1DC61
  8
0
 10
305.76210543509978
 20
279.04114547366521
 30
0.0
  0
VERTEX
  5
1DC62
  8
0
 10
305.96201941369992
 20
278.8750534056652
 30
0.0
  0
VERTEX
  5
1DC63
  8
0
 10
306.08160123229982
 20
278.73074124746518
 30
0.0
  0
VERTEX
  5
1DC64
  8
0
 10
306.12518712879978
 20
278.61000645156531
 30
0.0
  0
VERTEX
  5
1DC65
  8
0
 10
306.07723519199999
 20
278.53564779456519
 30
0.0
  0
VERTEX
  5
1DC66
  8
0
 10
305.95082864159991
 20
278.51831401876518
 30
0.0
  0
VERTEX
  5
1DC67
  8
0
 10
305.74903711669981
 20
278.5570663510652
 30
0.0
  0
VERTEX
  5
1DC68
  8
0
 10
305.50577566029989
 20
278.6468700616652
 30
0.0
  0
VERTEX
  5
1DC69
  8
0
 10
305.41893169280002
 20
278.68601168686519
 30
0.0
  0
VERTEX
  5
1DC6A
  8
0
 10
305.12207075949982
 20
278.84328413006517
 30
0.0
  0
VERTEX
  5
1DC6B
  8
0
 10
304.8919670283999
 20
278.99613092836518
 30
0.0
  0
VERTEX
  5
1DC6C
  8
0
 10
304.72203418609979
 20
279.13577716046518
 30
0.0
  0
VERTEX
  5
1DC6D
  8
0
 10
304.59881648419992
 20
279.27514399586528
 30
0.0
  0
VERTEX
  5
1DC6E
  8
0
 10
304.56607863310001
 20
279.37937575576518
 30
0.0
  0
VERTEX
  5
1DC6F
  8
0
 10
304.6217046677998
 20
279.44123978906521
 30
0.0
  0
VERTEX
  5
1DC70
  8
0
 10
304.76854071019989
 20
279.45593792196519
 30
0.0
  0
VERTEX
  5
1DC71
  8
0
 10
304.97982427480002
 20
279.41836464396522
 30
0.0
  0
VERTEX
  5
1DC72
  8
0
 10
305.24178668849981
 20
279.32955558596518
 30
0.0
  0
VERTEX
  5
1DC73
  8
0
 10
305.27780279519988
 20
279.31438061586528
 30
0.0
  0
SEQEND
  5
1DC74
  8
0
  0
POLYLINE
  5
1CF9E
  8
0
 66
     1
 10
0.0
 20
0.0
 30
0.0
 70
   128
  0
VERTEX
  5
1DC75
  8
0
 10
300.30385479329988
 20
277.9388600140652
 30
0.0
  0
VERTEX
  5
1DC76
  8
0
 10
300.62552615999988
 20
277.8933518677652
 30
0.0
  0
VERTEX
  5
1DC77
  8
0
 10
300.87877139449978
 20
277.78505954136517
 30
0.0
  0
VERTEX
  5
1DC78
  8
0
 10
301.06770321719978
 20
277.61636535816518
 30
0.0
  0
VERTEX
  5
1DC79
  8
0
 10
301.15502402179982
 20
277.43182192736521
 30
0.0
  0
VERTEX
  5
1DC7A
  8
0
 10
301.15913674229978
 20
277.22050856046519
 30
0.0
  0
VERTEX
  5
1DC7B
  8
0
 10
301.06117650859977
 20
277.0096683054652
 30
0.0
  0
VERTEX
  5
1DC7C
  8
0
 10
300.8811555803
 20
276.8424400239652
 30
0.0
  0
VERTEX
  5
1DC7D
  8
0
 10
300.62071308489982
 20
276.71991895136517
 30
0.0
  0
VERTEX
  5
1DC7E
  8
0
 10
300.3197096287999
 20
276.67173977186519
 30
0.0
  0
VERTEX
  5
1DC7F
  8
0
 10
300.25296732779998
 20
276.67150880386521
 30
0.0
  0
VERTEX
  5
1DC80
  8
0
 10
299.93113204829979
 20
276.72296623876531
 30
0.0
  0
VERTEX
  5
1DC81
  8
0
 10
299.68156740069981
 20
276.84385935956527
 30
0.0
  0
VERTEX
  5
1DC82
  8
0
 10
299.51157495379988
 20
277.00079466396522
 30
0.0
  0
VERTEX
  5
1DC83
  8
0
 10
299.40631315109982
 20
277.20577503736519
 30
0.0
  0
VERTEX
  5
1DC84
  8
0
 10
299.40422698849989
 20
277.4125249236651
 30
0.0
  0
VERTEX
  5
1DC85
  8
0
 10
299.4935445486999
 20
277.6006762980652
 30
0.0
  0
VERTEX
  5
1DC86
  8
0
 10
299.67991337180001
 20
277.76977653796519
 30
0.0
  0
VERTEX
  5
1DC87
  8
0
 10
299.9342463909997
 20
277.88487124436517
 30
0.0
  0
VERTEX
  5
1DC88
  8
0
 10
300.2373807131998
 20
277.93756733826518
 30
0.0
  0
VERTEX
  5
1DC89
  8
0
 10
300.30385479329988
 20
277.9388600140652
 30
0.0
  0
SEQEND
  5
1DC8A
  8
0
  0
POLYLINE
  5
1CF9F
  8
0
 66
     1
 10
0.0
 20
0.0
 30
0.0
 70
   128
  0
VERTEX
  5
1DC8B
  8
0
 10
302.97740623350001
 20
279.1004353313653
 30
0.0
  0
VERTEX
  5
1DC8C
  8
0
 10
303.2697372138
 20
279.01602584116517
 30
0.0
  0
VERTEX
  5
1DC8D
  8
0
 10
303.52997109289981
 20
278.88754244146531
 30
0.0
  0
VERTEX
  5
1DC8E
  8
0
 10
303.73369976879991
 20
278.72237052016521
 30
0.0
  0
VERTEX
  5
1DC8F
  8
0
 10
303.8414500653999
 20
278.5568987130651
 30
0.0
  0
VERTEX
  5
1DC90
  8
0
 10
303.85952517389978
 20
278.39084389796523
 30
0.0
  0
VERTEX
  5
1DC91
  8
0
 10
303.77469286320002
 20
278.2580596505652
 30
0.0
  0
VERTEX
  5
1DC92
  8
0
 10
303.61201688649999
 20
278.17463922496518
 30
0.0
  0
VERTEX
  5
1DC93
  8
0
 10
303.36917266249981
 20
278.13814441856528
 30
0.0
  0
VERTEX
  5
1DC94
  8
0
 10
303.08646783229977
 20
278.16225635996523
 30
0.0
  0
VERTEX
  5
1DC95
  8
0
 10
302.99886390559982
 20
278.18018990746521
 30
0.0
  0
VERTEX
  5
1DC96
  8
0
 10
302.70827636119981
 20
278.27166068546518
 30
0.0
  0
VERTEX
  5
1DC97
  8
0
 10
302.44869813320003
 20
278.40550291536522
 30
0.0
  0
VERTEX
  5
1DC98
  8
0
 10
302.25972160699979
 20
278.55454991746518
 30
0.0
  0
VERTEX
  5
1DC99
  8
0
 10
302.13748738169988
 20
278.72202779346532
 30
0.0
  0
VERTEX
  5
1DC9A
  8
0
 10
302.11816057559992
 20
278.87263382966518
 30
0.0
  0
VERTEX
  5
1DC9B
  8
0
 10
302.1926216780999
 20
278.9971851854653
 30
0.0
  0
VERTEX
  5
1DC9C
  8
0
 10
302.3643575608998
 20
279.0894084720652
 30
0.0
  0
VERTEX
  5
1DC9D
  8
0
 10
302.59686037899968
 20
279.12837500866522
 30
0.0
  0
VERTEX
  5
1DC9E
  8
0
 10
302.8808765112999
 20
279.11636839796518
 30
0.0
  0
VERTEX
  5
1DC9F
  8
0
 10
302.97740623350001
 20
279.1004353313653
 30
0.0
  0
SEQEND
  5
1DCA0
  8
0
  0
POLYLINE
  5
1CFA0
  8
0
 66
     1
 10
0.0
 20
0.0
 30
0.0
 70
   128
  0
VERTEX
  5
1DCA1
  8
0
 10
300.1571975647999
 20
279.96979142716521
 30
0.0
  0
VERTEX
  5
1DCA2
  8
0
 10
300.44130310409992
 20
279.97668135156528
 30
0.0
  0
VERTEX
  5
1DCA3
  8
0
 10
300.70182010529987
 20
279.96592085056523
 30
0.0
  0
VERTEX
  5
1DCA4
  8
0
 10
300.9252183138999
 20
279.93314388386523
 30
0.0
  0
VERTEX
  5
1DCA5
  8
0
 10
301.05679556730001
 20
279.8813828378652
 30
0.0
  0
VERTEX
  5
1DCA6
  8
0
 10
301.09331831329968
 20
279.81078672406522
 30
0.0
  0
VERTEX
  5
1DCA7
  8
0
 10
301.0217927395999
 20
279.73404388126522
 30
0.0
  0
VERTEX
  5
1DCA8
  8
0
 10
300.86950287219997
 20
279.66411645706518
 30
0.0
  0
VERTEX
  5
1DCA9
  8
0
 10
300.63355788589979
 20
279.60105101756523
 30
0.0
  0
VERTEX
  5
1DCAA
  8
0
 10
300.3605239092999
 20
279.56353734426523
 30
0.0
  0
VERTEX
  5
1DCAB
  8
0
 10
300.26250407100002
 20
279.55676290386521
 30
0.0
  0
VERTEX
  5
1DCAC
  8
0
 10
299.955689162
 20
279.55560620126522
 30
0.0
  0
VERTEX
  5
1DCAD
  8
0
 10
299.6813885867
 20
279.5846411137652
 30
0.0
  0
VERTEX
  5
1DCAE
  8
0
 10
299.47730228299991
 20
279.63487851616532
 30
0.0
  0
VERTEX
  5
1DCAF
  8
0
 10
299.34924170369982
 20
279.70258194206519
 30
0.0
  0
VERTEX
  5
1DCB0
  8
0
 10
299.32849928730002
 20
279.77169911556518
 30
0.0
  0
VERTEX
  5
1DCB1
  8
0
 10
299.40410777919988
 20
279.83743372556518
 30
0.0
  0
VERTEX
  5
1DCB2
  8
0
 10
299.57831725479991
 20
279.89591519526522
 30
0.0
  0
VERTEX
  5
1DCB3
  8
0
 10
299.80620071289991
 20
279.93687289946519
 30
0.0
  0
VERTEX
  5
1DCB4
  8
0
 10
300.08710250259992
 20
279.96545891456532
 30
0.0
  0
VERTEX
  5
1DCB5
  8
0
 10
300.1571975647999
 20
279.96979142716521
 30
0.0
  0
SEQEND
  5
1DCB6
  8
0
  0
POLYLINE
  5
1CFA1
  8
0
 66
     1
 10
0.0
 20
0.0
 30
0.0
 70
   128
  0
VERTEX
  5
1DCB7
  8
0
 10
279.22453805799978
 20
279.06692634516531
 30
0.0
  0
VERTEX
  5
1DCB8
  8
0
 10
279.51344922179987
 20
279.06844812626531
 30
0.0
  0
VERTEX
  5
1DCB9
  8
0
 10
279.77001741529989
 20
279.04752503326517
 30
0.0
  0
VERTEX
  5
1DCBA
  8
0
 10
279.97077330939987
 20
279.0009663551653
 30
0.0
  0
VERTEX
  5
1DCBB
  8
0
 10
280.07585629819982
 20
278.93602895726519
 30
0.0
  0
VERTEX
  5
1DCBC
  8
0
 10
280.09234443299988
 20
278.85063412776532
 30
0.0
  0
VERTEX
  5
1DCBD
  8
0
 10
280.00711724159987
 20
278.75772725036518
 30
0.0
  0
VERTEX
  5
1DCBE
  8
0
 10
279.84314486379981
 20
278.67340157916522
 30
0.0
  0
VERTEX
  5
1DCBF
  8
0
 10
279.5989371835999
 20
278.60042314226519
 30
0.0
  0
VERTEX
  5
1DCC0
  8
0
 10
279.32296022769992
 20
278.56018069376518
 30
0.0
  0
VERTEX
  5
1DCC1
  8
0
 10
279.23769578339989
 20
278.55468589056522
 30
0.0
  0
VERTEX
  5
1DCC2
  8
0
 10
278.94558086989991
 20
278.55910781016519
 30
0.0
  0
VERTEX
  5
1DCC3
  8
0
 10
278.68630811569977
 20
278.5999891459652
 30
0.0
  0
VERTEX
  5
1DCC4
  8
0
 10
278.49778607489998
 20
278.66497683516531
 30
0.0
  0
VERTEX
  5
1DCC5
  8
0
 10
278.38057354089977
 20
278.75100123876518
 30
0.0
  0
VERTEX
  5
1DCC6
  8
0
 10
278.36812362069981
 20
278.83687290546533
 30
0.0
  0
VERTEX
  5
1DCC7
  8
0
 10
278.4486867486998
 20
278.91598130756518
 30
0.0
  0
VERTEX
  5
1DCC8
  8
0
 10
278.62428203219997
 20
278.98501279946532
 30
0.0
  0
VERTEX
  5
1DCC9
  8
0
 10
278.85578647249991
 20
279.03211723256521
 30
0.0
  0
VERTEX
  5
1DCCA
  8
0
 10
279.1361220180998
 20
279.06203503896518
 30
0.0
  0
VERTEX
  5
1DCCB
  8
0
 10
279.22453805799978
 20
279.06692634516531
 30
0.0
  0
SEQEND
  5
1DCCC
  8
0
  0
POLYLINE
  5
1CFA2
  8
0
 66
     1
 10
0.0
 20
0.0
 30
0.0
 70
   128
  0
VERTEX
  5
1DCCD
  8
0
 10
281.85807242990001
 20
278.32907113426518
 30
0.0
  0
VERTEX
  5
1DCCE
  8
0
 10
282.19694718719978
 20
278.31562842426519
 30
0.0
  0
VERTEX
  5
1DCCF
  8
0
 10
282.44827017189982
 20
278.25731831786533
 30
0.0
  0
VERTEX
  5
1DCD0
  8
0
 10
282.63393118980002
 20
278.15595875676519
 30
0.0
  0
VERTEX
  5
1DCD1
  8
0
 10
282.72575959559981
 20
278.03070145836517
 30
0.0
  0
VERTEX
  5
1DCD2
  8
0
 10
282.72986486549979
 20
277.8758243768653
 30
0.0
  0
VERTEX
  5
1DCD3
  8
0
 10
282.63402059669988
 20
277.72024135286529
 30
0.0
  0
VERTEX
  5
1DCD4
  8
0
 10
282.46016874909992
 20
277.58466127506517
 30
0.0
  0
VERTEX
  5
1DCD5
  8
0
 10
282.20710977909988
 20
277.47575427586531
 30
0.0
  0
VERTEX
  5
1DCD6
  8
0
 10
281.93069323899999
 20
277.42425586276522
 30
0.0
  0
VERTEX
  5
1DCD7
  8
0
 10
281.88935741779977
 20
277.42125700406518
 30
0.0
  0
VERTEX
  5
1DCD8
  8
0
 10
281.54997602099979
 20
277.44148160506518
 30
0.0
  0
VERTEX
  5
1DCD9
  8
0
 10
281.29806444050001
 20
277.52233903106531
 30
0.0
  0
VERTEX
  5
1DCDA
  8
0
 10
281.11937716599982
 20
277.63980488476523
 30
0.0
  0
VERTEX
  5
1DCDB
  8
0
 10
281.01535961029981
 20
277.79203701016519
 30
0.0
  0
VERTEX
  5
1DCDC
  8
0
 10
281.01497963069983
 20
277.94185701006518
 30
0.0
  0
VERTEX
  5
1DCDD
  8
0
 10
281.1075009404999
 20
278.08376263076519
 30
0.0
  0
VERTEX
  5
1DCDE
  8
0
 10
281.2938101588997
 20
278.20448811346517
 30
0.0
  0
VERTEX
  5
1DCDF
  8
0
 10
281.53073117140002
 20
278.28300233176532
 30
0.0
  0
VERTEX
  5
1DCE0
  8
0
 10
281.81741461159982
 20
278.3265602885653
 30
0.0
  0
VERTEX
  5
1DCE1
  8
0
 10
281.85807242990001
 20
278.32907113426518
 30
0.0
  0
SEQEND
  5
1DCE2
  8
0
  0
POLYLINE
  5
1CFA3
  8
0
 66
     1
 10
0.0
 20
0.0
 30
0.0
 70
   128
  0
VERTEX
  5
1DCE3
  8
0
 10
287.03419193619987
 20
279.6678566484652
 30
0.0
  0
VERTEX
  5
1DCE4
  8
0
 10
287.32263371350001
 20
279.67991727586531
 30
0.0
  0
VERTEX
  5
1DCE5
  8
0
 10
287.57777139539979
 20
279.6887834667653
 30
0.0
  0
VERTEX
  5
1DCE6
  8
0
 10
287.7787135540998
 20
279.69063307336518
 30
0.0
  0
VERTEX
  5
1DCE7
  8
0
 10
287.8848023711999
 20
279.68225489546518
 30
0.0
  0
VERTEX
  5
1DCE8
  8
0
 10
287.89863809939988
 20
279.66211411346518
 30
0.0
  0
VERTEX
  5
1DCE9
  8
0
 10
287.80966326589993
 20
279.63339026266522
 30
0.0
  0
VERTEX
  5
1DCEA
  8
0
 10
287.64390274879997
 20
279.60260073836531
 30
0.0
  0
VERTEX
  5
1DCEB
  8
0
 10
287.3983465134998
 20
279.57201424236519
 30
0.0
  0
VERTEX
  5
1DCEC
  8
0
 10
287.1249698101999
 20
279.55185855916523
 30
0.0
  0
VERTEX
  5
1DCED
  8
0
 10
287.04407140609987
 20
279.54819659886527
 30
0.0
  0
VERTEX
  5
1DCEE
  8
0
 10
286.7507643996999
 20
279.54323823746518
 30
0.0
  0
VERTEX
  5
1DCEF
  8
0
 10
286.49155870079989
 20
279.55148603016528
 30
0.0
  0
VERTEX
  5
1DCF0
  8
0
 10
286.30253747099982
 20
279.56812131396521
 30
0.0
  0
VERTEX
  5
1DCF1
  8
0
 10
286.1882455646998
 20
279.58974476156533
 30
0.0
  0
VERTEX
  5
1DCF2
  8
0
 10
286.17896214130002
 20
279.60967320196528
 30
0.0
  0
VERTEX
  5
1DCF3
  8
0
 10
286.26357838509989
 20
279.62635877726518
 30
0.0
  0
VERTEX
  5
1DCF4
  8
0
 10
286.44316717980001
 20
279.64046086366523
 30
0.0
  0
VERTEX
  5
1DCF5
  8
0
 10
286.67313680049978
 20
279.6520874946653
 30
0.0
  0
VERTEX
  5
1DCF6
  8
0
 10
286.95166185499988
 20
279.66431389746532
 30
0.0
  0
VERTEX
  5
1DCF7
  8
0
 10
287.03419193619987
 20
279.6678566484652
 30
0.0
  0
SEQEND
  5
1DCF8
  8
0
  0
POLYLINE
  5
1CFA4
  8
0
 66
     1
 10
0.0
 20
0.0
 30
0.0
 70
   128
  0
VERTEX
  5
1DCF9
  8
0
 10
284.44161340589989
 20
279.29239208986519
 30
0.0
  0
VERTEX
  5
1DCFA
  8
0
 10
284.73124727599998
 20
279.29401631646522
 30
0.0
  0
VERTEX
  5
1DCFB
  8
0
 10
284.98846366999987
 20
279.27412326626518
 30
0.0
  0
VERTEX
  5
1DCFC
  8
0
 10
285.19003912799991
 20
279.2298314272652
 30
0.0
  0
VERTEX
  5
1DCFD
  8
0
 10
285.2964632212998
 20
279.1677084862651
 30
0.0
  0
VERTEX
  5
1DCFE
  8
0
 10
285.3123553096998
 20
279.08628481616518
 30
0.0
  0
VERTEX
  5
1DCFF
  8
0
 10
285.22607758639992
 20
278.99923595776522
 30
0.0
  0
VERTEX
  5
1DD00
  8
0
 10
285.0637517868999
 20
278.92081300906523
 30
0.0
  0
VERTEX
  5
1DD01
  8
0
 10
284.82088521119982
 20
278.85161760446522
 30
0.0
  0
VERTEX
  5
1DD02
  8
0
 10
284.54280719159988
 20
278.81218540666521
 30
0.0
  0
VERTEX
  5
1DD03
  8
0
 10
284.45810154079982
 20
278.80669619136518
 30
0.0
  0
VERTEX
  5
1DD04
  8
0
 10
284.16554704309988
 20
278.80980494616517
 30
0.0
  0
VERTEX
  5
1DD05
  8
0
 10
283.90574529769992
 20
278.84779173126509
 30
0.0
  0
VERTEX
  5
1DD06
  8
0
 10
283.71653035280002
 20
278.90913981196519
 30
0.0
  0
VERTEX
  5
1DD07
  8
0
 10
283.59932526939969
 20
278.99078141146521
 30
0.0
  0
VERTEX
  5
1DD08
  8
0
 10
283.58701691030001
 20
279.07249751676522
 30
0.0
  0
VERTEX
  5
1DD09
  8
0
 10
283.66738632319988
 20
279.14787876596517
 30
0.0
  0
VERTEX
  5
1DD0A
  8
0
 10
283.84243026370001
 20
279.21381826696518
 30
0.0
  0
VERTEX
  5
1DD0B
  8
0
 10
284.0724594890998
 20
279.2587881087652
 30
0.0
  0
VERTEX
  5
1DD0C
  8
0
 10
284.35134962199982
 20
279.28754176196531
 30
0.0
  0
VERTEX
  5
1DD0D
  8
0
 10
284.44161340589989
 20
279.29239208986519
 30
0.0
  0
SEQEND
  5
1DD0E
  8
0
  0
POLYLINE
  5
1CFA5
  8
0
 66
     1
 10
0.0
 20
0.0
 30
0.0
 70
   128
  0
VERTEX
  5
1DD0F
  8
0
 10
292.32124313709983
 20
278.87479636066519
 30
0.0
  0
VERTEX
  5
1DD10
  8
0
 10
292.64827892179989
 20
278.86655043056521
 30
0.0
  0
VERTEX
  5
1DD11
  8
0
 10
292.90498122569988
 20
278.81850536156531
 30
0.0
  0
VERTEX
  5
1DD12
  8
0
 10
293.09716150159989
 20
278.73138572266521
 30
0.0
  0
VERTEX
  5
1DD13
  8
0
 10
293.19437667729989
 20
278.62121957536522
 30
0.0
  0
VERTEX
  5
1DD14
  8
0
 10
293.20112690329978
 20
278.48440270116521
 30
0.0
  0
VERTEX
  5
1DD15
  8
0
 10
293.10781583189993
 20
278.34981727596522
 30
0.0
  0
VERTEX
  5
1DD16
  8
0
 10
292.94229373329989
 20
278.23338891556517
 30
0.0
  0
VERTEX
  5
1DD17
  8
0
 10
292.69436821339991
 20
278.13264589006519
 30
0.0
  0
VERTEX
  5
1DD18
  8
0
 10
292.40628406399992
 20
278.07803499696519
 30
0.0
  0
VERTEX
  5
1DD19
  8
0
 10
292.34845265739978
 20
278.07343798866521
 30
0.0
  0
VERTEX
  5
1DD1A
  8
0
 10
292.02068671579991
 20
278.08641131216518
 30
0.0
  0
VERTEX
  5
1DD1B
  8
0
 10
291.7644910514
 20
278.15499576916523
 30
0.0
  0
VERTEX
  5
1DD1C
  8
0
 10
291.58214554189999
 20
278.25731645516521
 30
0.0
  0
VERTEX
  5
1DD1D
  8
0
 10
291.47367998959999
 20
278.39152935136519
 30
0.0
  0
VERTEX
  5
1DD1E
  8
0
 10
291.4698056876
 20
278.52338786416522
 30
0.0
  0
VERTEX
  5
1DD1F
  8
0
 10
291.55660495159981
 20
278.64752385016533
 30
0.0
  0
VERTEX
  5
1DD20
  8
0
 10
291.7375944554999
 20
278.75619243076522
 30
0.0
  0
VERTEX
  5
1DD21
  8
0
 10
291.97204932570003
 20
278.82848913956519
 30
0.0
  0
VERTEX
  5
1DD22
  8
0
 10
292.25612506269999
 20
278.87059237056519
 30
0.0
  0
VERTEX
  5
1DD23
  8
0
 10
292.32124313709983
 20
278.87479636066519
 30
0.0
  0
SEQEND
  5
1DD24
  8
0
  0
POLYLINE
  5
1CFA6
  8
0
 66
     1
 10
0.0
 20
0.0
 30
0.0
 70
   128
  0
VERTEX
  5
1DD25
  8
0
 10
289.66476842759999
 20
279.50657579296518
 30
0.0
  0
VERTEX
  5
1DD26
  8
0
 10
289.9561755359
 20
279.50801375506518
 30
0.0
  0
VERTEX
  5
1DD27
  8
0
 10
290.21491929889999
 20
279.48920848956533
 30
0.0
  0
VERTEX
  5
1DD28
  8
0
 10
290.41729196900002
 20
279.44771434356528
 30
0.0
  0
VERTEX
  5
1DD29
  8
0
 10
290.52462503309999
 20
279.38954766086522
 30
0.0
  0
VERTEX
  5
1DD2A
  8
0
 10
290.53977951409979
 20
279.3135759531653
 30
0.0
  0
VERTEX
  5
1DD2B
  8
0
 10
290.45229479669979
 20
279.23348221176519
 30
0.0
  0
VERTEX
  5
1DD2C
  8
0
 10
290.29002115129992
 20
279.16154685606517
 30
0.0
  0
VERTEX
  5
1DD2D
  8
0
 10
290.04717692729992
 20
279.09773449596531
 30
0.0
  0
VERTEX
  5
1DD2E
  8
0
 10
289.77038785809981
 20
279.06137007466521
 30
0.0
  0
VERTEX
  5
1DD2F
  8
0
 10
289.68735858799982
 20
279.05631671836522
 30
0.0
  0
VERTEX
  5
1DD30
  8
0
 10
289.39173445099982
 20
279.0589318721652
 30
0.0
  0
VERTEX
  5
1DD31
  8
0
 10
289.1295038162998
 20
279.09419547016518
 30
0.0
  0
VERTEX
  5
1DD32
  8
0
 10
288.9376662670997
 20
279.15191325536517
 30
0.0
  0
VERTEX
  5
1DD33
  8
0
 10
288.82203325629979
 20
279.22816063456531
 30
0.0
  0
VERTEX
  5
1DD34
  8
0
 10
288.81225809449978
 20
279.3035940378652
 30
0.0
  0
VERTEX
  5
1DD35
  8
0
 10
288.8946764170999
 20
279.37373194096517
 30
0.0
  0
VERTEX
  5
1DD36
  8
0
 10
289.07156810160001
 20
279.4348062127653
 30
0.0
  0
VERTEX
  5
1DD37
  8
0
 10
289.30083736779989
 20
279.4759967475652
 30
0.0
  0
VERTEX
  5
1DD38
  8
0
 10
289.57871422170001
 20
279.50232523676527
 30
0.0
  0
VERTEX
  5
1DD39
  8
0
 10
289.66476842759999
 20
279.50657579296518
 30
0.0
  0
SEQEND
  5
1DD3A
  8
0
  0
POLYLINE
  5
1CFA7
  8
0
 66
     1
 10
0.0
 20
0.0
 30
0.0
 70
   128
  0
VERTEX
  5
1DD3B
  8
0
 10
292.22657605999979
 20
279.88613817086531
 30
0.0
  0
VERTEX
  5
1DD3C
  8
0
 10
292.51217171549979
 20
279.89649820316532
 30
0.0
  0
VERTEX
  5
1DD3D
  8
0
 10
292.76575967669987
 20
279.90182536836528
 30
0.0
  0
VERTEX
  5
1DD3E
  8
0
 10
292.97282621260001
 20
279.89926795656532
 30
0.0
  0
VERTEX
  5
1DD3F
  8
0
 10
293.08884665369987
 20
279.88653677696527
 30
0.0
  0
VERTEX
  5
1DD40
  8
0
 10
293.10656413429979
 20
279.8627023696651
 30
0.0
  0
VERTEX
  5
1DD41
  8
0
 10
293.01976487040002
 20
279.83277524996532
 30
0.0
  0
VERTEX
  5
1DD42
  8
0
 10
292.85877272480002
 20
279.80226698506522
 30
0.0
  0
VERTEX
  5
1DD43
  8
0
 10
292.61674806469978
 20
279.77209958426522
 30
0.0
  0
VERTEX
  5
1DD44
  8
0
 10
292.34472736709989
 20
279.75223261106521
 30
0.0
  0
VERTEX
  5
1DD45
  8
0
 10
292.26454421879998
 20
279.74865074446518
 30
0.0
  0
VERTEX
  5
1DD46
  8
0
 10
291.96881577369982
 20
279.74376502626529
 30
0.0
  0
VERTEX
  5
1DD47
  8
0
 10
291.70676395299989
 20
279.75217300646523
 30
0.0
  0
VERTEX
  5
1DD48
  8
0
 10
291.51433035730003
 20
279.76953472186523
 30
0.0
  0
VERTEX
  5
1DD49
  8
0
 10
291.39781817789981
 20
279.79286248976518
 30
0.0
  0
VERTEX
  5
1DD4A
  8
0
 10
291.38688072559989
 20
279.81566126636523
 30
0.0
  0
VERTEX
  5
1DD4B
  8
0
 10
291.47049114110001
 20
279.83623418206531
 30
0.0
  0
VERTEX
  5
1DD4C
  8
0
 10
291.64902195329978
 20
279.8545961379653
 30
0.0
  0
VERTEX
  5
1DD4D
  8
0
 10
291.8757729231998
 20
279.86922535296532
 30
0.0
  0
VERTEX
  5
1DD4E
  8
0
 10
292.15181693429992
 20
279.88292138276518
 30
0.0
  0
VERTEX
  5
1DD4F
  8
0
 10
292.22657605999979
 20
279.88613817086531
 30
0.0
  0
SEQEND
  5
1DD50
  8
0
  0
POLYLINE
  5
1CFA8
  8
0
 66
     1
 10
0.0
 20
0.0
 30
0.0
 70
   128
  0
VERTEX
  5
1DD51
  8
0
 10
287.08044514059981
 20
278.60320965936518
 30
0.0
  0
VERTEX
  5
1DD52
  8
0
 10
287.4177105724998
 20
278.5923783778652
 30
0.0
  0
VERTEX
  5
1DD53
  8
0
 10
287.67012879249978
 20
278.5388534068652
 30
0.0
  0
VERTEX
  5
1DD54
  8
0
 10
287.85635605449988
 20
278.44444151216521
 30
0.0
  0
VERTEX
  5
1DD55
  8
0
 10
287.94831112029988
 20
278.3269980101652
 30
0.0
  0
VERTEX
  5
1DD56
  8
0
 10
287.95214071869992
 20
278.18123857666518
 30
0.0
  0
VERTEX
  5
1DD57
  8
0
 10
287.85653486849992
 20
278.0350917129652
 30
0.0
  0
VERTEX
  5
1DD58
  8
0
 10
287.68473193049982
 20
277.90719504646518
 30
0.0
  0
VERTEX
  5
1DD59
  8
0
 10
287.43267878889992
 20
277.80145454396518
 30
0.0
  0
VERTEX
  5
1DD5A
  8
0
 10
287.15235814449989
 20
277.74864669136531
 30
0.0
  0
VERTEX
  5
1DD5B
  8
0
 10
287.10819110269989
 20
277.74519520986519
 30
0.0
  0
VERTEX
  5
1DD5C
  8
0
 10
286.77034452559968
 20
277.76156786076518
 30
0.0
  0
VERTEX
  5
1DD5D
  8
0
 10
286.51821687819978
 20
277.83658403156522
 30
0.0
  0
VERTEX
  5
1DD5E
  8
0
 10
286.33948490019998
 20
277.9468880145651
 30
0.0
  0
VERTEX
  5
1DD5F
  8
0
 10
286.23522892589989
 20
278.09072147306517
 30
0.0
  0
VERTEX
  5
1DD60
  8
0
 10
286.23483404519988
 20
278.23214466866523
 30
0.0
  0
VERTEX
  5
1DD61
  8
0
 10
286.32611855859977
 20
278.36592356856522
 30
0.0
  0
VERTEX
  5
1DD62
  8
0
 10
286.51130273939998
 20
278.48135355106518
 30
0.0
  0
VERTEX
  5
1DD63
  8
0
 10
286.74849197269992
 20
278.55737555016532
 30
0.0
  0
VERTEX
  5
1DD64
  8
0
 10
287.03501895069991
 20
278.60031697146519
 30
0.0
  0
VERTEX
  5
1DD65
  8
0
 10
287.08044514059981
 20
278.60320965936518
 30
0.0
  0
SEQEND
  5
1DD66
  8
0
  0
POLYLINE
  5
1CFA9
  8
0
 66
     1
 10
0.0
 20
0.0
 30
0.0
 70
   128
  0
VERTEX
  5
1DD67
  8
0
 10
307.58298262949978
 20
276.90080787236519
 30
0.0
  0
VERTEX
  5
1DD68
  8
0
 10
307.78276249759989
 20
276.70078958566518
 30
0.0
  0
VERTEX
  5
1DD69
  8
0
 10
307.95773193239978
 20
276.46164457496519
 30
0.0
  0
VERTEX
  5
1DD6A
  8
0
 10
308.08261856429999
 20
276.22264112526523
 30
0.0
  0
VERTEX
  5
1DD6B
  8
0
 10
308.15795883530001
 20
275.98141367726521
 30
0.0
  0
VERTEX
  5
1DD6C
  8
0
 10
308.16159471869992
 20
275.79445253306523
 30
0.0
  0
VERTEX
  5
1DD6D
  8
0
 10
308.10161754489991
 20
275.6745913176652
 30
0.0
  0
VERTEX
  5
1DD6E
  8
0
 10
307.97839984299981
 20
275.63176538046531
 30
0.0
  0
VERTEX
  5
1DD6F
  8
0
 10
307.82180354000002
 20
275.6752506940652
 30
0.0
  0
VERTEX
  5
1DD70
  8
0
 10
307.63237997890002
 20
275.7956520765652
 30
0.0
  0
VERTEX
  5
1DD71
  8
0
 10
307.5541339813999
 20
275.86217458536521
 30
0.0
  0
SEQEND
  5
1DD72
  8
0
  0
POLYLINE
  5
1CFAA
  8
0
 66
     1
 10
0.0
 20
0.0
 30
0.0
 70
   128
  0
VERTEX
  5
1DD73
  8
0
 10
307.5541339813999
 20
275.86217458536521
 30
0.0
  0
VERTEX
  5
1DD74
  8
0
 10
307.31759294869988
 20
276.12006153156523
 30
0.0
  0
VERTEX
  5
1DD75
  8
0
 10
307.14396461839988
 20
276.37432377036521
 30
0.0
  0
VERTEX
  5
1DD76
  8
0
 10
307.02305659649983
 20
276.62360157066519
 30
0.0
  0
VERTEX
  5
1DD77
  8
0
 10
306.96676000949992
 20
276.82873468096523
 30
0.0
  0
VERTEX
  5
1DD78
  8
0
 10
306.97155818339979
 20
277.00187499816531
 30
0.0
  0
VERTEX
  5
1DD79
  8
0
 10
307.04661533230001
 20
277.09794278436522
 30
0.0
  0
VERTEX
  5
1DD7A
  8
0
 10
307.17405006289982
 20
277.11696784196522
 30
0.0
  0
VERTEX
  5
1DD7B
  8
0
 10
307.3577366769
 20
277.0560928731652
 30
0.0
  0
VERTEX
  5
1DD7C
  8
0
 10
307.58298262949978
 20
276.90080787236519
 30
0.0
  0
SEQEND
  5
1DD7D
  8
0
  0
POLYLINE
  5
1CFAB
  8
0
 66
     1
 10
0.0
 20
0.0
 30
0.0
 70
   128
  0
VERTEX
  5
1DD7E
  8
0
 10
279.3070755898998
 20
276.69446776796519
 30
0.0
  0
VERTEX
  5
1DD7F
  8
0
 10
279.62002977729981
 20
276.67187388236522
 30
0.0
  0
VERTEX
  5
1DD80
  8
0
 10
279.87182959909978
 20
276.58406878996527
 30
0.0
  0
VERTEX
  5
1DD81
  8
0
 10
280.07247373460001
 20
276.42848949126522
 30
0.0
  0
VERTEX
  5
1DD82
  8
0
 10
280.17987385389978
 20
276.23658861216518
 30
0.0
  0
VERTEX
  5
1DD83
  8
0
 10
280.19996806979998
 20
276.00609000016527
 30
0.0
  0
VERTEX
  5
1DD84
  8
0
 10
280.11930063359978
 20
275.77655996376518
 30
0.0
  0
VERTEX
  5
1DD85
  8
0
 10
279.95999976989992
 20
275.58104182776532
 30
0.0
  0
VERTEX
  5
1DD86
  8
0
 10
279.71912249919978
 20
275.42181919506521
 30
0.0
  0
VERTEX
  5
1DD87
  8
0
 10
279.44389805199989
 20
275.3425450175651
 30
0.0
  0
VERTEX
  5
1DD88
  8
0
 10
279.372305423
 20
275.3350683598652
 30
0.0
  0
VERTEX
  5
1DD89
  8
0
 10
279.05877754089988
 20
275.3614359646653
 30
0.0
  0
VERTEX
  5
1DD8A
  8
0
 10
278.79984006279977
 20
275.47331015756521
 30
0.0
  0
VERTEX
  5
1DD8B
  8
0
 10
278.61164584749991
 20
275.63962574296522
 30
0.0
  0
VERTEX
  5
1DD8C
  8
0
 10
278.4914679824999
 20
275.86212243136532
 30
0.0
  0
VERTEX
  5
1DD8D
  8
0
 10
278.47556099289977
 20
276.08741308746528
 30
0.0
  0
VERTEX
  5
1DD8E
  8
0
 10
278.5520337521998
 20
276.30072320986523
 30
0.0
  0
VERTEX
  5
1DD8F
  8
0
 10
278.72360572219992
 20
276.48959542806517
 30
0.0
  0
VERTEX
  5
1DD90
  8
0
 10
278.95443215959989
 20
276.61694820216519
 30
0.0
  0
VERTEX
  5
1DD91
  8
0
 10
279.23678681249982
 20
276.68799321346518
 30
0.0
  0
VERTEX
  5
1DD92
  8
0
 10
279.3070755898998
 20
276.69446776796519
 30
0.0
  0
SEQEND
  5
1DD93
  8
0
  0
POLYLINE
  5
1CFAC
  8
0
 66
     1
 10
0.0
 20
0.0
 30
0.0
 70
   128
  0
VERTEX
  5
1DD94
  8
0
 10
276.64154842489978
 20
278.06276875726519
 30
0.0
  0
VERTEX
  5
1DD95
  8
0
 10
276.97799429299999
 20
278.04729390136532
 30
0.0
  0
VERTEX
  5
1DD96
  8
0
 10
277.22540572279991
 20
277.98655863096519
 30
0.0
  0
VERTEX
  5
1DD97
  8
0
 10
277.4139277636998
 20
277.88033756606518
 30
0.0
  0
VERTEX
  5
1DD98
  8
0
 10
277.5095708668
 20
277.74763713766532
 30
0.0
  0
VERTEX
  5
1DD99
  8
0
 10
277.51547172660003
 20
277.58531506356519
 30
0.0
  0
VERTEX
  5
1DD9A
  8
0
 10
277.42085680359992
 20
277.42414410406519
 30
0.0
  0
VERTEX
  5
1DD9B
  8
0
 10
277.24886760109979
 20
277.28470648816523
 30
0.0
  0
VERTEX
  5
1DD9C
  8
0
 10
276.99684426189992
 20
277.17232565576529
 30
0.0
  0
VERTEX
  5
1DD9D
  8
0
 10
276.7194293439
 20
277.11915831256522
 30
0.0
  0
VERTEX
  5
1DD9E
  8
0
 10
276.6764245926999
 20
277.11604396996518
 30
0.0
  0
VERTEX
  5
1DD9F
  8
0
 10
276.33939757939987
 20
277.13785181936521
 30
0.0
  0
VERTEX
  5
1DDA0
  8
0
 10
276.08808949590002
 20
277.2220657318652
 30
0.0
  0
VERTEX
  5
1DDA1
  8
0
 10
275.90959593650001
 20
277.34355862436519
 30
0.0
  0
VERTEX
  5
1DDA2
  8
0
 10
275.8033134042999
 20
277.50195424256532
 30
0.0
  0
VERTEX
  5
1DDA3
  8
0
 10
275.80075040460002
 20
277.65848349026521
 30
0.0
  0
VERTEX
  5
1DDA4
  8
0
 10
275.89119300239992
 20
277.80602547516531
 30
0.0
  0
VERTEX
  5
1DDA5
  8
0
 10
276.07581093909988
 20
277.93222527196519
 30
0.0
  0
VERTEX
  5
1DDA6
  8
0
 10
276.3138644396999
 20
278.01509994266519
 30
0.0
  0
VERTEX
  5
1DDA7
  8
0
 10
276.60158351059999
 20
278.06032310416532
 30
0.0
  0
VERTEX
  5
1DDA8
  8
0
 10
276.64154842489978
 20
278.06276875726519
 30
0.0
  0
SEQEND
  5
1DDA9
  8
0
  0
POLYLINE
  5
1CFAD
  8
0
 66
     1
 10
0.0
 20
0.0
 30
0.0
 70
   128
  0
VERTEX
  5
1DDAA
  8
0
 10
294.98443827030002
 20
277.7172853349652
 30
0.0
  0
VERTEX
  5
1DDAB
  8
0
 10
295.28606757519992
 20
277.69985470166517
 30
0.0
  0
VERTEX
  5
1DDAC
  8
0
 10
295.54922208189993
 20
277.62046504016519
 30
0.0
  0
VERTEX
  5
1DDAD
  8
0
 10
295.7445167004999
 20
277.48111496856518
 30
0.0
  0
VERTEX
  5
1DDAE
  8
0
 10
295.84006294609981
 20
277.31774236256518
 30
0.0
  0
VERTEX
  5
1DDAF
  8
0
 10
295.85740789769989
 20
277.11661766466523
 30
0.0
  0
VERTEX
  5
1DDB0
  8
0
 10
295.77671810980002
 20
276.90413828186519
 30
0.0
  0
VERTEX
  5
1DDB1
  8
0
 10
295.61656042929991
 20
276.72236274176521
 30
0.0
  0
VERTEX
  5
1DDB2
  8
0
 10
295.37571296089982
 20
276.5715257375652
 30
0.0
  0
VERTEX
  5
1DDB3
  8
0
 10
295.08521482349988
 20
276.48837353286518
 30
0.0
  0
VERTEX
  5
1DDB4
  8
0
 10
294.99381110069999
 20
276.47884051496521
 30
0.0
  0
VERTEX
  5
1DDB5
  8
0
 10
294.6913473308
 20
276.5011624544652
 30
0.0
  0
VERTEX
  5
1DDB6
  8
0
 10
294.4338701664999
 20
276.60291503366523
 30
0.0
  0
VERTEX
  5
1DDB7
  8
0
 10
294.25028786059988
 20
276.75249288966518
 30
0.0
  0
VERTEX
  5
1DDB8
  8
0
 10
294.13225576280001
 20
276.95338289436518
 30
0.0
  0
VERTEX
  5
1DDB9
  8
0
 10
294.11821886899997
 20
277.15504775936517
 30
0.0
  0
VERTEX
  5
1DDBA
  8
0
 10
294.19203922149973
 20
277.34199400236531
 30
0.0
  0
VERTEX
  5
1DDBB
  8
0
 10
294.36069056389988
 20
277.51622582966519
 30
0.0
  0
VERTEX
  5
1DDBC
  8
0
 10
294.59814056749991
 20
277.63940441606519
 30
0.0
  0
VERTEX
  5
1DDBD
  8
0
 10
294.88512203099981
 20
277.70842286936522
 30
0.0
  0
VERTEX
  5
1DDBE
  8
0
 10
294.98443827030002
 20
277.7172853349652
 30
0.0
  0
SEQEND
  5
1DDBF
  8
0
  0
POLYLINE
  5
1CFAE
  8
0
 66
     1
 10
0.0
 20
0.0
 30
0.0
 70
   128
  0
VERTEX
  5
1DDC0
  8
0
 10
289.73773941399992
 20
277.38752077516529
 30
0.0
  0
VERTEX
  5
1DDC1
  8
0
 10
290.04884585739978
 20
277.37064893536518
 30
0.0
  0
VERTEX
  5
1DDC2
  8
0
 10
290.30805155629992
 20
277.28975798186531
 30
0.0
  0
VERTEX
  5
1DDC3
  8
0
 10
290.50303325059991
 20
277.14662860326519
 30
0.0
  0
VERTEX
  5
1DDC4
  8
0
 10
290.60108289119989
 20
276.97560052566519
 30
0.0
  0
VERTEX
  5
1DDC5
  8
0
 10
290.61915799969989
 20
276.76397050906519
 30
0.0
  0
VERTEX
  5
1DDC6
  8
0
 10
290.53836390369997
 20
276.54369409376523
 30
0.0
  0
VERTEX
  5
1DDC7
  8
0
 10
290.3769694268999
 20
276.35348077116521
 30
0.0
  0
VERTEX
  5
1DDC8
  8
0
 10
290.13504907489983
 20
276.1979946046651
 30
0.0
  0
VERTEX
  5
1DDC9
  8
0
 10
289.85371515149973
 20
276.11665661626517
 30
0.0
  0
VERTEX
  5
1DDCA
  8
0
 10
289.7778980434
 20
276.10825608666522
 30
0.0
  0
VERTEX
  5
1DDCB
  8
0
 10
289.46591243149987
 20
276.13035823396518
 30
0.0
  0
VERTEX
  5
1DDCC
  8
0
 10
289.20935913919988
 20
276.23449872426522
 30
0.0
  0
VERTEX
  5
1DDCD
  8
0
 10
289.0256129204999
 20
276.38846497226518
 30
0.0
  0
VERTEX
  5
1DDCE
  8
0
 10
288.90726789829978
 20
276.59608285126518
 30
0.0
  0
VERTEX
  5
1DDCF
  8
0
 10
288.89193460339987
 20
276.80743347106522
 30
0.0
  0
VERTEX
  5
1DDD0
  8
0
 10
288.96784111859978
 20
277.00733254846517
 30
0.0
  0
VERTEX
  5
1DDD1
  8
0
 10
289.1397856175999
 20
277.1873199491651
 30
0.0
  0
VERTEX
  5
1DDD2
  8
0
 10
289.37184140079989
 20
277.30950574566521
 30
0.0
  0
VERTEX
  5
1DDD3
  8
0
 10
289.65441212059977
 20
277.37939219166532
 30
0.0
  0
VERTEX
  5
1DDD4
  8
0
 10
289.73773941399992
 20
277.38752077516529
 30
0.0
  0
SEQEND
  5
1DDD5
  8
0
  0
POLYLINE
  5
1CFAF
  8
0
 66
     1
 10
0.0
 20
0.0
 30
0.0
 70
   128
  0
VERTEX
  5
1DDD6
  8
0
 10
284.51874926679989
 20
277.03148360546533
 30
0.0
  0
VERTEX
  5
1DDD7
  8
0
 10
284.83112230900002
 20
277.01164643456519
 30
0.0
  0
VERTEX
  5
1DDD8
  8
0
 10
285.08458361029989
 20
276.9276895671652
 30
0.0
  0
VERTEX
  5
1DDD9
  8
0
 10
285.28317138549983
 20
276.7783240526652
 30
0.0
  0
VERTEX
  5
1DDDA
  8
0
 10
285.38748696439978
 20
276.59539367256531
 30
0.0
  0
VERTEX
  5
1DDDB
  8
0
 10
285.40685102339989
 20
276.37288580826521
 30
0.0
  0
VERTEX
  5
1DDDC
  8
0
 10
285.3262580930998
 20
276.1482023744652
 30
0.0
  0
VERTEX
  5
1DDDD
  8
0
 10
285.16596630209978
 20
275.95528449116517
 30
0.0
  0
VERTEX
  5
1DDDE
  8
0
 10
284.92479845879978
 20
275.79815919686519
 30
0.0
  0
VERTEX
  5
1DDDF
  8
0
 10
284.64794233439989
 20
275.71843053396509
 30
0.0
  0
VERTEX
  5
1DDE0
  8
0
 10
284.57439765329991
 20
275.71053291846522
 30
0.0
  0
VERTEX
  5
1DDE1
  8
0
 10
284.26134660839989
 20
275.73481436066533
 30
0.0
  0
VERTEX
  5
1DDE2
  8
0
 10
284.00283381339977
 20
275.84285522986522
 30
0.0
  0
VERTEX
  5
1DDE3
  8
0
 10
283.81555601950009
 20
276.00383619956523
 30
0.0
  0
VERTEX
  5
1DDE4
  8
0
 10
283.69657769799983
 20
276.21925856166519
 30
0.0
  0
VERTEX
  5
1DDE5
  8
0
 10
283.68156477809998
 20
276.43675963576521
 30
0.0
  0
VERTEX
  5
1DDE6
  8
0
 10
283.75826850529978
 20
276.64387832576517
 30
0.0
  0
VERTEX
  5
1DDE7
  8
0
 10
283.9303843676999
 20
276.82863782336523
 30
0.0
  0
VERTEX
  5
1DDE8
  8
0
 10
284.1625668108
 20
276.95399384196531
 30
0.0
  0
VERTEX
  5
1DDE9
  8
0
 10
284.44562181830003
 20
277.02455456546522
 30
0.0
  0
VERTEX
  5
1DDEA
  8
0
 10
284.51874926679989
 20
277.03148360546533
 30
0.0
  0
SEQEND
  5
1DDEB
  8
0
  0
POLYLINE
  5
1CFB0
  8
0
 66
     1
 10
0.0
 20
0.0
 30
0.0
 70
   128
  0
VERTEX
  5
1DDEC
  8
0
 10
305.43064400549969
 20
276.68916295466522
 30
0.0
  0
VERTEX
  5
1DDED
  8
0
 10
305.67560419440002
 20
276.51717747736518
 30
0.0
  0
VERTEX
  5
1DDEE
  8
0
 10
305.87733611459998
 20
276.2900204508652
 30
0.0
  0
VERTEX
  5
1DDEF
  8
0
 10
306.01481422779989
 20
276.02199698976523
 30
0.0
  0
VERTEX
  5
1DDF0
  8
0
 10
306.06148466469989
 20
275.77007050806509
 30
0.0
  0
VERTEX
  5
1DDF1
  8
0
 10
306.02311417459993
 20
275.53356300286521
 30
0.0
  0
VERTEX
  5
1DDF2
  8
0
 10
305.89947924019998
 20
275.35764361906519
 30
0.0
  0
VERTEX
  5
1DDF3
  8
0
 10
305.71787878869992
 20
275.26141564536522
 30
0.0
  0
VERTEX
  5
1DDF4
  8
0
 10
305.47902807589981
 20
275.24739737806522
 30
0.0
  0
VERTEX
  5
1DDF5
  8
0
 10
305.23934289809989
 20
275.3240601270652
 30
0.0
  0
VERTEX
  5
1DDF6
  8
0
 10
305.17437383529978
 20
275.35849298526517
 30
0.0
  0
VERTEX
  5
1DDF7
  8
0
 10
304.93239387869988
 20
275.54047341636522
 30
0.0
  0
VERTEX
  5
1DDF8
  8
0
 10
304.73514720799989
 20
275.78003938486518
 30
0.0
  0
VERTEX
  5
1DDF9
  8
0
 10
304.6065948902999
 20
276.03963623936522
 30
0.0
  0
VERTEX
  5
1DDFA
  8
0
 10
304.55472394819981
 20
276.30659799266527
 30
0.0
  0
VERTEX
  5
1DDFB
  8
0
 10
304.59108278149978
 20
276.52511979636517
 30
0.0
  0
VERTEX
  5
1DDFC
  8
0
 10
304.70574721689991
 20
276.69369290766519
 30
0.0
  0
VERTEX
  5
1DDFD
  8
0
 10
304.8960499465
 20
276.78815881896531
 30
0.0
  0
VERTEX
  5
1DDFE
  8
0
 10
305.11427745219999
 20
276.79370950156522
 30
0.0
  0
VERTEX
  5
1DDFF
  8
0
 10
305.36481067539989
 20
276.72116692356519
 30
0.0
  0
VERTEX
  5
1DE00
  8
0
 10
305.43064400549969
 20
276.68916295466522
 30
0.0
  0
SEQEND
  5
1DE01
  8
0
  0
ARC
  5
1CFB1
  8
0
 10
344.2791801465678
 20
194.04394127933301
 30
0.0
 40
116.19823830009661
 50
133.2419346320728
 51
135.0534523876145
  0
POLYLINE
  5
1CFB2
  8
0
 66
     1
 10
0.0
 20
0.0
 30
0.0
 70
   128
  0
VERTEX
  5
1DE02
  8
0
 10
265.75857475399988
 20
278.70851430286518
 30
0.0
  0
VERTEX
  5
1DE03
  8
0
 10
266.16423651569988
 20
278.6114201991652
 30
0.0
  0
VERTEX
  5
1DE04
  8
0
 10
266.66839495300002
 20
278.44462032606521
 30
0.0
  0
VERTEX
  5
1DE05
  8
0
 10
267.3389844596
 20
278.24819508186522
 30
0.0
  0
VERTEX
  5
1DE06
  8
0
 10
267.77644529939988
 20
278.17993286246519
 30
0.0
  0
VERTEX
  5
1DE07
  8
0
 10
268.0198855697999
 20
278.17017073926519
 30
0.0
  0
VERTEX
  5
1DE08
  8
0
 10
268.26839968559989
 20
278.18196128306522
 30
0.0
  0
VERTEX
  5
1DE09
  8
0
 10
268.50684061639981
 20
278.21520577366522
 30
0.0
  0
VERTEX
  5
1DE0A
  8
0
 10
268.72545555229999
 20
278.26609323916517
 30
0.0
  0
VERTEX
  5
1DE0B
  8
0
 10
269.09001246090003
 20
278.3935428707652
 30
0.0
  0
VERTEX
  5
1DE0C
  8
0
 10
269.60308924319997
 20
278.64860790956533
 30
0.0
  0
VERTEX
  5
1DE0D
  8
0
 10
270.22158429019993
 20
278.92751108106518
 30
0.0
  0
SEQEND
  5
1DE0E
  8
0
  0
LINE
  5
1CFB3
  8
0
 10
261.86785176389981
 20
275.96051852396522
 30
0.0
 11
262.05000355840002
 21
275.96051852396522
 31
0.0
  0
LINE
  5
1CFB4
  8
0
 10
261.86785176389981
 20
275.96051852396522
 30
0.0
 11
261.86314422621132
 21
275.4805116352855
 31
0.0
  0
ARC
  5
1CFB5
  8
0
 10
264.84014505999988
 20
273.17828721236509
 30
0.0
 40
4.07128217016185
 50
133.49337826250871
 51
136.89169273480169
  0
POLYLINE
  5
1CFB6
  8
0
 66
     1
 10
0.0
 20
0.0
 30
0.0
 70
   128
  0
VERTEX
  5
1DE0F
  8
0
 10
263.91081586479982
 20
272.48052369056518
 30
0.0
  0
VERTEX
  5
1DE10
  8
0
 10
263.91311064359979
 20
273.49942784006521
 30
0.0
  0
VERTEX
  5
1DE11
  8
0
 10
263.94049897790001
 20
274.47087551646518
 30
0.0
  0
VERTEX
  5
1DE12
  8
0
 10
263.99812921879987
 20
275.36138753586522
 30
0.0
  0
VERTEX
  5
1DE13
  8
0
 10
264.08185139299979
 20
276.15146572876517
 30
0.0
  0
VERTEX
  5
1DE14
  8
0
 10
264.32193890209987
 20
277.39604051406519
 30
0.0
  0
VERTEX
  5
1DE15
  8
0
 10
264.66523930429997
 20
278.21564535786518
 30
0.0
  0
VERTEX
  5
1DE16
  8
0
 10
265.1305131613999
 20
278.6450912355653
 30
0.0
  0
VERTEX
  5
1DE17
  8
0
 10
265.75857475399988
 20
278.70851430286518
 30
0.0
  0
SEQEND
  5
1DE18
  8
0
  0
POLYLINE
  5
1CFB7
  8
0
 66
     1
 10
0.0
 20
0.0
 30
0.0
 70
   128
  0
VERTEX
  5
1DE19
  8
0
 10
270.22158429019993
 20
278.92751108106518
 30
0.0
  0
VERTEX
  5
1DE1A
  8
0
 10
270.59333100909998
 20
278.82076661286521
 30
0.0
  0
VERTEX
  5
1DE1B
  8
0
 10
270.83884254099991
 20
278.32962247726527
 30
0.0
  0
VERTEX
  5
1DE1C
  8
0
 10
271.00190594790001
 20
277.44497220216522
 30
0.0
  0
VERTEX
  5
1DE1D
  8
0
 10
271.10612466929979
 20
276.15595097836518
 30
0.0
  0
VERTEX
  5
1DE1E
  8
0
 10
271.14253565669992
 20
275.35541217026531
 30
0.0
  0
VERTEX
  5
1DE1F
  8
0
 10
271.17078080769988
 20
274.45897321396518
 30
0.0
  0
VERTEX
  5
1DE20
  8
0
 10
271.19001820679978
 20
273.49100868396522
 30
0.0
  0
VERTEX
  5
1DE21
  8
0
 10
271.20852544899981
 20
272.48050133876518
 30
0.0
  0
SEQEND
  5
1DE22
  8
0
  0
ARC
  5
1CFB8
  8
0
 10
-2.7445917695001749
 20
272.58432753366532
 30
0.0
 40
264.81611805265658
 50
359.97753851750139
 51
0.7304945665011814
  0
POLYLINE
  5
1CFB9
  8
0
 66
     1
 10
0.0
 20
0.0
 30
0.0
 70
   128
  0
VERTEX
  5
1DE23
  8
0
 10
264.2635785042998
 20
272.48051251466518
 30
0.0
  0
VERTEX
  5
1DE24
  8
0
 10
264.26546350119997
 20
273.33574603486522
 30
0.0
  0
VERTEX
  5
1DE25
  8
0
 10
264.29265066980003
 20
274.15637533356528
 30
0.0
  0
VERTEX
  5
1DE26
  8
0
 10
264.4321925937997
 20
275.58142553266521
 30
0.0
  0
VERTEX
  5
1DE27
  8
0
 10
264.66614827509989
 20
276.65375034506519
 30
0.0
  0
VERTEX
  5
1DE28
  8
0
 10
264.9965517222999
 20
277.37588669356518
 30
0.0
  0
VERTEX
  5
1DE29
  8
0
 10
265.43689593669978
 20
277.77361172426532
 30
0.0
  0
VERTEX
  5
1DE2A
  8
0
 10
265.7913796602997
 20
277.86643105736522
 30
0.0
  0
SEQEND
  5
1DE2B
  8
0
  0
POLYLINE
  5
1CFBA
  8
0
 66
     1
 10
0.0
 20
0.0
 30
0.0
 70
   128
  0
VERTEX
  5
1DE2C
  8
0
 10
270.0535662471998
 20
278.05386531346522
 30
0.0
  0
VERTEX
  5
1DE2D
  8
0
 10
270.34555450079978
 20
277.92853537196532
 30
0.0
  0
VERTEX
  5
1DE2E
  8
0
 10
270.57859376070002
 20
277.48249146336519
 30
0.0
  0
VERTEX
  5
1DE2F
  8
0
 10
270.73754444719998
 20
276.71043808756519
 30
0.0
  0
VERTEX
  5
1DE30
  8
0
 10
270.84414735429982
 20
275.60020099576519
 30
0.0
  0
VERTEX
  5
1DE31
  8
0
 10
270.91337814929989
 20
274.15702353406527
 30
0.0
  0
VERTEX
  5
1DE32
  8
0
 10
270.93428447839977
 20
273.3338386862651
 30
0.0
  0
VERTEX
  5
1DE33
  8
0
 10
270.95323875539998
 20
272.48049388816531
 30
0.0
  0
SEQEND
  5
1DE34
  8
0
  0
LINE
  5
1CFBB
  8
0
 10
302.19555010429082
 20
280.31326878273433
 30
0.0
 11
270.22158429019993
 21
278.92751108106518
 31
0.0
  0
LINE
  5
1CFBC
  8
0
 10
264.68747928739981
 20
278.68306498226531
 30
0.0
 11
262.05000355841457
 21
275.96051852417941
 31
0.0
  0
LINE
  5
1CFBD
  8
0
 10
264.68747928739981
 20
278.68306498226531
 30
0.0
 11
264.67403844
 21
278.69057144216521
 31
0.0
  0
LINE
  5
1CFC4
  8
0
 10
201.71200083109991
 20
278.98051144033138
 30
0.0
 11
201.71200083109991
 21
279.98051144033138
 31
0.0
  0
LINE
  5
1CFC5
  8
0
 10
202.21200083109991
 20
280.48051144033138
 30
0.0
 11
207.71200083109991
 21
280.48051144033138
 31
0.0
  0
LINE
  5
1CFC6
  8
0
 10
208.21200083109991
 20
279.98051144033138
 30
0.0
 11
208.21200083109991
 21
278.98051144033138
 31
0.0
  0
LINE
  5
1CFC7
  8
0
 10
210.9020008311
 20
278.98051144033138
 30
0.0
 11
210.9020008311
 21
279.98051144033138
 31
0.0
  0
LINE
  5
1CFC8
  8
0
 10
211.40200083109991
 20
280.48051144033138
 30
0.0
 11
216.9020008311
 21
280.48051144033138
 31
0.0
  0
LINE
  5
1CFC9
  8
0
 10
217.40200083109991
 20
279.98051144033138
 30
0.0
 11
217.40200083109991
 21
278.98051144033138
 31
0.0
  0
LINE
  5
1CFCE
  8
0
 10
219.27535795549991
 20
278.98051144033138
 30
0.0
 11
219.27535795549991
 21
279.98051144033138
 31
0.0
  0
LINE
  5
1CFCF
  8
0
 10
219.77535795549991
 20
280.48051144033138
 30
0.0
 11
225.27535795549991
 21
280.48051144033138
 31
0.0
  0
LINE
  5
1CFD0
  8
0
 10
225.77535795549991
 20
279.98051144033138
 30
0.0
 11
225.77535795549991
 21
278.98051144033138
 31
0.0
  0
LINE
  5
1CFD4
  8
0
 10
225.27535795549991
 20
280.48051144033138
 30
0.0
 11
229.20303208899989
 21
280.48051144033138
 31
0.0
  0
LINE
  5
1CFD5
  8
0
 10
229.70303208899981
 20
279.98051144033138
 30
0.0
 11
229.70303208899981
 21
278.98051144033138
 31
0.0
  0
LINE
  5
1CFD9
  8
0
 10
229.20303208899989
 20
280.48051144033138
 30
0.0
 11
234.65000083849989
 21
280.48051144033138
 31
0.0
  0
LINE
  5
1CFDA
  8
0
 10
235.15000083849989
 20
279.98051144033138
 30
0.0
 11
235.15000083849989
 21
278.98051144033138
 31
0.0
  0
ARC
  5
1CFDB
  8
0
 10
202.21200083109991
 20
279.98051144033138
 30
0.0
 40
0.5
 50
90.0
 51
180.0
  0
ARC
  5
1CFDC
  8
0
 10
207.71200083109991
 20
279.98051144033138
 30
0.0
 40
0.5
 50
0.0
 51
90.0
  0
ARC
  5
1CFDE
  8
0
 10
211.40200083109991
 20
279.98051144033138
 30
0.0
 40
0.5
 50
90.0
 51
180.0
  0
ARC
  5
1CFDF
  8
0
 10
216.9020008311
 20
279.98051144033138
 30
0.0
 40
0.5
 50
0.0
 51
90.0
  0
ARC
  5
1CFE2
  8
0
 10
202.21200083109991
 20
278.98051144033138
 30
0.0
 40
0.5
 50
180.0
 51
270.0
  0
ARC
  5
1CFE3
  8
0
 10
207.71200083109991
 20
278.98051144033138
 30
0.0
 40
0.5
 50
270.0
 51
0.0
  0
ARC
  5
1CFE4
  8
0
 10
211.40200083109991
 20
278.98051144033138
 30
0.0
 40
0.5
 50
180.0
 51
270.0
  0
ARC
  5
1CFE5
  8
0
 10
216.9020008311
 20
278.98051144033138
 30
0.0
 40
0.5
 50
270.0
 51
0.0
  0
ARC
  5
1CFE7
  8
0
 10
219.77535795549991
 20
279.98051144033138
 30
0.0
 40
0.5
 50
90.0
 51
180.0
  0
ARC
  5
1CFE8
  8
0
 10
219.77535795549991
 20
278.98051144033138
 30
0.0
 40
0.5
 50
180.0
 51
270.0
  0
ARC
  5
1CFEA
  8
0
 10
225.27535795549991
 20
279.98051144033138
 30
0.0
 40
0.5
 50
0.0
 51
90.0
  0
ARC
  5
1CFEB
  8
0
 10
225.27535795549991
 20
278.98051144033138
 30
0.0
 40
0.5
 50
270.0
 51
0.0
  0
ARC
  5
1CFF0
  8
0
 10
229.20303208899989
 20
279.98051144033138
 30
0.0
 40
0.5
 50
0.0
 51
90.0
  0
ARC
  5
1CFF1
  8
0
 10
229.20303208899989
 20
278.98051144033138
 30
0.0
 40
0.5
 50
270.0
 51
0.0
  0
ARC
  5
1CFF2
  8
0
 10
234.65000083849989
 20
279.98051144033138
 30
0.0
 40
0.5
 50
0.0
 51
90.0
  0
ARC
  5
1CFF5
  8
0
 10
234.65000083849989
 20
278.98051144033138
 30
0.0
 40
0.5
 50
270.0
 51
0.0
  0
LINE
  5
1CFFA
  8
0
 10
201.71200083109991
 20
265.98051163528561
 30
0.0
 11
201.71200083109991
 21
264.9805116352855
 31
0.0
  0
ARC
  5
1CFFB
  8
0
 10
202.21200083109991
 20
264.9805116352855
 30
0.0
 40
0.5
 50
180.0
 51
270.0
  0
LINE
  5
1CFFC
  8
0
 10
202.21200083109991
 20
264.48051163528561
 30
0.0
 11
207.71200083109991
 21
264.48051163528561
 31
0.0
  0
LINE
  5
1CFFD
  8
0
 10
208.21200083109991
 20
264.9805116352855
 30
0.0
 11
208.21200083109991
 21
265.98051163528561
 31
0.0
  0
ARC
  5
1CFFE
  8
0
 10
207.71200083109991
 20
264.9805116352855
 30
0.0
 40
0.5
 50
270.0
 51
0.0
  0
LINE
  5
1CFFF
  8
0
 10
210.9020008311
 20
265.98051163528561
 30
0.0
 11
210.9020008311
 21
264.9805116352855
 31
0.0
  0
ARC
  5
1D000
  8
0
 10
211.40200083109991
 20
264.9805116352855
 30
0.0
 40
0.5
 50
180.0
 51
270.0
  0
LINE
  5
1D001
  8
0
 10
211.40200083109991
 20
264.48051163528561
 30
0.0
 11
216.9020008311
 21
264.48051163528561
 31
0.0
  0
LINE
  5
1D002
  8
0
 10
217.40200083109991
 20
264.9805116352855
 30
0.0
 11
217.40200083109991
 21
265.98051163528561
 31
0.0
  0
ARC
  5
1D003
  8
0
 10
216.9020008311
 20
264.9805116352855
 30
0.0
 40
0.5
 50
270.0
 51
0.0
  0
LINE
  5
1D004
  8
0
 10
219.27535795549991
 20
265.98051163528561
 30
0.0
 11
219.27535795549991
 21
264.9805116352855
 31
0.0
  0
ARC
  5
1D005
  8
0
 10
219.77535795549991
 20
264.9805116352855
 30
0.0
 40
0.5
 50
180.0
 51
270.0
  0
LINE
  5
1D006
  8
0
 10
219.77535795549991
 20
264.48051163528561
 30
0.0
 11
225.27535795549991
 21
264.48051163528561
 31
0.0
  0
LINE
  5
1D007
  8
0
 10
225.77535795549991
 20
264.9805116352855
 30
0.0
 11
225.77535795549991
 21
265.98051163528561
 31
0.0
  0
ARC
  5
1D008
  8
0
 10
225.27535795549991
 20
264.9805116352855
 30
0.0
 40
0.5
 50
270.0
 51
0.0
  0
LINE
  5
1D009
  8
0
 10
225.27535795549991
 20
264.48051163528561
 30
0.0
 11
229.20303208899989
 21
264.48051163528561
 31
0.0
  0
LINE
  5
1D00A
  8
0
 10
229.70303208899981
 20
264.9805116352855
 30
0.0
 11
229.70303208899981
 21
265.98051163528561
 31
0.0
  0
ARC
  5
1D00B
  8
0
 10
229.20303208899989
 20
264.9805116352855
 30
0.0
 40
0.5
 50
270.0
 51
0.0
  0
LINE
  5
1D00C
  8
0
 10
229.20303208899989
 20
264.48051163528561
 30
0.0
 11
234.65000083849989
 21
264.48051163528561
 31
0.0
  0
LINE
  5
1D00D
  8
0
 10
235.15000083849989
 20
264.9805116352855
 30
0.0
 11
235.15000083849989
 21
265.98051163528561
 31
0.0
  0
ARC
  5
1D00E
  8
0
 10
234.65000083849989
 20
264.9805116352855
 30
0.0
 40
0.5
 50
270.0
 51
0.0
  0
ARC
  5
1D00F
  8
0
 10
207.71200083109991
 20
265.98051163528561
 30
0.0
 40
0.5
 50
0.0
 51
90.0
  0
ARC
  5
1D010
  8
0
 10
202.21200083109991
 20
265.98051163528561
 30
0.0
 40
0.5
 50
90.0
 51
180.0
  0
ARC
  5
1D011
  8
0
 10
216.9020008311
 20
265.98051163528561
 30
0.0
 40
0.5
 50
0.0
 51
90.0
  0
ARC
  5
1D012
  8
0
 10
211.40200083109991
 20
265.98051163528561
 30
0.0
 40
0.5
 50
90.0
 51
180.0
  0
ARC
  5
1D013
  8
0
 10
225.27535795549991
 20
265.98051163528561
 30
0.0
 40
0.5
 50
0.0
 51
90.0
  0
ARC
  5
1D014
  8
0
 10
219.77535795549991
 20
265.98051163528561
 30
0.0
 40
0.5
 50
90.0
 51
180.0
  0
ARC
  5
1D015
  8
0
 10
229.20303208899989
 20
265.98051163528561
 30
0.0
 40
0.5
 50
0.0
 51
90.0
  0
ARC
  5
1D016
  8
0
 10
234.65000083849989
 20
265.98051163528561
 30
0.0
 40
0.5
 50
0.0
 51
90.0
  0
LINE
  5
1D019
  8
0
 10
173.07044389231351
 20
174.946839550932
 30
0.0
 11
173.07044389231351
 21
176.9468398787576
 31
0.0
  0
LINE
  5
1D01A
  8
0
 10
153.07044061405799
 20
176.9468398787576
 30
0.0
 11
153.07044061405799
 21
174.946839550932
 31
0.0
  0
LINE
  5
1D01B
  8
0
 10
173.07044389231351
 20
189.44684099634469
 30
0.0
 11
173.07044389231351
 21
191.44684132417021
 31
0.0
  0
LINE
  5
1D01C
  8
0
 10
153.07044061405799
 20
191.44684132417021
 30
0.0
 11
153.07044061405799
 21
189.44684099634469
 31
0.0
  0
LINE
  5
1D01D
  8
0
 10
166.07044460756919
 20
204.54650732655901
 30
0.0
 11
165.57044359429031
 21
205.04650461454759
 31
0.0
  0
LINE
  5
1D01E
  8
0
 10
160.5704409120813
 20
205.04650461454759
 30
0.0
 11
160.07043989880231
 21
204.54650732655901
 31
0.0
  0
LINE
  5
1D01F
  8
0
 10
160.07043989880231
 20
204.54650732655901
 30
0.0
 11
160.07043989880231
 21
196.29684146722141
 31
0.0
  0
LINE
  5
1D020
  8
0
 10
160.07043989880231
 20
170.09684033920351
 30
0.0
 11
160.07043989880231
 21
163.04650454595631
 31
0.0
  0
LINE
  5
1D021
  8
0
 10
166.07044460756919
 20
163.04650448570689
 30
0.0
 11
166.07044460756919
 21
170.09684033920351
 31
0.0
  0
LINE
  5
1D022
  8
0
 10
166.07044460756919
 20
196.29684146722141
 30
0.0
 11
166.07044460756919
 21
204.54650732655901
 31
0.0
  0
ARC
  5
1D023
  8
0
 10
170.0460054355874
 20
158.01092260225241
 30
0.0
 40
0.4999999999999958
 50
345.96375653381187
 51
21.801409486357031
  0
ARC
  5
1D024
  8
0
 10
156.0945728246927
 20
158.01092260225241
 30
0.0
 40
0.4999999999999958
 50
158.19859051364301
 51
194.03624346618801
  0
LINE
  5
1D025
  8
0
 10
155.60950410131571
 20
157.88965477840981
 30
0.0
 11
157.47560631994361
 21
150.42523676529541
 31
0.0
  0
LINE
  5
1D026
  8
0
 10
168.66497021679041
 20
150.42523676529541
 30
0.0
 11
170.53107988599891
 21
157.88965477840981
 31
0.0
  0
LINE
  5
1D027
  8
0
 10
170.51024061206931
 20
158.1966179423035
 30
0.0
 11
168.69600933555711
 21
162.7321998588742
 31
0.0
  0
LINE
  5
1D028
  8
0
 10
157.4445672011768
 20
162.7321998588742
 30
0.0
 11
155.63033592466471
 21
158.1966179423035
 31
0.0
  0
ARC
  5
1D029
  8
0
 10
168.2317726494266
 20
162.5465045676543
 30
0.0
 40
0.5000000000082344
 50
21.801409481878231
 51
90.0
  0
ARC
  5
1D02A
  8
0
 10
157.90880561085351
 20
162.5465045676543
 30
0.0
 40
0.5000000000082344
 50
90.0
 51
158.1985905181217
  0
ARC
  5
1D02B
  8
0
 10
168.17990092693771
 20
150.5465045676543
 30
0.0
 40
0.5
 50
270.0
 51
345.96375652672168
  0
ARC
  5
1D02C
  8
0
 10
157.96067733334229
 20
150.5465045676543
 30
0.0
 40
0.5
 50
194.03624347328491
 51
270.0
  0
ARC
  5
1D02D
  8
0
 10
163.0704422531858
 20
166.60231498152871
 30
0.0
 40
11.2456501988844
 50
59.73416231765281
 51
120.2658376823472
  0
ARC
  5
1D02E
  8
0
 10
163.0704422531858
 20
167.60231514544151
 30
0.0
 40
11.2456501988844
 50
59.73416231765281
 51
120.2658376823472
  0
ARC
  5
1D02F
  8
0
 10
171.09898857155531
 20
184.5185887650984
 30
0.0
 40
7.5803742930426381
 50
251.85584737679429
 51
267.26647352035491
  0
ARC
  5
1D030
  8
0
 10
171.50425814880211
 20
178.21158088254941
 30
0.0
 40
3.35357940492585
 50
214.43683688193789
 51
256.78259147855721
  0
ARC
  5
1D031
  8
0
 10
154.7715163046291
 20
178.0145039748183
 30
0.0
 40
3.1320704787365421
 50
281.63944445958191
 51
327.14132624416283
  0
ARC
  5
1D032
  8
0
 10
155.00846214419059
 20
184.70005424383379
 30
0.0
 40
7.7632675829751143
 50
272.91618302806683
 51
287.96157217573011
  0
LINE
  5
1D033
  8
0
 10
153.07044061405799
 20
174.946839550932
 30
0.0
 11
173.07044389231351
 21
174.946839550932
 31
0.0
  0
ARC
  5
1D034
  8
0
 10
163.0704422531858
 20
198.79136572966081
 30
0.0
 40
11.24565019888443
 50
239.73416231765279
 51
300.26583768234718
  0
ARC
  5
1D035
  8
0
 10
163.0704422531858
 20
199.7913677562187
 30
0.0
 40
11.24565019888443
 50
239.73416231765279
 51
300.26583768234718
  0
ARC
  5
1D036
  8
0
 10
171.36934289666169
 20
188.3792081168217
 30
0.0
 40
3.1320332956950518
 50
101.6389727789828
 51
147.1415261527263
  0
ARC
  5
1D037
  8
0
 10
171.13235669218281
 20
181.6939750881711
 30
0.0
 40
7.7629158575002908
 50
92.9157748889278
 51
107.9619042139115
  0
ARC
  5
1D038
  8
0
 10
154.63662030118439
 20
188.18209273790259
 30
0.0
 40
3.3535895557389441
 50
34.436906838168333
 51
76.782395165979963
  0
ARC
  5
1D039
  8
0
 10
155.04189093559651
 20
181.87507228849569
 30
0.0
 40
7.5803946857479039
 50
71.855858124513659
 51
87.266386671686845
  0
LINE
  5
1D03A
  8
0
 10
173.07044389231351
 20
191.44684132417021
 30
0.0
 11
153.07044061405799
 21
191.44684132417021
 31
0.0
  0
LINE
  5
1D03B
  8
0
 10
165.57044359429031
 20
205.04650461454759
 30
0.0
 11
160.5704409120813
 21
205.04650461454759
 31
0.0
  0
LINE
  5
1D03C
  8
0
 10
166.07044460756919
 20
204.54650732655901
 30
0.0
 11
160.07043989880231
 21
204.54650732655901
 31
0.0
  0
LINE
  5
1D03D
  8
0
 10
168.23209461530561
 20
163.04650446400049
 30
0.0
 11
157.90880561085351
 21
163.04650456766251
 31
0.0
  0
LINE
  5
1D03E
  8
0
 10
168.1802071730292
 20
150.04650466144091
 30
0.0
 11
157.96067733334229
 21
150.0465045676543
 31
0.0
  0
LINE
  5
1D03F
  8
0
 10
170.51024061206931
 20
158.1966179423035
 30
0.0
 11
155.63033592466471
 21
158.1966179423035
 31
0.0
  0
LINE
  5
1D040
  8
0
 10
170.5310766828288
 20
157.88965477840989
 30
0.0
 11
155.60950410131571
 21
157.88965477840981
 31
0.0
  0
LINE
  5
1D041
  8
3
 10
165.52894225318579
 20
163.04650449114439
 30
0.0
 11
165.5289422531857
 21
170.0968403392034
 31
0.0
  0
LINE
  5
1D042
  8
3
 10
165.5289422531859
 20
196.2968414672213
 30
0.0
 11
165.5289422531859
 21
205.04650461454759
 31
0.0
  0
LINE
  5
1D043
  8
3
 10
160.6119422531855
 20
163.04650454051881
 30
0.0
 11
160.61194225318559
 21
170.09684033920351
 31
0.0
  0
LINE
  5
1D044
  8
3
 10
160.61194225318559
 20
196.29684146722141
 30
0.0
 11
160.61194225318559
 21
205.0465046145475
 31
0.0
  0
LINE
  5
1D045
  8
1
 10
163.0704422531858
 20
207.9468405284936
 30
0.0
 11
163.0704422531858
 21
146.9468405284922
 31
0.0
  0
LINE
  5
1D046
  8
0
 10
158.1704422531877
 20
170.09683940788091
 30
0.0
 11
167.97044225318399
 21
170.09683940788091
 31
0.0
  0
ARC
  5
1D047
  8
0
 10
165.5704422531858
 20
167.6682182661132
 30
0.0
 40
7.2208862578987887
 50
69.743841999624863
 51
110.25615800037519
  0
LINE
  5
1D048
  8
0
 10
168.07044225318569
 20
174.889104524012
 30
0.0
 11
167.97044225318399
 21
174.946839550932
 31
0.0
  0
LINE
  5
1D049
  8
0
 10
168.07044225318569
 20
170.15457443480099
 30
0.0
 11
167.97044225318399
 21
170.09683940788091
 31
0.0
  0
ARC
  5
1D04A
  8
0
 10
165.5704422531858
 20
177.37546069269979
 30
0.0
 40
7.2208862578987887
 50
249.74384199962481
 51
290.25615800037519
  0
LINE
  5
1D04B
  8
0
 10
168.07044225318569
 20
174.889104524012
 30
0.0
 11
168.07044225318569
 21
170.15457443480099
 31
0.0
  0
LINE
  5
1D04C
  8
0
 10
158.0704422531858
 20
174.889104524012
 30
0.0
 11
158.0704422531858
 21
170.15457443480099
 31
0.0
  0
ARC
  5
1D04D
  8
0
 10
160.57044225318569
 20
177.37546069269979
 30
0.0
 40
7.2208862578987887
 50
249.74384199962481
 51
290.25615800037519
  0
LINE
  5
1D04E
  8
0
 10
158.0704422531858
 20
170.15457443480099
 30
0.0
 11
158.1704422531877
 21
170.09683940788091
 31
0.0
  0
LINE
  5
1D04F
  8
0
 10
158.0704422531858
 20
174.889104524012
 30
0.0
 11
158.1704422531877
 21
174.946839550932
 31
0.0
  0
ARC
  5
1D050
  8
0
 10
160.57044225318569
 20
167.6682182661132
 30
0.0
 40
7.2208862578987887
 50
69.743841999624863
 51
110.25615800037519
  0
LINE
  5
1D051
  8
0
 10
163.0704422531858
 20
174.44252253662671
 30
0.0
 11
163.0704422531858
 21
170.60115642218591
 31
0.0
  0
LINE
  5
1D052
  8
0
 10
158.1704422531877
 20
196.29684146722141
 30
0.0
 11
167.97044225318399
 21
196.29684146722141
 31
0.0
  0
ARC
  5
1D053
  8
0
 10
165.5704422531858
 20
189.0182201824025
 30
0.0
 40
7.2208862578987887
 50
69.743841999624863
 51
110.25615800037519
  0
LINE
  5
1D054
  8
0
 10
168.07044225318569
 20
196.2391064403013
 30
0.0
 11
167.97044225318399
 21
196.29684146722141
 31
0.0
  0
LINE
  5
1D055
  8
0
 10
168.07044225318569
 20
191.50457635109029
 30
0.0
 11
167.97044225318399
 21
191.44684132417021
 31
0.0
  0
ARC
  5
1D056
  8
0
 10
165.5704422531858
 20
198.72546260898909
 30
0.0
 40
7.2208862578987887
 50
249.74384199962481
 51
290.25615800037519
  0
LINE
  5
1D057
  8
0
 10
168.07044225318569
 20
196.2391064403013
 30
0.0
 11
168.07044225318569
 21
191.50457635109029
 31
0.0
  0
LINE
  5
1D058
  8
0
 10
158.0704422531858
 20
196.2391064403013
 30
0.0
 11
158.0704422531858
 21
191.50457635109029
 31
0.0
  0
ARC
  5
1D059
  8
0
 10
160.57044225318569
 20
198.72546260898909
 30
0.0
 40
7.2208862578987887
 50
249.74384199962481
 51
290.25615800037519
  0
LINE
  5
1D05A
  8
0
 10
158.0704422531858
 20
191.50457635109029
 30
0.0
 11
158.1704422531877
 21
191.44684132417021
 31
0.0
  0
LINE
  5
1D05B
  8
0
 10
158.0704422531858
 20
196.2391064403013
 30
0.0
 11
158.1704422531877
 21
196.29684146722141
 31
0.0
  0
ARC
  5
1D05C
  8
0
 10
160.57044225318569
 20
189.0182201824025
 30
0.0
 40
7.2208862578987887
 50
69.743841999624863
 51
110.25615800037519
  0
LINE
  5
1D05D
  8
0
 10
163.0704422531858
 20
195.7925244529161
 30
0.0
 11
163.0704422531858
 21
191.9511583384753
 31
0.0
  0
LINE
  5
1D05F
  8
0
 10
155.40341856463169
 20
189.4468409963446
 30
0.0
 11
137.0
 21
189.44684099634441
 31
0.0
  0
LINE
  5
1D060
  8
0
 10
155.40344050287169
 20
176.94684099634441
 30
0.0
 11
137.0
 21
176.94684099634409
 31
0.0
  0
LINE
  5
1D061
  8
1
 10
205.70000083849979
 20
279.58251014933131
 30
0.0
 11
205.70000083849979
 21
291.9825101493314
 31
0.0
  0
LINE
  5
1D062
  8
1
 10
200.95000083849979
 20
287.23251014933129
 30
0.0
 11
210.45000083849979
 21
287.23251014933129
 31
0.0
  0
LINE
  5
1D063
  8
1
 10
200.95000083849979
 20
284.33251014933131
 30
0.0
 11
210.45000083849979
 21
284.33251014933131
 31
0.0
  0
LINE
  5
1D064
  8
1
 10
231.90000083849989
 20
279.58251014933131
 30
0.0
 11
231.90000083849989
 21
291.9825101493314
 31
0.0
  0
LINE
  5
1D065
  8
1
 10
227.15000083849981
 20
287.23251014933129
 30
0.0
 11
236.65000083849989
 21
287.23251014933129
 31
0.0
  0
LINE
  5
1D066
  8
1
 10
227.15000083849981
 20
284.33251014933131
 30
0.0
 11
236.65000083849989
 21
284.33251014933131
 31
0.0
  0
LINE
  5
1D067
  8
1
 10
205.70000083849979
 20
252.97930280133119
 30
0.0
 11
205.70000083849979
 21
265.37930280133128
 31
0.0
  0
LINE
  5
1D068
  8
1
 10
200.95000083849979
 20
260.62930280133128
 30
0.0
 11
210.45000083849979
 21
260.62930280133128
 31
0.0
  0
LINE
  5
1D069
  8
1
 10
200.95000083849979
 20
257.72930280133119
 30
0.0
 11
210.45000083849979
 21
257.72930280133119
 31
0.0
  0
LINE
  5
1D06A
  8
1
 10
231.90000083849989
 20
252.97930280133119
 30
0.0
 11
231.90000083849989
 21
265.37930280133128
 31
0.0
  0
LINE
  5
1D06B
  8
1
 10
227.15000083849981
 20
260.62930280133128
 30
0.0
 11
236.65000083849989
 21
260.62930280133128
 31
0.0
  0
LINE
  5
1D06C
  8
1
 10
227.15000083849981
 20
257.72930280133119
 30
0.0
 11
236.65000083849989
 21
257.72930280133119
 31
0.0
  0
LINE
  5
1D06D
  8
1
 10
218.8000008384997
 20
282.88251014933132
 30
0.0
 11
218.8000008384997
 21
291.58251014933143
 31
0.0
  0
LINE
  5
1D06E
  8
1
 10
214.45000083849979
 20
287.23251014933152
 30
0.0
 11
223.15000083849961
 21
287.23251014933152
 31
0.0
  0
LINE
  5
1D06F
  8
1
 10
218.8000008384997
 20
253.37930280133131
 30
0.0
 11
218.8000008384997
 21
262.07930280133132
 31
0.0
  0
LINE
  5
1D070
  8
1
 10
214.45000083849979
 20
257.72930280133141
 30
0.0
 11
223.15000083849961
 21
257.72930280133141
 31
0.0
  0
LINE
  5
1D071
  8
1
 10
218.8000008384997
 20
89.851999300599985
 30
0.0
 11
218.8000008384997
 21
98.551999300600031
 31
0.0
  0
LINE
  5
1D072
  8
1
 10
214.45000083849979
 20
94.201999300600136
 30
0.0
 11
223.15000083849961
 21
94.201999300600136
 31
0.0
  0
LINE
  5
1D073
  8
1
 10
218.8000008384997
 20
60.34879195259996
 30
0.0
 11
218.8000008384997
 21
69.048791952600013
 31
0.0
  0
LINE
  5
1D074
  8
1
 10
214.45000083849979
 20
64.698791952600104
 30
0.0
 11
223.15000083849961
 21
64.698791952600104
 31
0.0
  0
LINE
  5
1D075
  8
1
 10
205.70000083849979
 20
86.551999300599917
 30
0.0
 11
205.70000083849979
 21
98.951999300600022
 31
0.0
  0
LINE
  5
1D076
  8
1
 10
200.95000083849979
 20
94.201999300599994
 30
0.0
 11
210.45000083849979
 21
94.201999300599994
 31
0.0
  0
LINE
  5
1D077
  8
1
 10
200.95000083849979
 20
91.301999300599917
 30
0.0
 11
210.45000083849979
 21
91.301999300599917
 31
0.0
  0
LINE
  5
1D078
  8
1
 10
231.90000083849989
 20
86.551999300599917
 30
0.0
 11
231.90000083849989
 21
98.951999300600022
 31
0.0
  0
LINE
  5
1D079
  8
1
 10
227.15000083849981
 20
94.201999300599994
 30
0.0
 11
236.65000083849989
 21
94.201999300599994
 31
0.0
  0
LINE
  5
1D07A
  8
1
 10
227.15000083849981
 20
91.301999300599917
 30
0.0
 11
236.65000083849989
 21
91.301999300599917
 31
0.0
  0
LINE
  5
1D07B
  8
1
 10
205.70000083849979
 20
59.948791952599898
 30
0.0
 11
205.70000083849979
 21
72.348791952599996
 31
0.0
  0
LINE
  5
1D07C
  8
1
 10
200.95000083849979
 20
67.598791952599996
 30
0.0
 11
210.45000083849979
 21
67.598791952599996
 31
0.0
  0
LINE
  5
1D07D
  8
1
 10
200.95000083849979
 20
64.698791952599905
 30
0.0
 11
210.45000083849979
 21
64.698791952599905
 31
0.0
  0
LINE
  5
1D07E
  8
1
 10
231.90000083849989
 20
59.948791952599898
 30
0.0
 11
231.90000083849989
 21
72.348791952599996
 31
0.0
  0
LINE
  5
1D07F
  8
1
 10
227.15000083849981
 20
67.598791952599996
 30
0.0
 11
236.65000083849989
 21
67.598791952599996
 31
0.0
  0
LINE
  5
1D080
  8
1
 10
227.15000083849981
 20
64.698791952599905
 30
0.0
 11
236.65000083849989
 21
64.698791952599905
 31
0.0
  0
LINE
  5
1D0D2
  8
1
 10
205.70000083849979
 20
155.00000002609991
 30
0.0
 11
205.70000083849979
 21
148.00000000002291
 31
0.0
  0
LINE
  5
1D0D3
  8
1
 10
218.7999997287998
 20
155.00000002609991
 30
0.0
 11
218.7999997287998
 21
148.00000000002291
 31
0.0
  0
LINE
  5
1D0D4
  8
1
 10
231.90000083849989
 20
155.00000002607709
 30
0.0
 11
231.90000083849989
 21
148.00000000000011
 31
0.0
  0
LINE
  5
1D129
  8
0
 10
76.11868415568938
 20
177.84056868632581
 30
0.0
 11
74.386633714483878
 21
178.84056885023861
 31
0.0
  0
LINE
  5
1D12A
  8
0
 10
58.509344016955993
 20
178.84056885023861
 30
0.0
 11
56.777294507073073
 21
177.84056868632581
 31
0.0
  0
LINE
  5
1D12B
  8
0
 10
74.386633714483878
 20
187.55311202486311
 30
0.0
 11
76.11868415568938
 21
188.55311032613071
 31
0.0
  0
LINE
  5
1D12C
  8
0
 10
56.777294507073073
 20
188.55311032613071
 30
0.0
 11
58.509344016955993
 21
187.55311202486311
 31
0.0
  0
LINE
  5
1D12D
  8
0
 10
60.027966057704589
 20
174.94683955093171
 30
0.0
 11
72.868012605057856
 21
174.94683955093171
 31
0.0
  0
ARC
  5
1D12E
  8
0
 10
72.95456742239071
 20
177.59311665288351
 30
0.0
 40
0.6174687328581275
 50
278.96510032597371
 51
333.24436421246259
  0
ARC
  5
1D12F
  8
0
 10
72.868009878677185
 20
177.6834422018847
 30
0.0
 40
2.7366026509543202
 50
270.00005708175621
 51
329.99999187197261
  0
ARC
  5
1D130
  8
0
 10
60.027966198404783
 20
177.68344094955401
 30
0.0
 40
2.7366013986222439
 50
209.9999929900159
 51
269.99999705417088
  0
ARC
  5
1D131
  8
0
 10
59.944432884770087
 20
177.5952864534886
 30
0.0
 40
0.6211447777332476
 50
206.8088381685705
 51
261.32905486777099
  0
POLYLINE
  5
1D132
  8
0
 66
     1
 10
0.0
 20
0.0
 30
0.0
 70
   128
  0
VERTEX
  5
1DE35
  8
0
 10
74.386633714483878
 20
178.84056885023861
 30
0.0
  0
VERTEX
  5
1DE36
  8
0
 10
74.375429903911254
 20
178.82116381307389
 30
0.0
  0
VERTEX
  5
1DE37
  8
0
 10
74.286100236521861
 20
178.66643946846281
 30
0.0
  0
VERTEX
  5
1DE38
  8
0
 10
74.10903998260369
 20
178.3597642578676
 30
0.0
  0
VERTEX
  5
1DE39
  8
0
 10
73.847421226845881
 20
177.90662553389819
 30
0.0
  0
VERTEX
  5
1DE3A
  8
0
 10
73.505926659153602
 20
177.3151407041147
 30
0.0
  0
SEQEND
  5
1DE3B
  8
0
  0
POLYLINE
  5
1D133
  8
0
 66
     1
 10
0.0
 20
0.0
 30
0.0
 70
   128
  0
VERTEX
  5
1DE3C
  8
0
 10
75.237977100359103
 20
176.31514054020201
 30
0.0
  0
VERTEX
  5
1DE3D
  8
0
 10
75.579471668051383
 20
176.90662536998539
 30
0.0
  0
VERTEX
  5
1DE3E
  8
0
 10
75.841090889470479
 20
177.35976409395491
 30
0.0
  0
VERTEX
  5
1DE3F
  8
0
 10
76.018150677727363
 20
177.6664411671951
 30
0.0
  0
VERTEX
  5
1DE40
  8
0
 10
76.107480345116755
 20
177.82116364916121
 30
0.0
  0
VERTEX
  5
1DE41
  8
0
 10
76.11868415568938
 20
177.84056868632581
 30
0.0
  0
SEQEND
  5
1DE42
  8
0
  0
POLYLINE
  5
1D134
  8
0
 66
     1
 10
0.0
 20
0.0
 30
0.0
 70
   128
  0
VERTEX
  5
1DE43
  8
0
 10
59.390051072286269
 20
177.3151407041147
 30
0.0
  0
VERTEX
  5
1DE44
  8
0
 10
59.048557435916571
 20
177.90662553389819
 30
0.0
  0
VERTEX
  5
1DE45
  8
0
 10
58.786937748836181
 20
178.3597642578676
 30
0.0
  0
VERTEX
  5
1DE46
  8
0
 10
58.609878426240591
 20
178.66643946846281
 30
0.0
  0
VERTEX
  5
1DE47
  8
0
 10
58.520547827528617
 20
178.82116381307389
 30
0.0
  0
VERTEX
  5
1DE48
  8
0
 10
58.509344016955993
 20
178.84056885023861
 30
0.0
  0
SEQEND
  5
1DE49
  8
0
  0
POLYLINE
  5
1D135
  8
0
 66
     1
 10
0.0
 20
0.0
 30
0.0
 70
   128
  0
VERTEX
  5
1DE4A
  8
0
 10
56.777294507073073
 20
177.84056868632581
 30
0.0
  0
VERTEX
  5
1DE4B
  8
0
 10
56.78849831764569
 20
177.82116364916121
 30
0.0
  0
VERTEX
  5
1DE4C
  8
0
 10
56.877827053712508
 20
177.6664411671951
 30
0.0
  0
VERTEX
  5
1DE4D
  8
0
 10
57.054886376308112
 20
177.35976409395491
 30
0.0
  0
VERTEX
  5
1DE4E
  8
0
 10
57.316506063388488
 20
176.90662536998539
 30
0.0
  0
VERTEX
  5
1DE4F
  8
0
 10
57.6579996997582
 20
176.31514054020201
 30
0.0
  0
SEQEND
  5
1DE50
  8
0
  0
LINE
  5
1D136
  8
0
 10
72.868012605057856
 20
191.4468413241699
 30
0.0
 11
60.027966057704589
 21
191.4468413241699
 31
0.0
  0
ARC
  5
1D137
  8
0
 10
59.943312975829713
 20
188.7984028030136
 30
0.0
 40
0.6201416603065701
 50
98.580423571305914
 51
153.14518642042489
  0
ARC
  5
1D138
  8
0
 10
60.027969409250773
 20
188.71023250154479
 30
0.0
 40
2.736608822627224
 50
90.000070170602825
 51
149.9998722388633
  0
ARC
  5
1D139
  8
0
 10
72.953363088270862
 20
188.80050224955991
 30
0.0
 40
0.6185722153622187
 50
26.710542075655809
 51
80.938079424464689
  0
ARC
  5
1D13A
  8
0
 10
72.868011389896083
 20
188.71023942807611
 30
0.0
 40
2.7366018960940921
 50
30.000044034286951
 51
89.999974558363476
  0
POLYLINE
  5
1D13B
  8
0
 66
     1
 10
0.0
 20
0.0
 30
0.0
 70
   128
  0
VERTEX
  5
1DE51
  8
0
 10
73.505926659153602
 20
189.07854017098691
 30
0.0
  0
VERTEX
  5
1DE52
  8
0
 10
73.847421226845881
 20
188.48705347855841
 30
0.0
  0
VERTEX
  5
1DE53
  8
0
 10
74.10903998260369
 20
188.03391661723401
 30
0.0
  0
VERTEX
  5
1DE54
  8
0
 10
74.286100236521861
 20
187.72724140663891
 30
0.0
  0
VERTEX
  5
1DE55
  8
0
 10
74.375429903911254
 20
187.57251706202771
 30
0.0
  0
VERTEX
  5
1DE56
  8
0
 10
74.386633714483878
 20
187.55311202486311
 30
0.0
  0
SEQEND
  5
1DE57
  8
0
  0
POLYLINE
  5
1D13C
  8
0
 66
     1
 10
0.0
 20
0.0
 30
0.0
 70
   128
  0
VERTEX
  5
1DE58
  8
0
 10
76.11868415568938
 20
188.55311032613071
 30
0.0
  0
VERTEX
  5
1DE59
  8
0
 10
76.107480345116755
 20
188.57251908858569
 30
0.0
  0
VERTEX
  5
1DE5A
  8
0
 10
76.018150677727363
 20
188.72724157055171
 30
0.0
  0
VERTEX
  5
1DE5B
  8
0
 10
75.841090889470479
 20
189.03391864379199
 30
0.0
  0
VERTEX
  5
1DE5C
  8
0
 10
75.579471668051383
 20
189.4870555051163
 30
0.0
  0
VERTEX
  5
1DE5D
  8
0
 10
75.237977100359103
 20
190.07854219754489
 30
0.0
  0
SEQEND
  5
1DE5E
  8
0
  0
POLYLINE
  5
1D13D
  8
0
 66
     1
 10
0.0
 20
0.0
 30
0.0
 70
   128
  0
VERTEX
  5
1DE5F
  8
0
 10
57.6579996997582
 20
190.07854219754489
 30
0.0
  0
VERTEX
  5
1DE60
  8
0
 10
57.316506063388488
 20
189.4870555051163
 30
0.0
  0
VERTEX
  5
1DE61
  8
0
 10
57.054886376308112
 20
189.03391864379199
 30
0.0
  0
VERTEX
  5
1DE62
  8
0
 10
56.877827053712508
 20
188.72724157055171
 30
0.0
  0
VERTEX
  5
1DE63
  8
0
 10
56.78849831764569
 20
188.57251908858569
 30
0.0
  0
VERTEX
  5
1DE64
  8
0
 10
56.777294507073073
 20
188.55311032613071
 30
0.0
  0
SEQEND
  5
1DE65
  8
0
  0
POLYLINE
  5
1D13E
  8
0
 66
     1
 10
0.0
 20
0.0
 30
0.0
 70
   128
  0
VERTEX
  5
1DE66
  8
0
 10
58.509344016955993
 20
187.55311202486311
 30
0.0
  0
VERTEX
  5
1DE67
  8
0
 10
58.520547827528617
 20
187.57251706202771
 30
0.0
  0
VERTEX
  5
1DE68
  8
0
 10
58.609878426240591
 20
187.72724140663891
 30
0.0
  0
VERTEX
  5
1DE69
  8
0
 10
58.786937748836181
 20
188.03391661723401
 30
0.0
  0
VERTEX
  5
1DE6A
  8
0
 10
59.048557435916571
 20
188.48705347855841
 30
0.0
  0
VERTEX
  5
1DE6B
  8
0
 10
59.390051072286269
 20
189.07854017098691
 30
0.0
  0
SEQEND
  5
1DE6C
  8
0
  0
LINE
  5
1D13F
  8
0
 10
72.747596248899981
 20
189.44684099634441
 30
0.0
 11
60.153196275199889
 21
189.44684099634441
 31
0.0
  0
LINE
  5
1D143
  8
0
 10
63.450790661499923
 20
170.0968403392032
 30
0.0
 11
63.450790661499923
 21
163.04650454595779
 31
0.0
  0
LINE
  5
1D144
  8
0
 10
69.45079089217802
 20
163.04650448570851
 30
0.0
 11
69.45079089217802
 21
170.0968403392032
 31
0.0
  0
ARC
  5
1D146
  8
0
 10
73.426505705014961
 20
158.01092260225241
 30
0.0
 40
0.4999999999999958
 50
345.96375653381187
 51
21.801409486357031
  0
ARC
  5
1D147
  8
0
 10
59.475073094120262
 20
158.01092260225241
 30
0.0
 40
0.4999999999999958
 50
158.19859051364301
 51
194.03624346618801
  0
LINE
  5
1D148
  8
0
 10
58.990004370743243
 20
157.88965477840981
 30
0.0
 11
60.856106589371173
 21
150.42523676529541
 31
0.0
  0
LINE
  5
1D149
  8
0
 10
72.045470486217937
 20
150.42523676529541
 30
0.0
 11
73.911580155426464
 21
157.88965477840981
 31
0.0
  0
LINE
  5
1D14A
  8
0
 10
73.890740881496868
 20
158.1966179423035
 30
0.0
 11
72.076509604984722
 21
162.7321998588742
 31
0.0
  0
LINE
  5
1D14B
  8
0
 10
60.825067470604381
 20
162.7321998588742
 30
0.0
 11
59.010836194092242
 21
158.1966179423035
 31
0.0
  0
ARC
  5
1D14C
  8
0
 10
71.612272918854373
 20
162.5465045676543
 30
0.0
 40
0.5000000000082344
 50
21.801409481878231
 51
90.0
  0
ARC
  5
1D14D
  8
0
 10
61.28930588028129
 20
162.5465045676543
 30
0.0
 40
0.5000000000082344
 50
90.0
 51
158.1985905181217
  0
ARC
  5
1D14E
  8
0
 10
71.560401196365319
 20
150.5465045676543
 30
0.0
 40
0.5
 50
270.0
 51
345.96375652672168
  0
ARC
  5
1D14F
  8
0
 10
61.341177602769903
 20
150.5465045676543
 30
0.0
 40
0.5
 50
194.03624347328491
 51
270.0
  0
LINE
  5
1D152
  8
0
 10
71.612594884733184
 20
163.04650446400049
 30
0.0
 11
61.28930588028129
 21
163.04650456766251
 31
0.0
  0
LINE
  5
1D153
  8
0
 10
71.560707442456987
 20
150.04650466144091
 30
0.0
 11
61.341177602769903
 21
150.0465045676543
 31
0.0
  0
LINE
  5
1D154
  8
0
 10
73.890740881496868
 20
158.1966179423035
 30
0.0
 11
59.010836194092242
 21
158.1966179423035
 31
0.0
  0
LINE
  5
1D155
  8
0
 10
73.91157695225661
 20
157.88965477840989
 30
0.0
 11
58.990004370743243
 21
157.88965477840981
 31
0.0
  0
LINE
  5
1D156
  8
3
 10
68.909288537794737
 20
163.04650449114601
 30
0.0
 11
68.909288537794737
 21
170.09684033920311
 31
0.0
  0
LINE
  5
1D157
  8
3
 10
68.909290661499867
 20
196.2968414672213
 30
0.0
 11
68.909290661499881
 21
205.04650461454759
 31
0.0
  0
LINE
  5
1D158
  8
3
 10
63.992288537794373
 20
163.04650454052029
 30
0.0
 11
63.992288537794373
 21
170.0968403392032
 31
0.0
  0
LINE
  5
1D159
  8
3
 10
63.992290661499503
 20
196.2968414672213
 30
0.0
 11
63.99229066149951
 21
205.0465046145475
 31
0.0
  0
LINE
  5
1D15C
  8
0
 10
60.677287969603867
 20
174.44252253662731
 30
0.0
 11
61.550790661500507
 21
174.94683955093171
 31
0.0
  0
ARC
  5
1D15D
  8
0
 10
62.120663642577711
 20
172.33328177558411
 30
0.0
 40
2.5558227484274911
 50
55.615752532024821
 51
115.61575253065701
  0
ARC
  5
1D15E
  8
0
 10
66.450790661511519
 20
165.33568651145339
 30
0.0
 40
9.5534180125581827
 50
72.412046225968595
 51
107.58795377416919
  0
ARC
  5
1D15F
  8
0
 10
66.450790661511519
 20
179.70799244735869
 30
0.0
 40
9.5534180125581827
 50
252.41204622583069
 51
287.5879537740314
  0
ARC
  5
1D160
  8
0
 10
62.120663642577711
 20
172.710397183228
 30
0.0
 40
2.5558227484274911
 50
244.38424746934291
 51
304.38424746797517
  0
LINE
  5
1D161
  8
0
 10
60.677287969603867
 20
170.6011564221848
 30
0.0
 11
61.550790661500507
 21
170.0968394078804
 31
0.0
  0
LINE
  5
1D162
  8
0
 10
60.677287969603867
 20
174.44252253662731
 30
0.0
 11
60.677287969603867
 21
170.6011564221848
 31
0.0
  0
LINE
  5
1D163
  8
0
 10
63.564039315551547
 20
174.4425225366189
 30
0.0
 11
63.564039315551547
 21
170.60115642219381
 31
0.0
  0
LINE
  5
1D164
  8
0
 10
69.337542007448292
 20
174.4425225366189
 30
0.0
 11
69.337542007448292
 21
170.60115642219381
 31
0.0
  0
LINE
  5
1D165
  8
0
 10
72.224293353395964
 20
174.44252253662731
 30
0.0
 11
72.224293353395964
 21
170.6011564221848
 31
0.0
  0
LINE
  5
1D166
  8
0
 10
72.224293353395964
 20
170.6011564221848
 30
0.0
 11
71.350790661499332
 21
170.0968394078804
 31
0.0
  0
ARC
  5
1D167
  8
0
 10
70.780917680422135
 20
172.710397183228
 30
0.0
 40
2.5558227484274911
 50
235.6157525320248
 51
295.61575253065712
  0
ARC
  5
1D168
  8
0
 10
70.780917680422135
 20
172.33328177558411
 30
0.0
 40
2.5558227484274911
 50
64.38424746934183
 51
124.3842474679752
  0
LINE
  5
1D169
  8
0
 10
72.224293353395964
 20
174.44252253662731
 30
0.0
 11
71.350790661499332
 21
174.94683955093171
 31
0.0
  0
LINE
  5
1D16A
  8
0
 10
61.550790661500507
 20
170.0968394078804
 30
0.0
 11
71.350790661499332
 21
170.0968394078804
 31
0.0
  0
LINE
  5
1D16B
  8
0
 10
60.677287969603867
 20
195.79252445291689
 30
0.0
 11
61.550790661500507
 21
196.2968414672213
 31
0.0
  0
ARC
  5
1D16C
  8
0
 10
62.120663642577711
 20
193.68328369187361
 30
0.0
 40
2.5558227484274911
 50
55.615752532024821
 51
115.61575253065701
  0
ARC
  5
1D16D
  8
0
 10
66.450790661511519
 20
186.68568842774289
 30
0.0
 40
9.5534180125581827
 50
72.412046225968595
 51
107.58795377416919
  0
ARC
  5
1D16E
  8
0
 10
66.450790661511519
 20
201.05799436364831
 30
0.0
 40
9.5534180125581827
 50
252.41204622583069
 51
287.5879537740314
  0
ARC
  5
1D16F
  8
0
 10
62.120663642577711
 20
194.06039909951761
 30
0.0
 40
2.5558227484274911
 50
244.38424746934291
 51
304.38424746797517
  0
LINE
  5
1D170
  8
0
 10
60.677287969603867
 20
191.95115833847439
 30
0.0
 11
61.550790661500507
 21
191.4468413241699
 31
0.0
  0
LINE
  5
1D171
  8
0
 10
60.677287969603867
 20
195.79252445291689
 30
0.0
 11
60.677287969603867
 21
191.95115833847439
 31
0.0
  0
LINE
  5
1D172
  8
0
 10
63.564039315551547
 20
195.79252445290851
 30
0.0
 11
63.564039315551547
 21
191.95115833848331
 31
0.0
  0
LINE
  5
1D173
  8
0
 10
69.337542007448292
 20
195.79252445290851
 30
0.0
 11
69.337542007448292
 21
191.95115833848331
 31
0.0
  0
LINE
  5
1D174
  8
0
 10
72.224293353395964
 20
195.79252445291689
 30
0.0
 11
72.224293353395964
 21
191.95115833847439
 31
0.0
  0
LINE
  5
1D175
  8
0
 10
72.224293353395964
 20
191.95115833847439
 30
0.0
 11
71.350790661499332
 21
191.4468413241699
 31
0.0
  0
ARC
  5
1D176
  8
0
 10
70.780917680422135
 20
194.06039909951761
 30
0.0
 40
2.5558227484274911
 50
235.6157525320248
 51
295.61575253065712
  0
ARC
  5
1D177
  8
0
 10
70.780917680422135
 20
193.68328369187361
 30
0.0
 40
2.5558227484274911
 50
64.38424746934183
 51
124.3842474679752
  0
LINE
  5
1D178
  8
0
 10
72.224293353395964
 20
195.79252445291689
 30
0.0
 11
71.350790661499332
 21
196.2968414672213
 31
0.0
  0
LINE
  5
1D179
  8
0
 10
71.350790661499332
 20
196.2968414672213
 30
0.0
 11
61.550790661500507
 21
196.2968414672213
 31
0.0
  0
LINE
  5
1D17D
  8
0
 10
60.153196275200109
 20
176.94683987875729
 30
0.0
 11
72.747596248900209
 21
176.94683987875729
 31
0.0
  0
LINE
  5
1D189
  8
0
 10
63.450790661499923
 20
204.54650461454759
 30
0.0
 11
63.450790661499909
 21
196.2968414672213
 31
0.0
  0
LINE
  5
1D18A
  8
0
 10
69.450790661499923
 20
204.54650461454759
 30
0.0
 11
69.450790661499909
 21
196.2968414672213
 31
0.0
  0
LINE
  5
1D192
  8
0
 10
73.05078931693879
 20
176.98319126148971
 30
0.0
 11
72.747596248900209
 21
176.98319126148971
 31
0.0
  0
LINE
  5
1D193
  8
0
 10
59.850789388464356
 20
176.98124107201841
 30
0.0
 11
60.153196275199889
 21
176.98124107201841
 31
0.0
  0
LINE
  5
1D194
  8
0
 10
59.850789388464356
 20
189.4116034754112
 30
0.0
 11
60.153196275199889
 21
189.4116034754112
 31
0.0
  0
LINE
  5
1D195
  8
0
 10
73.050789316939017
 20
189.41135388096109
 30
0.0
 11
72.747596248899981
 21
189.41135388096109
 31
0.0
  0
ARC
  5
1D1E9
  8
0
 10
58.950790661499923
 20
173.66920359
 30
0.0
 40
0.5
 50
90.0
 51
180.0
  0
ARC
  5
1D1EA
  8
0
 10
58.950790661499923
 20
168.16920359
 30
0.0
 40
0.5
 50
180.0
 51
270.0
  0
ARC
  5
1D1EB
  8
0
 10
59.950790661499923
 20
173.66920359
 30
0.0
 40
0.5
 50
0.0
 51
90.0
  0
ARC
  5
1D1EC
  8
0
 10
59.950790661499923
 20
168.16920359
 30
0.0
 40
0.5
 50
270.0
 51
0.0
  0
LINE
  5
1D1ED
  8
0
 10
59.95079037889991
 20
167.66920369120001
 30
0.0
 11
58.95079021499987
 21
167.66920369120001
 31
0.0
  0
LINE
  5
1D1EE
  8
0
 10
58.95079021499987
 20
174.1692038253
 30
0.0
 11
59.95079037889991
 21
174.1692038253
 31
0.0
  0
ARC
  5
1D1EF
  8
0
 10
58.95079033370007
 20
179.5802047032
 30
0.0
 40
0.5
 50
90.0
 51
180.0
  0
ARC
  5
1D1F0
  8
0
 10
58.950790661499923
 20
174.0802047032
 30
0.0
 40
0.5000000000000079
 50
180.0
 51
204.2677386969923
  0
ARC
  5
1D1F1
  8
0
 10
59.95079033370007
 20
179.5802047032
 30
0.0
 40
0.5
 50
66.421819635706839
 51
90.0
  0
ARC
  5
1D1F2
  8
0
 10
59.950790661499923
 20
174.0802047032
 30
0.0
 40
0.5
 50
335.73226130300782
 51
0.0
  0
LINE
  5
1D1F3
  8
0
 10
58.95078988720001
 20
180.0802038983
 30
0.0
 11
59.950790051100057
 21
180.0802038983
 31
0.0
  0
ARC
  5
1D1F4
  8
0
 10
58.950790661499923
 20
166.36920359000001
 30
0.0
 40
0.5
 50
90.0
 51
180.0
  0
ARC
  5
1D1F5
  8
0
 10
58.950790661499923
 20
160.86920359000001
 30
0.0
 40
0.5
 50
180.0
 51
270.0
  0
ARC
  5
1D1F6
  8
0
 10
59.950790661499923
 20
166.36920359000001
 30
0.0
 40
0.5
 50
0.0
 51
90.0
  0
LINE
  5
1D1F7
  8
0
 10
59.878269812276208
 20
160.3652037689267
 30
0.0
 11
58.95079021499987
 21
160.3652037689267
 31
0.0
  0
LINE
  5
1D1F8
  8
0
 10
58.95079021499987
 20
166.8692036532
 30
0.0
 11
59.95079037889991
 21
166.8692036532
 31
0.0
  0
ARC
  5
1D1F9
  8
0
 10
58.95079033370007
 20
186.66920359
 30
0.0
 40
0.5
 50
90.0
 51
180.0
  0
ARC
  5
1D1FA
  8
0
 10
58.95079033370007
 20
181.16920359
 30
0.0
 40
0.5
 50
180.0
 51
270.0
  0
ARC
  5
1D1FB
  8
0
 10
59.95079033370007
 20
186.66920359
 30
0.0
 40
0.5
 50
66.421819635706839
 51
90.0
  0
ARC
  5
1D1FC
  8
0
 10
59.95079033370007
 20
181.16920359
 30
0.0
 40
0.5000000000000067
 50
270.0
 51
293.57818036429308
  0
LINE
  5
1D1FD
  8
0
 10
59.950790051100057
 20
180.66920395939999
 30
0.0
 11
58.95078988720001
 21
180.66920395939999
 31
0.0
  0
LINE
  5
1D1FE
  8
0
 10
58.95078988720001
 20
187.16920409350001
 30
0.0
 11
59.950790051100057
 21
187.16920409350001
 31
0.0
  0
ARC
  5
1D1FF
  8
0
 10
58.950789930800049
 20
198.18748702560001
 30
0.0
 40
0.5
 50
90.0
 51
180.0
  0
ARC
  5
1D200
  8
0
 10
58.950789930800049
 20
192.68748702560001
 30
0.0
 40
0.5
 50
180.0
 51
270.0
  0
ARC
  5
1D201
  8
0
 10
59.950789930800063
 20
198.18748702560001
 30
0.0
 40
0.5
 50
0.0
 51
90.0
  0
ARC
  5
1D202
  8
0
 10
59.950789930800063
 20
192.68748702560001
 30
0.0
 40
0.5
 50
270.0
 51
0.0
  0
LINE
  5
1D203
  8
0
 10
59.950789648200043
 20
192.1874886379
 30
0.0
 11
58.95078948430001
 21
192.1874886379
 31
0.0
  0
LINE
  5
1D204
  8
0
 10
58.95078948430001
 20
198.68748690929999
 30
0.0
 11
59.950789648200043
 21
198.68748690929999
 31
0.0
  0
ARC
  5
1D205
  8
0
 10
45.044682550099878
 20
156.66515174349999
 30
0.0
 40
18.814386546637628
 50
35.03043417409863
 51
36.112270834991591
  0
LINE
  5
1D206
  8
0
 10
58.45079106439993
 20
168.1698383339259
 30
0.0
 11
58.450790661499923
 21
173.6692035533685
 31
0.0
  0
LINE
  5
1D207
  8
0
 10
58.450790736600077
 20
178.81813328710001
 30
0.0
 11
58.45079033370007
 21
179.5802047032
 31
0.0
  0
LINE
  5
1D208
  8
0
 10
58.45079106439993
 20
174.08181969079999
 30
0.0
 11
58.45079106439993
 21
175.45099951770629
 31
0.0
  0
LINE
  5
1D209
  8
0
 10
58.450790661499923
 20
160.86920370032621
 30
0.0
 11
58.450790661499923
 21
166.36920359000001
 31
0.0
  0
LINE
  5
1D20A
  8
0
 10
58.450790736600077
 20
181.1708180233999
 30
0.0
 11
58.45079033370007
 21
186.66920359
 31
0.0
  0
LINE
  5
1D20B
  8
0
 10
58.450789930800049
 20
192.68748702560001
 30
0.0
 11
58.450789930800049
 21
198.1874869707695
 31
0.0
  0
LINE
  5
1D20D
  8
0
 10
60.45079139219979
 20
161.79650889433501
 30
0.0
 11
60.450791392199562
 21
174.9468395509318
 31
0.0
  0
LINE
  5
1D20F
  8
1
 10
66.450790661499923
 20
209.9428407201203
 30
0.0
 11
66.450790661499923
 21
145.0
 31
0.0
  0
LINE
  5
1D218
  8
0
 10
63.450790661499923
 20
204.54650461454759
 30
0.0
 11
63.950790661499923
 21
205.04650461454759
 31
0.0
  0
LINE
  5
1D219
  8
0
 10
63.950790661499923
 20
205.04650461454759
 30
0.0
 11
68.950790661499923
 21
205.04650461454759
 31
0.0
  0
LINE
  5
1D21A
  8
0
 10
68.950790661499923
 20
205.04650461454759
 30
0.0
 11
69.450790661499923
 21
204.54650461454759
 31
0.0
  0
LINE
  5
1D21B
  8
0
 10
63.450790661499923
 20
204.54650461454759
 30
0.0
 11
69.450790661499923
 21
204.54650461454759
 31
0.0
  0
LINE
  5
1D338
  8
1
 10
51.69879195250018
 20
155.0000000261
 30
0.0
 11
51.69879195250018
 21
148.0
 31
0.0
  0
LINE
  5
1D339
  8
1
 10
54.598791952500278
 20
155.0000000261
 30
0.0
 11
54.598791952500051
 21
148.0
 31
0.0
  0
LINE
  5
1D33A
  8
1
 10
78.301999300500256
 20
155.0000000261
 30
0.0
 11
78.301999300500029
 21
147.99999999999989
 31
0.0
  0
LINE
  5
1D33B
  8
1
 10
81.201999300500106
 20
155.0000000261
 30
0.0
 11
81.201999300500106
 21
148.0
 31
0.0
  0
LINE
  5
1D345
  8
1
 10
365.78398011485518
 20
155.0000000261
 30
0.0
 11
365.78398011485518
 21
147.99999999999989
 31
0.0
  0
LINE
  5
1D346
  8
1
 10
368.68398011485527
 20
155.0000000261
 30
0.0
 11
368.6839801148551
 21
147.99999999999989
 31
0.0
  0
LINE
  5
1D347
  8
1
 10
392.38718746285531
 20
155.0000000261
 30
0.0
 11
392.38718746285508
 21
147.99999999999989
 31
0.0
  0
LINE
  5
1D348
  8
1
 10
395.28718746285517
 20
155.0000000261
 30
0.0
 11
395.28718746285517
 21
147.99999999999989
 31
0.0
  0
ARC
  5
1D452
  8
0
 10
387.51169386737001
 20
158.01092260225241
 30
0.0
 40
0.4999999999999958
 50
345.96375653381187
 51
21.801409486356562
  0
ARC
  5
1D453
  8
0
 10
373.56026125647531
 20
158.01092260225241
 30
0.0
 40
0.4999999999999958
 50
158.19859051364341
 51
194.03624346618801
  0
LINE
  5
1D454
  8
0
 10
373.07519253309829
 20
157.88965477840981
 30
0.0
 11
374.28149750118132
 21
153.06442899860869
 31
0.0
  0
LINE
  5
1D455
  8
0
 10
386.7904588903524
 20
153.06443042634271
 30
0.0
 11
387.99676831778152
 21
157.88965477840981
 31
0.0
  0
LINE
  5
1D456
  8
0
 10
387.97592904385192
 20
158.1966179423035
 30
0.0
 11
387.10689550363281
 21
160.3692035773
 31
0.0
  0
LINE
  5
1D457
  8
0
 10
373.96505789666651
 20
160.3692035773
 30
0.0
 11
373.09602435644729
 21
158.1966179423035
 31
0.0
  0
ARC
  5
1D458
  8
0
 10
385.64558935872037
 20
150.5465045676543
 30
0.0
 40
0.5
 50
270.0
 51
310.48427935218012
  0
ARC
  5
1D459
  8
0
 10
375.42636576512501
 20
150.5465045676543
 30
0.0
 40
0.5
 50
229.5158243586319
 51
270.0
  0
LINE
  5
1D45A
  8
0
 10
385.64589560481198
 20
150.04650466144091
 30
0.0
 11
375.42636576512501
 21
150.0465045676543
 31
0.0
  0
LINE
  5
1D45B
  8
0
 10
387.97592904385192
 20
158.1966179423035
 30
0.0
 11
386.53597882385469
 21
158.1966179423035
 31
0.0
  0
LINE
  5
1D45C
  8
0
 10
387.99676511461172
 20
157.88965477840989
 30
0.0
 11
386.53597882385469
 21
157.88965477840989
 31
0.0
  0
LINE
  5
1D45D
  8
0
 10
374.53597955455513
 20
158.1966179423035
 30
0.0
 11
373.09602435644729
 21
158.1966179423035
 31
0.0
  0
LINE
  5
1D45E
  8
0
 10
374.53597955455513
 20
157.88965477840981
 30
0.0
 11
373.07519253309829
 21
157.88965477840981
 31
0.0
  0
LINE
  5
1D45F
  8
0
 10
390.20426671749419
 20
177.84056868632581
 30
0.0
 11
388.53597809315522
 21
178.80375593428599
 31
0.0
  0
LINE
  5
1D460
  8
0
 10
372.5359795545549
 20
178.8065357388686
 30
0.0
 11
370.86287706887788
 21
177.84056868632581
 31
0.0
  0
LINE
  5
1D461
  8
0
 10
388.47221627628869
 20
187.55311202486311
 30
0.0
 11
390.20426671749419
 21
188.55311032613071
 31
0.0
  0
LINE
  5
1D462
  8
0
 10
370.86287706887788
 20
188.55311032613071
 30
0.0
 11
372.59492657876081
 21
187.55311202486311
 31
0.0
  0
ARC
  5
1D463
  8
0
 10
374.1135487602096
 20
177.68344094955401
 30
0.0
 40
2.7366013986222439
 50
209.99999299001661
 51
234.7973423716661
  0
POLYLINE
  5
1D465
  8
0
 66
     1
 10
0.0
 20
0.0
 30
0.0
 70
   128
  0
VERTEX
  5
1DE6D
  8
0
 10
389.32355966216392
 20
176.31514054020201
 30
0.0
  0
VERTEX
  5
1DE6E
  8
0
 10
389.6650542298562
 20
176.90662536998539
 30
0.0
  0
VERTEX
  5
1DE6F
  8
0
 10
389.92667345127529
 20
177.35976409395491
 30
0.0
  0
VERTEX
  5
1DE70
  8
0
 10
390.10373323953218
 20
177.6664411671951
 30
0.0
  0
VERTEX
  5
1DE71
  8
0
 10
390.19306290692163
 20
177.82116364916121
 30
0.0
  0
VERTEX
  5
1DE72
  8
0
 10
390.20426671749419
 20
177.84056868632581
 30
0.0
  0
SEQEND
  5
1DE73
  8
0
  0
POLYLINE
  5
1D467
  8
0
 66
     1
 10
0.0
 20
0.0
 30
0.0
 70
   128
  0
VERTEX
  5
1DE74
  8
0
 10
370.86287706887788
 20
177.84056868632581
 30
0.0
  0
VERTEX
  5
1DE75
  8
0
 10
370.8740808794505
 20
177.82116364916121
 30
0.0
  0
VERTEX
  5
1DE76
  8
0
 10
370.96340961551732
 20
177.6664411671951
 30
0.0
  0
VERTEX
  5
1DE77
  8
0
 10
371.14046893811292
 20
177.35976409395491
 30
0.0
  0
VERTEX
  5
1DE78
  8
0
 10
371.4020886251933
 20
176.90662536998539
 30
0.0
  0
VERTEX
  5
1DE79
  8
0
 10
371.74358226156301
 20
176.31514054020201
 30
0.0
  0
SEQEND
  5
1DE7A
  8
0
  0
ARC
  5
1D468
  8
0
 10
374.02889553763453
 20
188.7984028030136
 30
0.0
 40
0.6201416603065701
 50
98.580423571305914
 51
153.14518642042489
  0
ARC
  5
1D469
  8
0
 10
374.11355197105559
 20
188.71023250154479
 30
0.0
 40
2.736608822627224
 50
90.000070170602825
 51
149.9998722388641
  0
ARC
  5
1D46A
  8
0
 10
387.03894565007568
 20
188.80050224955991
 30
0.0
 40
0.6185722153622187
 50
26.710542075655749
 51
80.938079424464689
  0
ARC
  5
1D46B
  8
0
 10
386.9535939517009
 20
188.71023942807611
 30
0.0
 40
2.7366018960940921
 50
30.000044034286219
 51
89.999974558363476
  0
POLYLINE
  5
1D46C
  8
0
 66
     1
 10
0.0
 20
0.0
 30
0.0
 70
   128
  0
VERTEX
  5
1DE7B
  8
0
 10
387.59150922095841
 20
189.07854017098691
 30
0.0
  0
VERTEX
  5
1DE7C
  8
0
 10
387.93300378865069
 20
188.48705347855841
 30
0.0
  0
VERTEX
  5
1DE7D
  8
0
 10
388.1946225444085
 20
188.03391661723401
 30
0.0
  0
VERTEX
  5
1DE7E
  8
0
 10
388.37168279832667
 20
187.72724140663891
 30
0.0
  0
VERTEX
  5
1DE7F
  8
0
 10
388.46101246571612
 20
187.57251706202771
 30
0.0
  0
VERTEX
  5
1DE80
  8
0
 10
388.47221627628869
 20
187.55311202486311
 30
0.0
  0
SEQEND
  5
1DE81
  8
0
  0
POLYLINE
  5
1D46D
  8
0
 66
     1
 10
0.0
 20
0.0
 30
0.0
 70
   128
  0
VERTEX
  5
1DE82
  8
0
 10
390.20426671749419
 20
188.55311032613071
 30
0.0
  0
VERTEX
  5
1DE83
  8
0
 10
390.19306290692163
 20
188.57251908858569
 30
0.0
  0
VERTEX
  5
1DE84
  8
0
 10
390.10373323953218
 20
188.72724157055171
 30
0.0
  0
VERTEX
  5
1DE85
  8
0
 10
389.92667345127529
 20
189.03391864379199
 30
0.0
  0
VERTEX
  5
1DE86
  8
0
 10
389.6650542298562
 20
189.4870555051163
 30
0.0
  0
VERTEX
  5
1DE87
  8
0
 10
389.32355966216392
 20
190.07854219754489
 30
0.0
  0
SEQEND
  5
1DE88
  8
0
  0
POLYLINE
  5
1D46E
  8
0
 66
     1
 10
0.0
 20
0.0
 30
0.0
 70
   128
  0
VERTEX
  5
1DE89
  8
0
 10
371.74358226156301
 20
190.07854219754489
 30
0.0
  0
VERTEX
  5
1DE8A
  8
0
 10
371.4020886251933
 20
189.4870555051163
 30
0.0
  0
VERTEX
  5
1DE8B
  8
0
 10
371.14046893811292
 20
189.03391864379199
 30
0.0
  0
VERTEX
  5
1DE8C
  8
0
 10
370.96340961551732
 20
188.72724157055171
 30
0.0
  0
VERTEX
  5
1DE8D
  8
0
 10
370.8740808794505
 20
188.57251908858569
 30
0.0
  0
VERTEX
  5
1DE8E
  8
0
 10
370.86287706887788
 20
188.55311032613071
 30
0.0
  0
SEQEND
  5
1DE8F
  8
0
  0
POLYLINE
  5
1D46F
  8
0
 66
     1
 10
0.0
 20
0.0
 30
0.0
 70
   128
  0
VERTEX
  5
1DE90
  8
0
 10
372.59492657876081
 20
187.55311202486311
 30
0.0
  0
VERTEX
  5
1DE91
  8
0
 10
372.60613038933349
 20
187.57251706202771
 30
0.0
  0
VERTEX
  5
1DE92
  8
0
 10
372.6954609880454
 20
187.72724140663891
 30
0.0
  0
VERTEX
  5
1DE93
  8
0
 10
372.87252031064099
 20
188.03391661723401
 30
0.0
  0
VERTEX
  5
1DE94
  8
0
 10
373.13413999772138
 20
188.48705347855841
 30
0.0
  0
VERTEX
  5
1DE95
  8
0
 10
373.47563363409108
 20
189.07854017098691
 30
0.0
  0
SEQEND
  5
1DE96
  8
0
  0
LINE
  5
1D470
  8
0
 10
373.93637195026918
 20
189.4116034754112
 30
0.0
 11
374.53597882385498
 21
189.4116034754112
 31
0.0
  0
LINE
  5
1D471
  8
0
 10
387.13637187874389
 20
189.41135388096109
 30
0.0
 11
386.53597882385498
 21
189.4113538809612
 31
0.0
  0
ARC
  5
1D472
  8
0
 10
386.953592440482
 20
177.6834422018847
 30
0.0
 40
2.7366026509543202
 50
305.32614380612722
 51
329.99999187197261
  0
LINE
  5
1D473
  8
0
 10
374.11354861950872
 20
191.4468413241699
 30
0.0
 11
374.53597882385498
 21
191.4468413241699
 31
0.0
  0
LINE
  5
1D474
  8
0
 10
386.9535951668625
 20
191.4468413241699
 30
0.0
 11
386.53597882385498
 21
191.4468413241699
 31
0.0
  0
ENDSEC
  0
EOF
