  0
SECTION
  2
HEADER
  9
$ACADVER
  1
AC1009
  9
$INSBASE
 10
0.0
 20
0.0
 30
0.0
  9
$EXTMIN
 10
0.0
 20
-2.960436562073669
 30
0.0
  9
$EXTMAX
 10
540.52935603001151
 20
352.62502972036629
 30
0.0
  9
$LIMMIN
 10
0.0
 20
0.0
  9
$LIMMAX
 10
420.0
 20
297.0
  9
$ORTHOMODE
 70
     1
  9
$REGENMODE
 70
     1
  9
$FILLMODE
 70
     1
  9
$QTEXTMODE
 70
     0
  9
$MIRRTEXT
 70
     0
  9
$DRAGMODE
 70
     2
  9
$LTSCALE
 40
10.0
  9
$OSMODE
 70
    37
  9
$ATTMODE
 70
     1
  9
$TEXTSIZE
 40
2.5
  9
$TRACEWID
 40
1.0
  9
$TEXTSTYLE
  7
STANDARD
  9
$CLAYER
  8
0
  9
$CELTYPE
  6
BYLAYER
  9
$CECOLOR
 62
   256
  9
$DIMSCALE
 40
1.0
  9
$DIMASZ
 40
2.5
  9
$DIMEXO
 40
0.625
  9
$DIMDLI
 40
3.75
  9
$DIMRND
 40
0.0
  9
$DIMDLE
 40
0.0
  9
$DIMEXE
 40
1.25
  9
$DIMTP
 40
0.0
  9
$DIMTM
 40
0.0
  9
$DIMTXT
 40
2.5
  9
$DIMCEN
 40
2.5
  9
$DIMTSZ
 40
0.0
  9
$DIMTOL
 70
     0
  9
$DIMLIM
 70
     0
  9
$DIMTIH
 70
     0
  9
$DIMTOH
 70
     0
  9
$DIMSE1
 70
     0
  9
$DIMSE2
 70
     0
  9
$DIMTAD
 70
     1
  9
$DIMZIN
 70
     8
  9
$DIMBLK
  1

  9
$DIMASO
 70
     1
  9
$DIMSHO
 70
     1
  9
$DIMPOST
  1

  9
$DIMAPOST
  1

  9
$DIMALT
 70
     0
  9
$DIMALTD
 70
     3
  9
$DIMALTF
 40
0.03937007874016
  9
$DIMLFAC
 40
1.0
  9
$DIMTOFL
 70
     1
  9
$DIMTVP
 40
0.0
  9
$DIMTIX
 70
     0
  9
$DIMSOXD
 70
     0
  9
$DIMSAH
 70
     0
  9
$DIMBLK1
  1

  9
$DIMBLK2
  1

  9
$DIMSTYLE
  2
ISO-25
  9
$DIMCLRD
 70
     0
  9
$DIMCLRE
 70
     0
  9
$DIMCLRT
 70
     0
  9
$DIMTFAC
 40
1.0
  9
$DIMGAP
 40
0.625
  9
$LUNITS
 70
     2
  9
$LUPREC
 70
     2
  9
$SKETCHINC
 40
1.0
  9
$FILLETRAD
 40
0.0
  9
$AUNITS
 70
     0
  9
$AUPREC
 70
     2
  9
$MENU
  1
.
  9
$ELEVATION
 40
0.0
  9
$PELEVATION
 40
0.0
  9
$THICKNESS
 40
0.0
  9
$LIMCHECK
 70
     0
  9
$BLIPMODE
 70
     0
  9
$CHAMFERA
 40
0.0
  9
$CHAMFERB
 40
0.0
  9
$SKPOLY
 70
     0
  9
$TDCREATE
 40
2454083.4444627082
  9
$TDUPDATE
 40
2459411.727360209
  9
$TDINDWG
 40
3.2792121644000001
  9
$TDUSRTIMER
 40
3.2792121644000001
  9
$USRTIMER
 70
     1
  9
$ANGBASE
 50
0.0
  9
$ANGDIR
 70
     0
  9
$PDMODE
 70
     0
  9
$PDSIZE
 40
0.0
  9
$PLINEWID
 40
0.0
  9
$COORDS
 70
     1
  9
$SPLFRAME
 70
     0
  9
$SPLINETYPE
 70
     6
  9
$SPLINESEGS
 70
     8
  9
$ATTDIA
 70
     0
  9
$ATTREQ
 70
     1
  9
$HANDLING
 70
     1
  9
$HANDSEED
  5
218C2
  9
$SURFTAB1
 70
     6
  9
$SURFTAB2
 70
     6
  9
$SURFTYPE
 70
     6
  9
$SURFU
 70
     6
  9
$SURFV
 70
     6
  9
$UCSNAME
  2

  9
$UCSORG
 10
0.0
 20
0.0
 30
0.0
  9
$UCSXDIR
 10
1.0
 20
0.0
 30
0.0
  9
$UCSYDIR
 10
0.0
 20
1.0
 30
0.0
  9
$PUCSNAME
  2

  9
$PUCSORG
 10
0.0
 20
0.0
 30
0.0
  9
$PUCSXDIR
 10
1.0
 20
0.0
 30
0.0
  9
$PUCSYDIR
 10
0.0
 20
1.0
 30
0.0
  9
$USERI1
 70
     0
  9
$USERI2
 70
     0
  9
$USERI3
 70
     0
  9
$USERI4
 70
     0
  9
$USERI5
 70
     0
  9
$USERR1
 40
0.0
  9
$USERR2
 40
0.0
  9
$USERR3
 40
0.0
  9
$USERR4
 40
0.0
  9
$USERR5
 40
0.0
  9
$WORLDVIEW
 70
     1
  9
$SHADEDGE
 70
     3
  9
$SHADEDIF
 70
    70
  9
$TILEMODE
 70
     1
  9
$MAXACTVP
 70
    64
  9
$PLIMCHECK
 70
     0
  9
$PEXTMIN
 10
0.0
 20
0.0
 30
0.0
  9
$PEXTMAX
 10
0.0
 20
0.0
 30
0.0
  9
$PLIMMIN
 10
0.0
 20
0.0
  9
$PLIMMAX
 10
12.0
 20
9.0
  9
$UNITMODE
 70
     0
  9
$VISRETAIN
 70
     1
  9
$PLINEGEN
 70
     0
  9
$PSLTSCALE
 70
     1
  0
ENDSEC
  0
SECTION
  2
TABLES
  0
TABLE
  2
VPORT
 70
     1
  0
VPORT
  2
*ACTIVE
 70
     0
 10
0.0
 20
0.0
 11
1.0
 21
1.0
 12
459.31872437981229
 22
174.82200249556601
 13
0.0
 23
0.0
 14
10.0
 24
10.0
 15
10.0
 25
10.0
 16
0.0
 26
0.0
 36
1.0
 17
0.0
 27
0.0
 37
0.0
 40
387.30030562837572
 41
2.3805970149253728
 42
50.0
 43
0.0
 44
0.0
 50
0.0
 51
0.0
 71
     0
 72
  1000
 73
     1
 74
     3
 75
     0
 76
     0
 77
     0
 78
     0
  0
ENDTAB
  0
TABLE
  2
LTYPE
 70
     2
  0
LTYPE
  2
CONTINUOUS
 70
     0
  3
Solid line
 72
    65
 73
     0
 40
0.0
  0
LTYPE
  2
CENTER
 70
     0
  3
____ _ ____ _ ____ _ ____ _ ____ _ ____ _ ____
 72
    65
 73
     4
 40
2.0
 49
1.25
 49
-0.25
 49
0.25
 49
-0.25
  0
ENDTAB
  0
TABLE
  2
LAYER
 70
     4
  0
LAYER
  2
0
 70
     0
 62
     7
  6
CONTINUOUS
  0
LAYER
  2
DEFPOINTS
 70
     0
 62
     7
  6
CONTINUOUS
  0
LAYER
  2
1
 70
     0
 62
     1
  6
CENTER
  0
LAYER
  2
3
 70
     0
 62
     3
  6
CONTINUOUS
  0
ENDTAB
  0
TABLE
  2
STYLE
 70
     2
  0
STYLE
  2
STANDARD
 70
     0
 40
0.0
 41
1.0
 50
0.0
 71
     0
 42
2.5
  3
txt
  4

  0
STYLE
  2
STANDARD1
 70
     0
 40
0.0
 41
1.0
 50
0.0
 71
     0
 42
3.0
  3
txt
  4

  0
ENDTAB
  0
TABLE
  2
VIEW
 70
     4
  0
VIEW
  2
OLE1
 70
     0
 40
17.336203194614189
 10
1078.262703908531
 20
377.67444865954309
 41
31.074911629702001
 11
0.0
 21
0.0
 31
1.0
 12
0.0
 22
0.0
 32
0.0
 42
50.0
 43
0.0
 44
0.0
 50
0.0
 71
     0
  0
VIEW
  2
OLE2
 70
     0
 40
50.523198253338478
 10
1031.767738941523
 20
579.92835671582054
 41
90.562155008667546
 11
0.0
 21
0.0
 31
1.0
 12
0.0
 22
0.0
 32
0.0
 42
50.0
 43
0.0
 44
0.0
 50
0.0
 71
     0
  0
VIEW
  2
OLE3
 70
     0
 40
95.502301876216066
 10
202.0430959360805
 20
425.55992261598641
 41
146.70534324358491
 11
0.0
 21
0.0
 31
1.0
 12
0.0
 22
0.0
 32
0.0
 42
50.0
 43
0.0
 44
0.0
 50
0.0
 71
     0
  0
VIEW
  2
OLE4
 70
     0
 40
1.514979042141817
 10
182.21676900169319
 20
680.91984443132458
 41
1.8928111647000769
 11
0.0
 21
0.0
 31
1.0
 12
0.0
 22
0.0
 32
0.0
 42
50.0
 43
0.0
 44
0.0
 50
0.0
 71
     0
  0
ENDTAB
  0
TABLE
  2
UCS
 70
     0
  0
ENDTAB
  0
TABLE
  2
APPID
 70
    42
  0
APPID
  2
ACAD
 70
     0
  0
APPID
  2
_FTCNV
 70
     0
  0
APPID
  2
DCO15
 70
     0
  0
APPID
  2
GENIUS_GENOREF_13
 70
     0
  0
APPID
  2
GENIUS_GENOENT_13
 70
     0
  0
APPID
  2
GENIUS_GENBH_13
 70
     0
  0
APPID
  2
GENIUS_GENOBJ_13
 70
     0
  0
APPID
  2
GENIUS_GENODEF_13
 70
     0
  0
APPID
  2
GENIUS_GENOLIS_13
 70
     0
  0
APPID
  2
GENIUS_GENOBJ-NBEHI-BHF_13
 70
     0
  0
APPID
  2
GENIUS_GENOBJ-NBEHI-BHB_13
 70
     0
  0
APPID
  2
GENIUS_GENOBJ-F-PART_13
 70
     0
  0
APPID
  2
GENIUS_GEFSTDP_13
 70
     0
  0
APPID
  2
GENIUS_GENOBJ-N-RSSYM_13
 70
     0
  0
APPID
  2
GENIUS_GENSYMENT_13
 70
     0
  0
APPID
  2
GENIUS_GENOBJ-N-TIT_13
 70
     0
  0
APPID
  2
GENIUS_GENTITLE_13
 70
     0
  0
APPID
  2
GENIUS_GENZVEED_13
 70
     0
  0
APPID
  2
GENIUS_GENOBJ-N-LEADER_13
 70
     0
  0
APPID
  2
GENIUS_GENOBJ-N-FIL_13
 70
     0
  0
APPID
  2
GENIUS_GENOBJ-N-SEC_13
 70
     0
  0
APPID
  2
GENIUS_GENOBJ-N-CRS_13
 70
     0
  0
APPID
  2
GENIUS_GENOBJ-N-ZOO_13
 70
     0
  0
APPID
  2
GENIUS_GENZOO_13
 70
     0
  0
APPID
  2
GENIUS_GENOBJ-F-TOL_13
 70
     0
  0
APPID
  2
GENIUS_GENFIL_13
 70
     0
  0
APPID
  2
GENIUS_GENOBJ-N-CHA_13
 70
     0
  0
APPID
  2
_CALL_MAC$
 70
     0
  0
APPID
  2
ASM_BASE
 70
     0
  0
APPID
  2
ASM_EXPLO_VER_2_00
 70
     0
  0
APPID
  2
ASM_CADM_VER_12_00
 70
     0
  0
APPID
  2
ASM_BASEFORO
 70
     0
  0
APPID
  2
ASM_BASETRAVI
 70
     0
  0
APPID
  2
ASM_BASETRAVI1
 70
     0
  0
APPID
  2
ASM_GRUPPI
 70
     0
  0
APPID
  2
ASM_CADM_ALBERO
 70
     0
  0
APPID
  2
ASM_GOLE
 70
     0
  0
APPID
  2
ACAD_MLEADERVER
 70
     0
  0
APPID
  2
ACAD_EXEMPT_FROM_CAD_STANDARDS
 70
     0
  0
APPID
  2
ACAD_DSTYLE_DIMJAG
 70
     0
  0
APPID
  2
ACAD_DSTYLE_DIMTALN
 70
     0
  0
APPID
  2
ACAD_NAV_VCDISPLAY
 70
     0
  0
ENDTAB
  0
TABLE
  2
DIMSTYLE
 70
     2
  0
DIMSTYLE
  2
ISO-25
 70
     0
  3

  4

  5

  6

  7

 40
1.0
 41
2.5
 42
0.625
 43
3.75
 44
1.25
 45
0.0
 46
0.0
 47
0.0
 48
0.0
140
2.5
141
2.5
142
0.0
143
0.03937007874016
144
1.0
145
0.0
146
1.0
147
0.625
 71
     0
 72
     0
 73
     0
 74
     0
 75
     0
 76
     0
 77
     1
 78
     8
170
     0
171
     3
172
     1
173
     0
174
     0
175
     0
176
     0
177
     0
178
     0
  0
DIMSTYLE
  2
STANDARD
 70
     0
  3

  4

  5

  6

  7

 40
1.0
 41
0.18
 42
0.0625
 43
0.38
 44
0.18
 45
0.0
 46
0.0
 47
0.0
 48
0.0
140
0.18
141
0.09
142
0.0
143
25.399999999999999
144
1.0
145
0.0
146
1.0
147
0.09
 71
     0
 72
     0
 73
     1
 74
     1
 75
     0
 76
     0
 77
     0
 78
     0
170
     0
171
     2
172
     0
173
     0
174
     0
175
     0
176
     0
177
     0
178
     0
  0
ENDTAB
  0
ENDSEC
  0
SECTION
  2
BLOCKS
  0
BLOCK
  8
0
  2
$MODEL_SPACE
 70
     0
 10
0.0
 20
0.0
 30
0.0
  3
$MODEL_SPACE
  1

  0
ENDBLK
  5
21
  8
0
  0
BLOCK
 67
     1
  8
0
  2
$PAPER_SPACE
 70
     0
 10
0.0
 20
0.0
 30
0.0
  3
$PAPER_SPACE
  1

  0
ENDBLK
  5
53
 67
     1
  8
0
  0
ENDSEC
  0
SECTION
  2
ENTITIES
  0
TEXT
  5
C317
  8
0
 62
     3
 10
0.0
 20
0.0
 30
0.0
 40
10.0
  1
ST-H237U
  7
STANDARD1
  0
LINE
  5
2082A
  8
0
 10
210.50301464274531
 20
191.40201704576631
 30
0.0
 11
211.2184670066321
 21
192.11747042309901
 31
0.0
  0
LINE
  5
2082B
  8
0
 10
211.81796761229629
 20
197.68706234172001
 30
0.0
 11
210.50301464274531
 21
199.00201717391619
 31
0.0
  0
LINE
  5
2082C
  8
0
 10
192.18806447461239
 20
192.71697187796249
 30
0.0
 11
193.5030174441635
 21
191.40201704576631
 31
0.0
  0
LINE
  5
2082D
  8
0
 10
193.5030174441635
 20
199.00201717391619
 30
0.0
 11
192.78757015306331
 21
198.28656886937719
 31
0.0
  0
LINE
  5
2082E
  8
0
 10
210.50301464274531
 20
223.10201721265929
 30
0.0
 11
211.2184601513305
 21
223.8174627212444
 31
0.0
  0
LINE
  5
2082F
  8
0
 10
192.18806447461239
 20
224.41697018221041
 30
0.0
 11
193.5030174441635
 21
223.10201721265929
 31
0.0
  0
LINE
  5
20830
  8
0
 10
211.81796761229629
 20
229.38706250861301
 30
0.0
 11
210.50301464274531
 21
230.7020154781641
 31
0.0
  0
LINE
  5
20831
  8
0
 10
193.5030174441635
 20
230.7020154781641
 30
0.0
 11
192.78758180956919
 21
229.98657984356981
 31
0.0
  0
LINE
  5
20832
  8
0
 10
197.00301708653569
 20
244.12201615050449
 30
0.0
 11
197.00301708653569
 21
230.7020154781641
 31
0.0
  0
LINE
  5
20833
  8
0
 10
197.00301708653569
 20
191.40201704576631
 30
0.0
 11
197.00301708653569
 21
177.62201735749861
 31
0.0
  0
LINE
  5
20834
  8
0
 10
207.0030150003731
 20
177.62201707070651
 30
0.0
 11
207.0030150003731
 21
191.40201704576631
 31
0.0
  0
LINE
  5
20835
  8
0
 10
207.0030150003731
 20
230.70201547816399
 30
0.0
 11
207.0030150003731
 21
244.12201615050449
 31
0.0
  0
LINE
  5
20836
  8
0
 10
207.0030150003731
 20
244.12201615050449
 30
0.0
 11
206.50301398709419
 21
244.62201716378351
 31
0.0
  0
LINE
  5
20837
  8
0
 10
197.503010649234
 20
244.62201716378351
 30
0.0
 11
197.00301708653569
 21
244.12201615050449
 31
0.0
  0
ARC
  5
20838
  8
0
 10
212.70383473294231
 20
172.49608646753029
 30
0.0
 40
0.5000000000000476
 50
345.46554491946159
 51
40.364536573096323
  0
ARC
  5
20839
  8
0
 10
191.30219322982211
 20
172.49608646753029
 30
0.0
 40
0.4999999999999927
 50
139.6354634269033
 51
194.5344550805417
  0
LINE
  5
2083A
  8
0
 10
190.818200726062
 20
172.370605543256
 30
0.0
 11
194.155911821872
 21
159.49653638526809
 31
0.0
  0
LINE
  5
2083B
  8
0
 10
209.8501128144562
 20
159.49653638526809
 30
0.0
 11
213.18783136084679
 21
172.370605543256
 31
0.0
  0
LINE
  5
2083C
  8
0
 10
213.0848047323525
 20
172.819910477847
 30
0.0
 11
209.60200848057869
 21
176.91731350496431
 31
0.0
  0
LINE
  5
2083D
  8
0
 10
194.4040161557495
 20
176.91731350496431
 30
0.0
 11
190.92122735455629
 21
172.819910477847
 31
0.0
  0
ARC
  5
2083E
  8
0
 10
209.36611303023469
 20
159.6220170428013
 30
0.0
 40
0.5000000000000476
 50
270.0
 51
345.46554491946159
  0
ARC
  5
2083F
  8
0
 10
194.63991493252951
 20
159.6220170428013
 30
0.0
 40
0.5
 50
194.5344550805417
 51
270.0
  0
ARC
  5
20840
  8
0
 10
208.0781330317009
 20
175.6220170428013
 30
0.0
 40
2.0
 50
40.364536573096657
 51
90.0
  0
ARC
  5
20841
  8
0
 10
195.92789493106349
 20
175.6220170428013
 30
0.0
 40
2.000000000000028
 50
90.0
 51
139.6354634269033
  0
LINE
  5
2086A
  8
0
 10
215.00301631167531
 20
199.00201717391619
 30
0.0
 11
215.00301631167531
 21
201.50535451248311
 31
0.0
  0
LINE
  5
2086B
  8
0
 10
189.00301577523351
 20
201.5020166523756
 30
0.0
 11
189.00301577523351
 21
199.00201717391619
 31
0.0
  0
LINE
  5
2086C
  8
0
 10
215.00301631167531
 20
220.60201587155481
 30
0.0
 11
215.00301631167531
 21
223.10201721265929
 31
0.0
  0
LINE
  5
2086D
  8
0
 10
189.00301577523351
 20
223.10201721265929
 30
0.0
 11
189.00301577523351
 21
220.60201587155481
 31
0.0
  0
ARC
  5
2086E
  8
0
 10
312.18384194831953
 20
353.95486358276111
 30
0.0
 40
165.9001120157009
 50
275.24628094735891
 51
275.9230512339787
  0
ARC
  5
2086F
  8
0
 10
312.08014069235122
 20
160.89445148255311
 30
0.0
 40
55.957764322976971
 50
71.807579396642012
 51
73.889212966037334
  0
LINE
  5
20870
  8
0
 10
305.31005458906287
 20
186.39557892456671
 30
0.0
 11
313.24459882453078
 21
186.17896260693681
 31
0.0
  0
ARC
  5
20871
  8
0
 10
305.65109743144842
 20
198.8877248357937
 30
0.0
 40
12.49679999389617
 50
165.5293796516786
 51
268.43618419518498
  0
ARC
  5
20872
  8
0
 10
264.34512530015758
 20
209.54758141354611
 30
0.0
 40
30.162500000000001
 50
345.52937964843062
 51
30.894989427215709
  0
ARC
  5
20873
  8
0
 10
297.26796703636381
 20
229.2475855046867
 30
0.0
 40
8.2042000037563145
 50
50.978981311589273
 51
210.89498937613189
  0
ARC
  5
20874
  8
0
 10
333.49577994848141
 20
159.21930926184891
 30
0.0
 40
30.162500011018651
 50
101.7503656053574
 51
108.7873162839434
  0
ARC
  5
20875
  8
0
 10
314.06774417281349
 20
216.33022811673979
 30
0.0
 40
30.162500001833099
 50
268.43618417977422
 51
288.78731633123903
  0
ARC
  5
20876
  8
0
 10
374.79063876223381
 20
296.90303908516159
 30
0.0
 40
94.820852890922183
 50
220.2622410904911
 51
240.1589264524446
  0
LINE
  5
20877
  8
0
 10
335.41947500780219
 20
189.35049967840331
 30
0.0
 11
334.95198367163539
 21
189.36434471979749
 31
0.0
  0
LINE
  5
20878
  8
0
 10
334.95198367163539
 20
189.36434471979749
 30
0.0
 11
334.52492477372289
 21
189.3685487098993
 31
0.0
  0
ARC
  5
20879
  8
0
 10
333.8307589515685
 20
165.78020874523071
 30
0.0
 40
23.598551830089729
 50
88.314366484667929
 51
101.0604004046134
  0
ARC
  5
2087A
  8
0
 10
372.23241333752281
 20
281.77870348533702
 30
0.0
 40
80.051363822518567
 50
237.7794706305535
 51
243.18002871101319
  0
LINE
  5
2087B
  8
0
 10
335.41947500780219
 20
189.35049967840331
 30
0.0
 11
335.90756533667439
 21
189.3460367806257
 31
0.0
  0
ARC
  5
2087C
  8
0
 10
360.49905372902208
 20
213.68026060808501
 30
0.0
 40
24.61281169723701
 50
187.80315361938599
 51
188.8631307960994
  0
LINE
  5
2087D
  8
0
 10
336.18013830855489
 20
209.8880511708559
 30
0.0
 11
335.97798915579909
 21
189.34599207714211
 31
0.0
  0
POLYLINE
  5
2087E
  8
0
 66
     1
 10
0.0
 20
0.0
 30
0.0
 70
   128
  0
VERTEX
  5
20F35
  8
0
 10
335.97798915579909
 20
189.34599207714211
 30
0.0
  0
VERTEX
  5
20F36
  8
0
 10
335.94169924035668
 20
189.3460256047548
 30
0.0
  0
VERTEX
  5
20F37
  8
0
 10
335.90756533667439
 20
189.3460367806257
 30
0.0
  0
SEQEND
  5
20F38
  8
0
  0
LINE
  5
2087F
  8
0
 10
335.97798915579909
 20
189.34599207714211
 30
0.0
 11
351.31939095462099
 21
189.2044653985383
 31
0.0
  0
ARC
  5
20880
  8
0
 10
373.83310996036039
 20
296.91246188998582
 30
0.0
 40
94.820852890922055
 50
246.60324616524699
 51
252.6069306974957
  0
ARC
  5
20881
  8
0
 10
350.40807429834689
 20
226.6325927078546
 30
0.0
 40
20.79566332883461
 50
256.31668633399869
 51
271.50891834737808
  0
LINE
  5
20882
  8
0
 10
301.5346535481512
 20
187.08836371079099
 30
0.0
 11
302.15561101213098
 21
185.43385425582539
 31
0.0
  0
LINE
  5
20883
  8
0
 10
321.22268367093062
 20
180.1653931848706
 30
0.0
 11
318.82806601934129
 21
186.5457397885622
 31
0.0
  0
ARC
  5
20884
  8
0
 10
313.73281766546592
 20
177.35436007180249
 30
0.0
 40
8.0000000000000728
 50
349.71862554518441
 51
20.571692734913071
  0
LINE
  5
20885
  8
0
 10
158.00301255658269
 20
220.60201587155481
 30
0.0
 11
194.3836164660751
 21
220.60201587155481
 31
0.0
  0
LINE
  5
20886
  8
0
 10
260.21336289122701
 20
201.50535451248291
 30
0.0
 11
209.61643280461431
 21
201.50535451248311
 31
0.0
  0
LINE
  5
20887
  8
0
 10
194.37948884442449
 20
201.50535451248311
 30
0.0
 11
158.00301255658269
 21
201.50535451248311
 31
0.0
  0
LINE
  5
20888
  8
0
 10
158.00301255658269
 20
220.60201587155481
 30
0.0
 11
158.00301255658269
 21
201.50535451248311
 31
0.0
  0
LINE
  5
20889
  8
0
 10
257.79331000521779
 20
220.60201587155481
 30
0.0
 11
257.79331000521779
 21
201.50535451248311
 31
0.0
  0
ARC
  5
2088A
  8
0
 10
271.06440862220029
 20
240.4457670445037
 30
0.0
 40
19.843750001702489
 50
270.90949531984569
 51
323.99999988653838
  0
LINE
  5
2088B
  8
0
 10
287.11834074929362
 20
228.7819040007891
 30
0.0
 11
289.62682830169803
 21
232.23454775288721
 31
0.0
  0
POLYLINE
  5
2088C
  8
0
 66
     1
 10
0.0
 20
0.0
 30
0.0
 70
   128
  0
VERTEX
  5
20F39
  8
0
 10
294.34623653069139
 20
206.43153311684739
 30
0.0
  0
VERTEX
  5
20F3A
  8
0
 10
293.45522718504071
 20
205.34944804385319
 30
0.0
  0
VERTEX
  5
20F3B
  8
0
 10
293.15716298297048
 20
205.03911273553979
 30
0.0
  0
SEQEND
  5
20F3C
  8
0
  0
ARC
  5
2088D
  8
0
 10
201.7976202439163
 20
201.98351935526529
 30
0.0
 40
10.58349550149171
 50
271.11199913268058
 51
298.887982601825
  0
POLYLINE
  5
2088E
  8
0
 66
     1
 10
0.0
 20
0.0
 30
0.0
 70
   128
  0
VERTEX
  5
20F3D
  8
0
 10
202.00301231816411
 20
191.40201704576631
 30
0.0
  0
VERTEX
  5
20F3E
  8
0
 10
198.95765455439681
 20
191.93109394982471
 30
0.0
  0
VERTEX
  5
20F3F
  8
0
 10
197.09553839638829
 20
192.71697187796249
 30
0.0
  0
SEQEND
  5
20F40
  8
0
  0
LINE
  5
2088F
  8
0
 10
197.09553839638829
 20
197.68706234172001
 30
0.0
 11
197.09553839638829
 21
192.71697187796249
 31
0.0
  0
ARC
  5
20890
  8
0
 10
202.2084219251872
 20
188.42047840096751
 30
0.0
 40
10.583532298343281
 50
91.112090200579146
 51
118.8879350274341
  0
POLYLINE
  5
20891
  8
0
 66
     1
 10
0.0
 20
0.0
 30
0.0
 70
   128
  0
VERTEX
  5
20F41
  8
0
 10
202.00301231816411
 20
199.00201717391619
 30
0.0
  0
VERTEX
  5
20F42
  8
0
 10
205.04837753251189
 20
198.47294026985779
 30
0.0
  0
VERTEX
  5
20F43
  8
0
 10
206.9104936905205
 20
197.68706234172001
 30
0.0
  0
SEQEND
  5
20F44
  8
0
  0
LINE
  5
20892
  8
0
 10
206.9104936905205
 20
192.71697187796249
 30
0.0
 11
206.9104936905205
 21
197.68706234172001
 31
0.0
  0
ARC
  5
20893
  8
0
 10
194.38505026335051
 20
194.8279654399179
 30
0.0
 40
3.435555229938116
 50
274.28578716440683
 51
322.08768085055408
  0
POLYLINE
  5
20894
  8
0
 66
     1
 10
0.0
 20
0.0
 30
0.0
 70
   128
  0
VERTEX
  5
20F45
  8
0
 10
194.64179398491979
 20
191.40201704576631
 30
0.0
  0
VERTEX
  5
20F46
  8
0
 10
193.11911882832641
 20
191.93109394982471
 30
0.0
  0
VERTEX
  5
20F47
  8
0
 10
192.18806447461239
 20
192.71697187796249
 30
0.0
  0
SEQEND
  5
20F48
  8
0
  0
LINE
  5
20895
  8
0
 10
192.18806447461239
 20
197.68706234172001
 30
0.0
 11
192.18806447461239
 21
192.71697187796249
 31
0.0
  0
ARC
  5
20896
  8
0
 10
194.89853870810509
 20
195.57609762608971
 30
0.0
 40
3.4355265391295582
 50
94.285839774058914
 51
142.08791796573149
  0
POLYLINE
  5
20897
  8
0
 66
     1
 10
0.0
 20
0.0
 30
0.0
 70
   128
  0
VERTEX
  5
20F49
  8
0
 10
194.64179398491979
 20
199.00201717391619
 30
0.0
  0
VERTEX
  5
20F4A
  8
0
 10
196.1644840426743
 20
198.47294026985779
 30
0.0
  0
VERTEX
  5
20F4B
  8
0
 10
197.09553839638829
 20
197.68706234172001
 30
0.0
  0
SEQEND
  5
20F4C
  8
0
  0
ARC
  5
20898
  8
0
 10
209.10748920100011
 20
194.82794584417721
 30
0.0
 40
3.4355355192661339
 50
274.28577381592532
 51
322.08783906110421
  0
POLYLINE
  5
20899
  8
0
 66
     1
 10
0.0
 20
0.0
 30
0.0
 70
   128
  0
VERTEX
  5
20F4D
  8
0
 10
209.36423065140841
 20
191.40201704576631
 30
0.0
  0
VERTEX
  5
20F4E
  8
0
 10
207.84154804423449
 20
191.93109394982471
 30
0.0
  0
VERTEX
  5
20F4F
  8
0
 10
206.9104936905205
 20
192.71697187796249
 30
0.0
  0
SEQEND
  5
20F50
  8
0
  0
ARC
  5
2089A
  8
0
 10
209.6209776456146
 20
195.5760780306465
 30
0.0
 40
3.435546249495351
 50
94.285853120235743
 51
142.08775975679191
  0
POLYLINE
  5
2089B
  8
0
 66
     1
 10
0.0
 20
0.0
 30
0.0
 70
   128
  0
VERTEX
  5
20F51
  8
0
 10
209.36423065140841
 20
199.00201717391619
 30
0.0
  0
VERTEX
  5
20F52
  8
0
 10
210.8869132585823
 20
198.47294026985779
 30
0.0
  0
VERTEX
  5
20F53
  8
0
 10
211.81796761229629
 20
197.68706234172001
 30
0.0
  0
SEQEND
  5
20F54
  8
0
  0
LINE
  5
2089C
  8
0
 10
211.81796761229629
 20
192.71697187796249
 30
0.0
 11
211.81796761229629
 21
197.68706234172001
 31
0.0
  0
LINE
  5
2089D
  8
0
 10
210.50301464274531
 20
191.40201704576631
 30
0.0
 11
193.5030174441635
 21
191.4020170457662
 31
0.0
  0
ARC
  5
2089E
  8
0
 10
201.7976345149211
 20
233.68347938809981
 30
0.0
 40
10.583455098045439
 50
271.11192610471687
 51
298.88801504981552
  0
POLYLINE
  5
2089F
  8
0
 66
     1
 10
0.0
 20
0.0
 30
0.0
 70
   128
  0
VERTEX
  5
20F55
  8
0
 10
202.00301231816411
 20
223.10201721265929
 30
0.0
  0
VERTEX
  5
20F56
  8
0
 10
198.95765455439681
 20
223.63109411671769
 30
0.0
  0
VERTEX
  5
20F57
  8
0
 10
197.09553839638829
 20
224.41697018221041
 30
0.0
  0
SEQEND
  5
20F58
  8
0
  0
LINE
  5
208A0
  8
0
 10
197.09553839638829
 20
229.38706250861301
 30
0.0
 11
197.09553839638829
 21
224.41697018221041
 31
0.0
  0
ARC
  5
208A1
  8
0
 10
202.20839871237271
 20
220.1205502104464
 30
0.0
 40
10.583458356456241
 50
91.11197228009928
 51
118.88801236788819
  0
POLYLINE
  5
208A2
  8
0
 66
     1
 10
0.0
 20
0.0
 30
0.0
 70
   128
  0
VERTEX
  5
20F59
  8
0
 10
202.00301231816411
 20
230.7020154781641
 30
0.0
  0
VERTEX
  5
20F5A
  8
0
 10
205.04837753251189
 20
230.1729385741057
 30
0.0
  0
VERTEX
  5
20F5B
  8
0
 10
206.9104936905205
 20
229.38706250861301
 30
0.0
  0
SEQEND
  5
20F5C
  8
0
  0
LINE
  5
208A3
  8
0
 10
206.9104936905205
 20
229.38706250861301
 30
0.0
 11
206.9104936905205
 21
224.41697018221041
 31
0.0
  0
POLYLINE
  5
208A4
  8
0
 66
     1
 10
0.0
 20
0.0
 30
0.0
 70
   128
  0
VERTEX
  5
20F5D
  8
0
 10
209.36423065140841
 20
223.10201721265929
 30
0.0
  0
VERTEX
  5
20F5E
  8
0
 10
207.84154804423449
 20
223.63109411671769
 30
0.0
  0
VERTEX
  5
20F5F
  8
0
 10
206.9104936905205
 20
224.41697018221041
 30
0.0
  0
SEQEND
  5
20F60
  8
0
  0
ARC
  5
208A5
  8
0
 10
209.6209630157789
 20
227.27610064432079
 30
0.0
 40
3.435520914746764
 50
94.285640111973365
 51
142.08790518585619
  0
POLYLINE
  5
208A6
  8
0
 66
     1
 10
0.0
 20
0.0
 30
0.0
 70
   128
  0
VERTEX
  5
20F61
  8
0
 10
194.64179398491979
 20
230.7020154781641
 30
0.0
  0
VERTEX
  5
20F62
  8
0
 10
196.1644840426743
 20
230.1729385741057
 30
0.0
  0
VERTEX
  5
20F63
  8
0
 10
197.09553839638829
 20
229.38706250861301
 30
0.0
  0
SEQEND
  5
20F64
  8
0
  0
ARC
  5
208A7
  8
0
 10
194.3850593490553
 20
226.52795164284109
 30
0.0
 40
3.4355406260380268
 50
274.28565346607661
 51
322.08774696979299
  0
ARC
  5
208A8
  8
0
 10
209.107498287038
 20
226.5279320465028
 30
0.0
 40
3.4355209147469998
 50
274.28564011197989
 51
322.0879051858542
  0
POLYLINE
  5
208A9
  8
0
 66
     1
 10
0.0
 20
0.0
 30
0.0
 70
   128
  0
VERTEX
  5
20F65
  8
0
 10
209.36423065140841
 20
230.7020154781641
 30
0.0
  0
VERTEX
  5
20F66
  8
0
 10
210.8869132585823
 20
230.1729385741057
 30
0.0
  0
VERTEX
  5
20F67
  8
0
 10
211.81796761229629
 20
229.38706250861301
 30
0.0
  0
SEQEND
  5
20F68
  8
0
  0
LINE
  5
208AA
  8
0
 10
211.81796761229629
 20
229.38706250861301
 30
0.0
 11
211.81796761229629
 21
224.41697018221041
 31
0.0
  0
POLYLINE
  5
208AB
  8
0
 66
     1
 10
0.0
 20
0.0
 30
0.0
 70
   128
  0
VERTEX
  5
20F69
  8
0
 10
194.64179398491979
 20
223.10201721265929
 30
0.0
  0
VERTEX
  5
20F6A
  8
0
 10
193.11911882832641
 20
223.63109411671769
 30
0.0
  0
VERTEX
  5
20F6B
  8
0
 10
192.18806447461239
 20
224.41697018221041
 30
0.0
  0
SEQEND
  5
20F6C
  8
0
  0
LINE
  5
208AC
  8
0
 10
192.18806447461239
 20
229.38706250861301
 30
0.0
 11
192.18806447461239
 21
224.41697018221041
 31
0.0
  0
ARC
  5
208AD
  8
0
 10
194.8985240780334
 20
227.2761202401488
 30
0.0
 40
3.435501203982644
 50
94.285626761031878
 51
142.0880633994457
  0
LINE
  5
208AE
  8
0
 10
210.50301464274531
 20
230.7020154781641
 30
0.0
 11
193.5030174441635
 21
230.70201547816399
 31
0.0
  0
LINE
  5
208AF
  8
0
 10
207.0030150003731
 20
244.12201615050449
 30
0.0
 11
197.00301708653569
 21
244.12201615050449
 31
0.0
  0
LINE
  5
208B0
  8
0
 10
206.50301398709431
 20
244.6220171637834
 30
0.0
 11
197.503010649234
 21
244.62201716378351
 31
0.0
  0
LINE
  5
208B1
  8
0
 10
209.36638921622901
 20
159.12201711908
 30
0.0
 11
194.63991493252951
 21
159.12201711908
 31
0.0
  0
LINE
  5
208B2
  8
0
 10
208.0781330317009
 20
177.6220170428013
 30
0.0
 11
195.92789493106349
 21
177.6220170428013
 31
0.0
  0
LINE
  5
208B6
  8
0
 10
321.60436253761861
 20
162.00301228091129
 30
0.0
 11
264.40436290577031
 21
162.00301228091141
 31
0.0
  0
LINE
  5
208B7
  8
0
 10
321.60436253761861
 20
158.0030125565828
 30
0.0
 11
264.40436290577031
 21
158.0030125565828
 31
0.0
  0
LINE
  5
208B8
  8
0
 10
264.40436290577048
 20
185.38349205628049
 30
0.0
 11
260.21336289122701
 21
201.02451639249941
 31
0.0
  0
LINE
  5
208B9
  8
0
 10
260.21336289122701
 20
201.02451639249941
 30
0.0
 11
260.21336289122701
 21
216.60451861098429
 31
0.0
  0
ARC
  5
208BA
  8
0
 10
264.21336254906538
 20
216.60451704450381
 30
0.0
 40
4.0
 50
90.0
 51
180.0
  0
LINE
  5
208BB
  8
0
 10
209.6395285720819
 20
220.60451554134491
 30
0.0
 11
285.21716119721532
 21
220.60451554134511
 31
0.0
  0
ARC
  5
208BC
  8
0
 10
285.21716253655592
 20
212.66451704450381
 30
0.0
 40
7.93999999999994
 50
0.0
 51
90.0
  0
LINE
  5
208BD
  8
0
 10
293.15716298297048
 20
212.66451748088019
 30
0.0
 11
293.15716298297048
 21
196.97956638410699
 31
0.0
  0
ARC
  5
208BE
  8
0
 10
305.06341254906528
 20
196.979567044872
 30
0.0
 40
11.906250012509529
 50
180.0
 51
270.0
  0
LINE
  5
208BF
  8
0
 10
305.06341243162751
 20
185.07331693545001
 30
0.0
 11
313.66730192676192
 21
185.07331693545001
 31
0.0
  0
ARC
  5
208C0
  8
0
 10
313.6668625490654
 20
177.13581704450371
 30
0.0
 40
7.937500000000056
 50
0.0
 51
89.99683095881332
  0
LINE
  5
208C1
  8
0
 10
264.40436290577048
 20
158.0030125565828
 30
0.0
 11
264.40436290577048
 21
185.38349205628049
 31
0.0
  0
LINE
  5
208C2
  8
0
 10
321.60436253761873
 20
177.13581668213021
 30
0.0
 11
321.60436253761861
 21
158.00301255658269
 31
0.0
  0
CIRCLE
  5
208C3
  8
0
 10
270.13523754906532
 20
194.55951704450391
 30
0.0
 40
6.0
  0
CIRCLE
  5
208C4
  8
0
 10
285.21966253655592
 20
212.66451704450381
 30
0.0
 40
6.0
  0
CIRCLE
  5
208C5
  8
0
 10
305.65109743144501
 20
198.8877248357922
 30
0.0
 40
6.0000000000000471
  0
CIRCLE
  5
208C6
  8
0
 10
297.26796703636097
 20
229.2475855046855
 30
0.0
 40
6.0
  0
CIRCLE
  5
208C7
  8
0
 10
313.61686254906539
 20
177.6633170445038
 30
0.0
 40
6.000000000000056
  0
ARC
  5
208C8
  8
0
 10
202.00301604345441
 20
187.4597832959376
 30
0.0
 40
14.713845629198079
 50
63.435573653537418
 51
116.5644263464626
  0
ARC
  5
208C9
  8
0
 10
202.00301604345441
 20
188.7098128476473
 30
0.0
 40
14.71381813096157
 50
63.435520115759893
 51
116.5644798842401
  0
ARC
  5
208CA
  8
0
 10
212.32372707261311
 20
203.78208966690929
 30
0.0
 40
4.8978622206758917
 50
220.20625177481949
 51
257.40894009425767
  0
ARC
  5
208CB
  8
0
 10
192.0865852917311
 20
203.11434686880889
 30
0.0
 40
4.1654960923385991
 50
279.16401714958158
 51
323.22064946810559
  0
LINE
  5
208CC
  8
0
 10
209.61643280461431
 20
201.50535451248311
 30
0.0
 11
208.58310433104629
 21
201.8703174777331
 31
0.0
  0
LINE
  5
208CD
  8
0
 10
195.42292775586239
 20
201.8703174777331
 30
0.0
 11
194.37948884442449
 21
201.50535451248311
 31
0.0
  0
LINE
  5
208CE
  8
0
 10
189.00301577523351
 20
199.00201717391619
 30
0.0
 11
215.00301631167531
 21
199.00201717391619
 31
0.0
  0
ARC
  5
208CF
  8
0
 10
202.00301604345441
 20
234.6442222094806
 30
0.0
 40
14.71381813096157
 50
243.43552011575991
 51
296.56447988424009
  0
ARC
  5
208D0
  8
0
 10
202.00301604345441
 20
233.39421157252559
 30
0.0
 40
14.71380755068766
 50
243.43549951640091
 51
296.56450048359909
  0
ARC
  5
208D1
  8
0
 10
191.68231390567169
 20
218.32195085078041
 30
0.0
 40
4.8978526746331488
 50
40.206280783982841
 51
77.409111032410664
  0
ARC
  5
208D2
  8
0
 10
211.91944313835009
 20
218.98969374141109
 30
0.0
 40
4.1654905523301267
 50
99.164082299746539
 51
143.22066739702441
  0
LINE
  5
208D3
  8
0
 10
208.58310433104629
 20
220.23371877148759
 30
0.0
 11
209.6395285720819
 21
220.60451554134491
 31
0.0
  0
LINE
  5
208D4
  8
0
 10
194.3836164660751
 20
220.60201587155481
 30
0.0
 11
195.42292775586239
 21
220.23371877148759
 31
0.0
  0
LINE
  5
208D5
  8
0
 10
215.00301631167531
 20
223.10201721265929
 30
0.0
 11
189.00301577523351
 21
223.10201721265929
 31
0.0
  0
LINE
  5
208D6
  8
0
 10
333.5414146073162
 20
189.3689827062191
 30
0.0
 11
333.54167072102427
 21
189.3689789809288
 31
0.0
  0
LINE
  5
208D7
  8
0
 10
333.5414146073162
 20
189.3689827062191
 30
0.0
 11
333.54167910292739
 21
189.3689789809288
 31
0.0
  0
LINE
  5
208D8
  8
0
 10
213.0848045615933
 20
172.819910477847
 30
0.0
 11
190.92122735455629
 21
172.819910477847
 31
0.0
  0
LINE
  5
208D9
  8
0
 10
213.18783136084679
 20
172.370605543256
 30
0.0
 11
190.818200726062
 21
172.370605543256
 31
0.0
  0
LINE
  5
208DA
  8
0
 10
289.06376557424659
 20
319.62352115660889
 30
0.0
 11
289.06376557424659
 21
315.62352236360289
 31
0.0
  0
LINE
  5
208DB
  8
0
 10
321.73281764844432
 20
319.62352115660889
 30
0.0
 11
321.73281764844421
 21
327.62352246791022
 31
0.0
  0
LINE
  5
208DC
  8
0
 10
305.20546706393361
 20
319.62352115660889
 30
0.0
 11
305.20546706393361
 21
327.62352246791107
 31
0.0
  0
ARC
  5
208F6
  8
0
 10
275.4352375490655
 20
332.92352174949389
 30
0.0
 40
0.7000000000000455
 50
0.0
 51
90.0
  0
ARC
  5
208F7
  8
0
 10
264.8352375490656
 20
332.92352174949411
 30
0.0
 40
0.7000000000000455
 50
90.0
 51
180.0
  0
ARC
  5
208F8
  8
0
 10
275.4352375490655
 20
332.32352174949398
 30
0.0
 40
0.6999999999999887
 50
270.0
 51
0.0
  0
ARC
  5
208F9
  8
0
 10
264.8352375490656
 20
332.32352174949398
 30
0.0
 40
0.7000000000000455
 50
179.99999999999349
 51
270.0
  0
LINE
  5
208FA
  8
0
 10
264.13523675873881
 20
332.92352277785568
 30
0.0
 11
264.13523675873881
 21
332.32352007180481
 31
0.0
  0
LINE
  5
208FB
  8
0
 10
276.13523872569198
 20
332.32352007180458
 30
0.0
 11
276.13523872569198
 21
332.9235227778554
 31
0.0
  0
ARC
  5
208FC
  8
0
 10
290.5196625365561
 20
332.92352174949377
 30
0.0
 40
0.6999999999999887
 50
0.0
 51
90.0
  0
ARC
  5
208FD
  8
0
 10
279.91966253655602
 20
332.92352174949389
 30
0.0
 40
0.6999999999999887
 50
90.0
 51
180.0
  0
ARC
  5
208FE
  8
0
 10
290.5196625365561
 20
332.32352174949369
 30
0.0
 40
0.7000000000000064
 50
285.33645567272129
 51
0.0
  0
ARC
  5
208FF
  8
0
 10
279.91966253655602
 20
332.32352174949392
 30
0.0
 40
0.6999999999999887
 50
179.99999999999349
 51
270.0
  0
LINE
  5
20900
  8
0
 10
279.21966360881919
 20
332.9235227778554
 30
0.0
 11
279.21966360881919
 21
332.32352007180458
 31
0.0
  0
LINE
  5
20901
  8
0
 10
291.21966185048223
 20
332.32352007180452
 30
0.0
 11
291.21966185048223
 21
332.92352277785528
 31
0.0
  0
ARC
  5
20902
  8
0
 10
310.95109743144508
 20
332.94844921967172
 30
0.0
 40
0.6999999999999887
 50
0.0
 51
90.0
  0
ARC
  5
20903
  8
0
 10
310.95109743144508
 20
332.34844921967152
 30
0.0
 40
0.7000000000000455
 50
270.0
 51
0.0
  0
LINE
  5
20904
  8
0
 10
311.65109751746058
 20
332.3484497144816
 30
0.0
 11
311.65109751746058
 21
332.94844869524218
 31
0.0
  0
ARC
  5
20905
  8
0
 10
302.5679670363611
 20
332.9484492196716
 30
0.0
 40
0.7000000000000455
 50
0.0
 51
90.0
  0
ARC
  5
20906
  8
0
 10
291.96796703636119
 20
332.94844921967172
 30
0.0
 40
0.6999999999999887
 50
90.0
 51
180.0
  0
ARC
  5
20907
  8
0
 10
302.5679670363611
 20
332.34844921967152
 30
0.0
 40
0.7000000000000455
 50
270.0
 51
0.0
  0
ARC
  5
20908
  8
0
 10
291.96796703636119
 20
332.34844921967158
 30
0.0
 40
0.6999999999999887
 50
180.0
 51
270.0
  0
LINE
  5
20909
  8
0
 10
291.26796768978238
 20
332.94844869524218
 30
0.0
 11
291.26796768978238
 21
332.3484497144816
 31
0.0
  0
LINE
  5
2090A
  8
0
 10
303.26796779409051
 20
332.3484497144816
 30
0.0
 11
303.26796779409051
 21
332.94844869524218
 31
0.0
  0
ARC
  5
2090B
  8
0
 10
318.91686254906551
 20
332.94845139217091
 30
0.0
 40
0.6999999999999887
 50
0.0
 51
90.0
  0
LINE
  5
2090C
  8
0
 10
319.61686247959727
 20
332.3484497144816
 30
0.0
 11
319.61686247959727
 21
332.94845242053248
 31
0.0
  0
LINE
  5
2090D
  8
0
 10
289.06376557424659
 20
331.64844904094917
 30
0.0
 11
289.06376557424659
 21
327.64844838529808
 31
0.0
  0
LINE
  5
2090E
  8
0
 10
327.60817036032682
 20
315.62352236360272
 30
0.0
 11
260.21336289122701
 21
315.62352236360351
 31
0.0
  0
ARC
  5
2090F
  8
0
 10
327.60809793189787
 20
319.7393261459473
 30
0.0
 40
0.1282698311252733
 50
295.46830763876898
 51
300.33269458672191
  0
ARC
  5
20910
  8
0
 10
327.6800641873665
 20
319.5512698596462
 30
0.0
 40
3.9284054163288991
 50
268.9513702380429
 51
298.43587501070351
  0
POLYLINE
  5
20911
  8
0
 66
     1
 10
0.0
 20
0.0
 30
0.0
 70
   128
  0
VERTEX
  5
20F6D
  8
0
 10
327.6728767901659
 20
319.62861549109221
 30
0.0
  0
VERTEX
  5
20F6E
  8
0
 10
328.47713762894273
 20
320.05884367972618
 30
0.0
  0
VERTEX
  5
20F6F
  8
0
 10
329.28621526807552
 20
320.49158085137611
 30
0.0
  0
VERTEX
  5
20F70
  8
0
 10
330.1000128500163
 20
320.92677671462297
 30
0.0
  0
VERTEX
  5
20F71
  8
0
 10
330.91843212023377
 20
321.3643753901124
 30
0.0
  0
VERTEX
  5
20F72
  8
0
 10
331.74137575551867
 20
321.80432472378021
 30
0.0
  0
VERTEX
  5
20F73
  8
0
 10
332.568743173033
 20
322.24657256156212
 30
0.0
  0
VERTEX
  5
20F74
  8
0
 10
333.40043565258378
 20
322.691066749394
 30
0.0
  0
VERTEX
  5
20F75
  8
0
 10
334.23635261133307
 20
323.13775140792143
 30
0.0
  0
SEQEND
  5
20F76
  8
0
  0
POLYLINE
  5
20912
  8
0
 66
     1
 10
0.0
 20
0.0
 30
0.0
 70
   128
  0
VERTEX
  5
20F77
  8
0
 10
336.11414758488542
 20
319.60596200078731
 30
0.0
  0
VERTEX
  5
20F78
  8
0
 10
335.27823062613612
 20
319.15927734225988
 30
0.0
  0
VERTEX
  5
20F79
  8
0
 10
334.44653814658523
 20
318.71478315442801
 30
0.0
  0
VERTEX
  5
20F7A
  8
0
 10
333.6191707290709
 20
318.27253345400101
 30
0.0
  0
VERTEX
  5
20F7B
  8
0
 10
332.79622802510858
 20
317.83258412033319
 30
0.0
  0
VERTEX
  5
20F7C
  8
0
 10
331.97780782356858
 20
317.39498544484383
 30
0.0
  0
VERTEX
  5
20F7D
  8
0
 10
331.16401070728898
 20
316.959791444242
 30
0.0
  0
VERTEX
  5
20F7E
  8
0
 10
330.3549326024949
 20
316.52705240994698
 30
0.0
  0
VERTEX
  5
20F7F
  8
0
 10
329.55067222937942
 20
316.096824221313
 30
0.0
  0
SEQEND
  5
20F80
  8
0
  0
POLYLINE
  5
20913
  8
0
 66
     1
 10
0.0
 20
0.0
 30
0.0
 70
   128
  0
VERTEX
  5
20F81
  8
0
 10
332.64712886884809
 20
322.40250948816561
 30
0.0
  0
VERTEX
  5
20F82
  8
0
 10
331.99190618470311
 20
322.05408308655041
 30
0.0
  0
VERTEX
  5
20F83
  8
0
 10
331.33661830797791
 20
321.70572001487028
 30
0.0
  0
VERTEX
  5
20F84
  8
0
 10
330.68166291341191
 20
321.35762516409181
 30
0.0
  0
VERTEX
  5
20F85
  8
0
 10
330.02743627876038
 20
321.01001832634228
 30
0.0
  0
VERTEX
  5
20F86
  8
0
 10
329.37433468177909
 20
320.66310066729801
 30
0.0
  0
VERTEX
  5
20F87
  8
0
 10
328.72275346890092
 20
320.31709197908663
 30
0.0
  0
VERTEX
  5
20F88
  8
0
 10
328.07308752089739
 20
319.97219342738413
 30
0.0
  0
VERTEX
  5
20F89
  8
0
 10
327.41613128705012
 20
319.62352115661042
 30
0.0
  0
SEQEND
  5
20F8A
  8
0
  0
LINE
  5
20914
  8
0
 10
332.64712886884809
 20
322.40250948816561
 30
0.0
 11
333.07418869808322
 21
322.62958828359859
 31
0.0
  0
LINE
  5
20915
  8
0
 10
333.07418869808322
 20
322.62958828359859
 30
0.0
 11
333.54167910292739
 21
322.87822160869848
 31
0.0
  0
LINE
  5
20916
  8
0
 10
333.54167910292739
 20
322.87822160869848
 30
0.0
 11
334.02977036312222
 21
323.13775140792148
 31
0.0
  0
ARC
  5
20917
  8
0
 10
336.1802147383637
 20
319.49045135166472
 30
0.0
 40
0.1330698268934087
 50
90.032908329537278
 51
119.7677109861057
  0
ARC
  5
20918
  8
0
 10
336.18020486802419
 20
319.49139021131572
 30
0.0
 40
4.1321316014805642
 50
90.000922907842224
 51
118.0617973584516
  0
POLYLINE
  5
20919
  8
0
 66
     1
 10
0.0
 20
0.0
 30
0.0
 70
   128
  0
VERTEX
  5
20F8B
  8
0
 10
334.02977036312222
 20
323.13775140792148
 30
0.0
  0
VERTEX
  5
20F8C
  8
0
 10
334.9740588106215
 20
323.50024823099392
 30
0.0
  0
VERTEX
  5
20F8D
  8
0
 10
335.45352135777148
 20
323.5591220913542
 30
0.0
  0
SEQEND
  5
20F8E
  8
0
  0
LINE
  5
2091A
  8
0
 10
351.48136215286598
 20
319.62352115660912
 30
0.0
 11
336.18013830855489
 21
319.62352115660912
 31
0.0
  0
LINE
  5
2091B
  8
0
 10
336.18013830855529
 20
323.62352181226021
 30
0.0
 11
351.48136215286581
 21
323.62352181226032
 31
0.0
  0
LINE
  5
2091C
  8
0
 10
321.73281764844432
 20
323.62352181225998
 30
0.0
 11
305.20546706393361
 21
323.62352181226021
 31
0.0
  0
LINE
  5
2091D
  8
0
 10
321.73281764844432
 20
323.62352181225998
 30
0.0
 11
305.20546706393361
 21
323.62352181226021
 31
0.0
  0
LINE
  5
2091E
  8
0
 10
158.00301255658269
 20
323.49844891578061
 30
0.0
 11
162.00302066281429
 21
323.49844891578061
 31
0.0
  0
ARC
  5
2091F
  8
0
 10
166.00301398138231
 20
322.01083961451201
 30
0.0
 40
8.0000000000001137
 50
180.0
 51
270.0
  0
LINE
  5
20920
  8
0
 10
158.00301255658269
 20
323.49844891578061
 30
0.0
 11
158.00301255658269
 21
322.01083991676671
 31
0.0
  0
LINE
  5
20921
  8
0
 10
162.00302066281429
 20
323.49844891578061
 30
0.0
 11
162.00302066281429
 21
322.01083991676649
 31
0.0
  0
ARC
  5
20922
  8
0
 10
166.00301398138231
 20
322.01083961451201
 30
0.0
 40
4.0000000000001128
 50
180.0
 51
270.0
  0
LINE
  5
20923
  8
0
 10
166.00301386788479
 20
318.01083926111539
 30
0.0
 11
190.2770669584045
 21
318.01083926111528
 31
0.0
  0
LINE
  5
20924
  8
0
 10
213.728957677924
 20
318.01083926111511
 30
0.0
 11
246.16527827456591
 21
318.01083926111488
 31
0.0
  0
ARC
  5
20925
  8
0
 10
246.16528089614741
 20
318.16083961451142
 30
0.0
 40
0.1499999999999773
 50
270.0
 51
297.99999999997738
  0
LINE
  5
20926
  8
0
 10
246.23570116236809
 20
318.02839655429159
 30
0.0
 11
255.845005530864
 21
323.13775513321178
 31
0.0
  0
ARC
  5
20927
  8
0
 10
257.79331114121169
 20
319.47352174949413
 30
0.0
 40
0.1499999999999784
 50
90.000000000045588
 51
118.00000000000691
  0
LINE
  5
20928
  8
0
 10
248.11359019950029
 20
314.49660714715748
 30
0.0
 11
257.72288711741572
 21
319.60596386343258
 31
0.0
  0
ARC
  5
20929
  8
0
 10
246.16528089614741
 20
318.16083961451142
 30
0.0
 40
4.1500000000000394
 50
270.0
 51
297.9999999999996
  0
LINE
  5
2092A
  8
0
 10
166.00301386788479
 20
314.01084046810951
 30
0.0
 11
193.0472939168753
 21
314.01084046810922
 31
0.0
  0
LINE
  5
2092B
  8
0
 10
210.93898817252489
 20
314.01084046810922
 30
0.0
 11
246.16527827456591
 21
314.010840468109
 31
0.0
  0
ARC
  5
2092C
  8
0
 10
257.79331114121169
 20
319.47352174949413
 30
0.0
 40
4.1500000000000394
 50
90.0
 51
117.9999999999996
  0
LINE
  5
2092D
  8
0
 10
257.79331000521779
 20
323.62352181226032
 30
0.0
 11
305.2054670639335
 21
323.6235218122597
 31
0.0
  0
ARC
  5
2092E
  8
0
 10
166.00301530222109
 20
325.2362038844775
 30
0.0
 40
4.0
 50
90.0
 51
180.0
  0
LINE
  5
2092F
  8
0
 10
162.00302066281429
 20
323.73859230429031
 30
0.0
 11
162.00302066281429
 21
325.23620370775552
 31
0.0
  0
LINE
  5
20930
  8
0
 10
158.00301255658269
 20
325.23620370775558
 30
0.0
 11
158.00301255658269
 21
323.73859230429031
 31
0.0
  0
ARC
  5
20931
  8
0
 10
166.00301530222109
 20
325.2362038844775
 30
0.0
 40
8.0
 50
90.0
 51
180.0
  0
LINE
  5
20932
  8
0
 10
246.16527827456591
 20
333.23620501905708
 30
0.0
 11
210.95872729544061
 21
333.23620501905731
 31
0.0
  0
LINE
  5
20933
  8
0
 10
193.06703815548121
 20
333.23620501905748
 30
0.0
 11
166.00301530222109
 21
333.23620388447739
 31
0.0
  0
ARC
  5
20934
  8
0
 10
246.1652808961471
 20
329.0862038844769
 30
0.0
 40
4.1499999999999773
 50
62.000000000000433
 51
90.0
  0
LINE
  5
20935
  8
0
 10
257.72288711741572
 20
327.64107976108812
 30
0.0
 11
248.11359019950029
 21
332.7504346147183
 31
0.0
  0
ARC
  5
20936
  8
0
 10
257.7933111412114
 20
327.77352174949391
 30
0.0
 40
0.1499999999999784
 50
241.99999999999301
 51
270.0
  0
ARC
  5
20937
  8
0
 10
257.7933111412114
 20
327.77352174949391
 30
0.0
 40
4.1500000000000163
 50
242.0000000000004
 51
270.0
  0
LINE
  5
20938
  8
0
 10
246.23570116236809
 20
329.21864707022939
 30
0.0
 11
255.845005530864
 21
324.10928849130892
 31
0.0
  0
ARC
  5
20939
  8
0
 10
246.1652808961471
 20
329.0862038844769
 30
0.0
 40
0.1499999999999773
 50
62.000000000037332
 51
90.0
  0
LINE
  5
2093A
  8
0
 10
166.00301530222109
 20
329.2362038844775
 30
0.0
 11
190.2770669584049
 21
329.2362043634065
 31
0.0
  0
LINE
  5
2093B
  8
0
 10
213.72895767792349
 20
329.23620436340627
 30
0.0
 11
246.16527827456591
 21
329.23620436340599
 31
0.0
  0
LINE
  5
2093C
  8
0
 10
327.66099909552167
 20
327.62352246790999
 30
0.0
 11
257.79331000521779
 21
327.62352246791141
 31
0.0
  0
LINE
  5
2093D
  8
0
 10
162.00302066281429
 20
323.73859230429031
 30
0.0
 11
158.00301255658269
 21
323.73859230429031
 31
0.0
  0
LINE
  5
2093E
  8
0
 10
197.09553673317021
 20
315.1235218590557
 30
0.0
 11
206.91049202730241
 21
315.1235218590557
 31
0.0
  0
CIRCLE
  5
2093F
  8
3
 10
202.0030123181642
 20
323.62352181226032
 30
0.0
 40
4.1880016632181301
  0
CIRCLE
  5
20940
  8
0
 10
202.0030123181642
 20
323.62352181226032
 30
0.0
 40
4.999999999999976
  0
LINE
  5
20941
  8
0
 10
260.21336289122701
 20
331.62352312356251
 30
0.0
 11
260.21336289122701
 21
327.62352246791141
 31
0.0
  0
LINE
  5
20942
  8
0
 10
260.21336289122701
 20
331.62352312356251
 30
0.0
 11
327.92626706555762
 21
331.62352312356057
 31
0.0
  0
LINE
  5
20943
  8
0
 10
264.40436290577048
 20
331.62352312356262
 30
0.0
 11
264.40436290577048
 21
331.77184555679588
 31
0.0
  0
CIRCLE
  5
20944
  8
0
 10
293.00436254906572
 20
345.12502634100031
 30
0.0
 40
2.8500000000000218
  0
ARC
  5
20945
  8
0
 10
313.70436254906582
 20
343.12502634100031
 30
0.0
 40
4.25
 50
180.0
 51
0.0
  0
LINE
  5
20946
  8
0
 10
317.954362742603
 20
345.12502569705231
 30
0.0
 11
317.954362742603
 21
343.12502536922671
 31
0.0
  0
ARC
  5
20947
  8
0
 10
313.70436254906582
 20
345.12502634100031
 30
0.0
 40
4.25
 50
0.0
 51
180.0
  0
LINE
  5
20948
  8
0
 10
309.45436274632829
 20
343.12502536922688
 30
0.0
 11
309.45436274632829
 21
345.12502569705242
 31
0.0
  0
ARC
  5
20949
  8
0
 10
272.30436254906567
 20
343.12502634100048
 30
0.0
 40
4.25
 50
180.0
 51
0.0
  0
LINE
  5
2094A
  8
0
 10
276.55436368659161
 20
345.12502569705282
 30
0.0
 11
276.55436368659161
 21
343.12502536922722
 31
0.0
  0
ARC
  5
2094B
  8
0
 10
272.30436254906567
 20
345.12502634100048
 30
0.0
 40
4.25
 50
0.0
 51
180.0
  0
LINE
  5
2094C
  8
0
 10
268.05436136201052
 20
343.12502536922722
 30
0.0
 11
268.05436136201052
 21
345.12502569705282
 31
0.0
  0
LINE
  5
2094D
  8
0
 10
316.60436270758532
 20
352.625029720366
 30
0.0
 11
269.40436186268948
 21
352.62502972036629
 31
0.0
  0
ARC
  5
2094E
  8
0
 10
269.40436254906552
 20
347.62502634100059
 30
0.0
 40
5.0
 50
90.0
 51
180.0
  0
ARC
  5
2094F
  8
0
 10
316.6043625490658
 20
347.62502634100019
 30
0.0
 40
5.0
 50
0.0
 51
90.0
  0
LINE
  5
20950
  8
0
 10
321.60436253761861
 20
331.62352312356069
 30
0.0
 11
321.6043625376189
 21
347.62502703815682
 31
0.0
  0
LINE
  5
20951
  8
0
 10
264.40436290577082
 20
347.62502703815733
 30
0.0
 11
264.40436290577048
 21
333.47519729286461
 31
0.0
  0
LINE
  5
20961
  8
0
 10
260.21336289122701
 20
319.62352115660917
 30
0.0
 11
260.21336289122701
 21
315.62352236360329
 31
0.0
  0
ARC
  5
20962
  8
0
 10
316.6043625490654
 20
299.62201715798739
 30
0.0
 40
5.000000000000056
 50
270.0
 51
0.0
  0
LINE
  5
20963
  8
0
 10
316.60436270758493
 20
294.62201716378331
 30
0.0
 11
269.40436186268897
 21
294.6220171637836
 31
0.0
  0
ARC
  5
20964
  8
0
 10
269.40436254906513
 20
299.62201715798761
 30
0.0
 40
5.0
 50
180.0
 51
270.0
  0
CIRCLE
  5
20965
  8
0
 10
293.00436254906521
 20
302.12201715798761
 30
0.0
 40
2.8500000000000218
  0
ARC
  5
20966
  8
0
 10
313.70436254906531
 20
304.12201715798739
 30
0.0
 40
4.25
 50
0.0
 51
180.0
  0
LINE
  5
20967
  8
0
 10
309.45436274632789
 20
302.12201699614531
 30
0.0
 11
309.45436274632789
 21
304.12201639264828
 31
0.0
  0
ARC
  5
20968
  8
0
 10
313.70436254906531
 20
302.12201715798739
 30
0.0
 40
4.25
 50
180.0
 51
0.0
  0
LINE
  5
20969
  8
0
 10
317.9543627426026
 20
304.12201639264822
 30
0.0
 11
317.9543627426026
 21
302.12201699614519
 31
0.0
  0
ARC
  5
2096A
  8
0
 10
272.30436254906527
 20
304.12201715798761
 30
0.0
 40
4.25
 50
0.0
 51
180.0
  0
LINE
  5
2096B
  8
0
 10
268.05436136201001
 20
302.12201699614559
 30
0.0
 11
268.05436136201013
 21
304.1220163926485
 31
0.0
  0
ARC
  5
2096C
  8
0
 10
272.30436254906522
 20
302.12201715798761
 30
0.0
 40
4.25
 50
180.0
 51
0.0
  0
LINE
  5
2096D
  8
0
 10
276.55436368659122
 20
304.1220163926485
 30
0.0
 11
276.55436368659122
 21
302.12201699614559
 31
0.0
  0
LINE
  5
2096E
  8
0
 10
321.6043625376189
 20
315.62352236360277
 30
0.0
 11
321.6043625376185
 21
299.62201751768572
 31
0.0
  0
LINE
  5
2096F
  8
0
 10
264.40436290577031
 20
299.62201751768617
 30
0.0
 11
264.40436290577048
 21
313.77184633165632
 31
0.0
  0
LINE
  5
20970
  8
0
 10
275.43523805215949
 20
333.62352345138788
 30
0.0
 11
264.83523743227119
 21
333.62352345138811
 31
0.0
  0
LINE
  5
20971
  8
0
 10
290.51966117694968
 20
333.62352345138783
 30
0.0
 11
279.91966428235168
 21
333.62352345138788
 31
0.0
  0
LINE
  5
20972
  8
0
 10
310.95109743144508
 20
333.6484492196717
 30
0.0
 11
302.56796712055802
 21
333.64844936877472
 31
0.0
  0
LINE
  5
20973
  8
0
 10
302.56796712055802
 20
333.64844936877472
 30
0.0
 11
291.96796650066972
 21
333.64844936877472
 31
0.0
  0
LINE
  5
20974
  8
0
 10
318.91686250455678
 20
333.64845309406502
 30
0.0
 11
310.95109743144508
 21
333.6484492196717
 31
0.0
  0
ARC
  5
20975
  8
0
 10
204.28003498811401
 20
328.77847370916447
 30
0.0
 40
8.0297135295813895
 50
29.683599524638161
 51
57.595503798571897
  0
ARC
  5
20976
  8
0
 10
200.65350523843929
 20
327.89397377088682
 30
0.0
 40
9.2786808065445943
 50
124.3134619428787
 51
148.40727520691911
  0
ARC
  5
20977
  8
0
 10
203.3526352063177
 20
319.3529414975535
 30
0.0
 40
9.2785125282379433
 50
304.31333617486001
 51
328.40756050193329
  0
ARC
  5
20978
  8
0
 10
199.726022894349
 20
318.46861538397832
 30
0.0
 40
8.0297682379443351
 50
209.68375739650099
 51
237.59550545370661
  0
ARC
  5
20979
  8
0
 10
202.00301231816411
 20
323.62352181226032
 30
0.0
 40
13.000000000000041
 50
315.3792079457678
 51
44.620792054232233
  0
ARC
  5
2097A
  8
0
 10
202.00301231816411
 20
323.62352181226032
 30
0.0
 40
12.999999999999959
 50
135.3792079457678
 51
224.6207920542322
  0
ARC
  5
2097B
  8
0
 10
202.00301438023621
 20
312.02069287880659
 30
0.0
 40
24.43962368302207
 50
74.381040178349167
 51
105.6189598216508
  0
ARC
  5
2097C
  8
0
 10
202.00301438023649
 20
335.22634990053319
 30
0.0
 40
24.439623683023392
 50
254.3810401783492
 51
285.61895982165078
  0
ARC
  5
2097D
  8
0
 10
327.60585741640222
 20
327.50774925498752
 30
0.0
 40
0.1282343230439503
 50
59.66465861835497
 51
64.531984449272102
  0
ARC
  5
2097E
  8
0
 10
327.60579064848872
 20
327.50872300968427
 30
0.0
 40
4.1272612118757133
 50
61.921420821666111
 51
85.546575052506569
  0
POLYLINE
  5
2097F
  8
0
 66
     1
 10
0.0
 20
0.0
 30
0.0
 70
   128
  0
VERTEX
  5
20F8F
  8
0
 10
329.54841842874879
 20
331.15021754056221
 30
0.0
  0
VERTEX
  5
20F90
  8
0
 10
330.35267787054181
 20
330.71998748928308
 30
0.0
  0
VERTEX
  5
20F91
  8
0
 10
331.16175411269069
 20
330.28725031763321
 30
0.0
  0
VERTEX
  5
20F92
  8
0
 10
331.97555122897029
 20
329.85205817967659
 30
0.0
  0
VERTEX
  5
20F93
  8
0
 10
332.79397049918771
 20
329.41445950418711
 30
0.0
  0
VERTEX
  5
20F94
  8
0
 10
333.61691320314998
 20
328.97451017051941
 30
0.0
  0
VERTEX
  5
20F95
  8
0
 10
334.44428062066441
 20
328.5322586074472
 30
0.0
  0
VERTEX
  5
20F96
  8
0
 10
335.27597403153783
 20
328.08776441961533
 30
0.0
  0
VERTEX
  5
20F97
  8
0
 10
336.11189192160958
 20
327.64107976108789
 30
0.0
  0
SEQEND
  5
20F98
  8
0
  0
POLYLINE
  5
20980
  8
0
 66
     1
 10
0.0
 20
0.0
 30
0.0
 70
   128
  0
VERTEX
  5
20F99
  8
0
 10
334.23409694805741
 20
324.10928849130869
 30
0.0
  0
VERTEX
  5
20F9A
  8
0
 10
333.39817905798549
 20
324.55597687512642
 30
0.0
  0
VERTEX
  5
20F9B
  8
0
 10
332.56648564711207
 20
325.0004710629583
 30
0.0
  0
VERTEX
  5
20F9C
  8
0
 10
331.73911822959781
 20
325.4427189007402
 30
0.0
  0
VERTEX
  5
20F9D
  8
0
 10
330.91617459431291
 20
325.8826682344079
 30
0.0
  0
VERTEX
  5
20F9E
  8
0
 10
330.09775578975677
 20
326.32026690989738
 30
0.0
  0
VERTEX
  5
20F9F
  8
0
 10
329.28395913913852
 20
326.7554627731443
 30
0.0
  0
VERTEX
  5
20FA0
  8
0
 10
328.4748824313283
 20
327.18819994479418
 30
0.0
  0
VERTEX
  5
20FA1
  8
0
 10
327.67062345519662
 20
327.618426270783
 30
0.0
  0
SEQEND
  5
20FA2
  8
0
  0
LINE
  5
20981
  8
0
 10
333.5414146073162
 20
324.36775658279669
 30
0.0
 11
334.02750445529819
 21
324.10928849130892
 31
0.0
  0
LINE
  5
20982
  8
0
 10
333.5414146073162
 20
324.36775658279669
 30
0.0
 11
333.0739232711494
 21
324.61638618260639
 31
0.0
  0
LINE
  5
20983
  8
0
 10
333.0739232711494
 20
324.61638618260639
 30
0.0
 11
332.64686437323689
 21
324.84346870332968
 31
0.0
  0
POLYLINE
  5
20984
  8
0
 66
     1
 10
0.0
 20
0.0
 30
0.0
 70
   128
  0
VERTEX
  5
20FA3
  8
0
 10
327.4138581238962
 20
327.62352246790999
 30
0.0
  0
VERTEX
  5
20FA4
  8
0
 10
328.07106142863631
 20
327.27471981197613
 30
0.0
  0
VERTEX
  5
20FA5
  8
0
 10
328.72097417712212
 20
326.92969087511318
 30
0.0
  0
VERTEX
  5
20FA6
  8
0
 10
329.372804518789
 20
326.583548076451
 30
0.0
  0
VERTEX
  5
20FA7
  8
0
 10
330.02615664154291
 20
326.23650003224628
 30
0.0
  0
VERTEX
  5
20FA8
  8
0
 10
330.680635664612
 20
325.88875535875582
 30
0.0
  0
VERTEX
  5
20FA9
  8
0
 10
331.33584437891841
 20
325.54053012281668
 30
0.0
  0
VERTEX
  5
20FAA
  8
0
 10
331.99138650670648
 20
325.19202921539562
 30
0.0
  0
VERTEX
  5
20FAB
  8
0
 10
332.64686437323689
 20
324.84346870332968
 30
0.0
  0
SEQEND
  5
20FAC
  8
0
  0
ARC
  5
20985
  8
0
 10
336.1779443803639
 20
327.75654929593458
 30
0.0
 40
0.1330268423482665
 50
240.22899111072991
 51
269.97341017902232
  0
ARC
  5
20986
  8
0
 10
336.17791805272009
 20
327.75555672253307
 30
0.0
 40
4.1320349104245659
 50
241.93797740819741
 51
269.99950903199698
  0
POLYLINE
  5
20987
  8
0
 66
     1
 10
0.0
 20
0.0
 30
0.0
 70
   128
  0
VERTEX
  5
20FAD
  8
0
 10
334.02750445529819
 20
324.10928849130892
 30
0.0
  0
VERTEX
  5
20FAE
  8
0
 10
334.97179290279752
 20
323.74679166823643
 30
0.0
  0
VERTEX
  5
20FAF
  8
0
 10
335.45124745395327
 20
323.68792075776742
 30
0.0
  0
SEQEND
  5
20FB0
  8
0
  0
LINE
  5
20988
  8
0
 10
336.17788264527923
 20
327.6235224679113
 30
0.0
 11
351.48136215286581
 21
327.6235224679113
 31
0.0
  0
CIRCLE
  5
20989
  8
0
 10
202.00301398138211
 20
79.001505687229212
 30
0.0
 40
11.20082075156007
  0
ARC
  5
209A3
  8
0
 10
264.8352375490656
 20
69.701505875396549
 30
0.0
 40
0.7000000000000455
 50
180.0
 51
232.00914343825309
  0
ARC
  5
209A4
  8
0
 10
264.83523754906543
 20
88.301505875396515
 30
0.0
 40
0.6999999999999984
 50
127.9908565617469
 51
180.0
  0
ARC
  5
209A5
  8
0
 10
264.8352375490656
 20
70.301505875396572
 30
0.0
 40
0.7000000000000455
 50
127.9908565617469
 51
180.00000000000321
  0
ARC
  5
209A6
  8
0
 10
264.83523754906543
 20
87.701505875396549
 30
0.0
 40
0.7000000000000207
 50
180.0
 51
232.0091434382532
  0
LINE
  5
209A7
  8
0
 10
264.13523675873881
 20
70.301507553085855
 30
0.0
 11
264.13523675873881
 21
69.701504847034983
 31
0.0
  0
LINE
  5
209A8
  8
0
 10
264.13523675873881
 20
88.301506778225473
 30
0.0
 11
264.13523675873881
 21
87.70150593481975
 31
0.0
  0
LINE
  5
209A9
  8
0
 10
267.13523911312222
 20
83.001506933942565
 30
0.0
 11
267.13523911312222
 21
75.001505622640366
 31
0.0
  0
LINE
  5
209AA
  8
0
 10
273.13523637130862
 20
75.001505622640423
 30
0.0
 11
273.13523637130862
 21
83.001506933942608
 31
0.0
  0
LINE
  5
209AB
  8
0
 10
321.60436253761861
 20
87.013970548286977
 30
0.0
 11
327.35324734821921
 21
87.013970548287034
 31
0.0
  0
LINE
  5
209AC
  8
0
 10
327.35324734821921
 20
83.013971755281091
 30
0.0
 11
321.60436253761873
 21
83.013971755281091
 31
0.0
  0
ARC
  5
209AD
  8
0
 10
327.35327449722172
 20
82.855703833036728
 30
0.0
 40
0.1582679245729092
 50
62.75464031315731
 51
90.009828417766542
  0
ARC
  5
209AE
  8
0
 10
327.35326743990441
 20
82.856135993055773
 30
0.0
 40
4.1578345552798623
 50
62.026953594892589
 51
90.000276867383974
  0
ARC
  5
209AF
  8
0
 10
327.60805238747889
 20
82.886741082326239
 30
0.0
 40
4.1272294676467789
 50
61.921310633348249
 51
89.998362255763794
  0
LINE
  5
209B0
  8
0
 10
327.60817036032682
 20
87.013970548286977
 30
0.0
 11
327.35324734821921
 21
87.013970548287034
 31
0.0
  0
LINE
  5
209B1
  8
0
 10
335.41947500780219
 20
83.278597751632446
 30
0.0
 11
334.95198367163539
 21
83.527229214087257
 31
0.0
  0
LINE
  5
209B2
  8
0
 10
334.95198367163539
 20
83.527229214087257
 30
0.0
 11
334.52492477372289
 21
83.754309872165436
 31
0.0
  0
POLYLINE
  5
209B3
  8
0
 66
     1
 10
0.0
 20
0.0
 30
0.0
 70
   128
  0
VERTEX
  5
20FB1
  8
0
 10
329.30352529510861
 20
86.528203869238496
 30
0.0
  0
VERTEX
  5
20FB2
  8
0
 10
329.9508829601109
 20
86.184625932946844
 30
0.0
  0
VERTEX
  5
20FB3
  8
0
 10
330.60054937377572
 20
85.839727381244344
 30
0.0
  0
VERTEX
  5
20FB4
  8
0
 10
331.25212965533137
 20
85.493716830387754
 30
0.0
  0
VERTEX
  5
20FB5
  8
0
 10
331.90523171797389
 20
85.146801033988638
 30
0.0
  0
VERTEX
  5
20FB6
  8
0
 10
332.55945788696408
 20
84.799192333594007
 30
0.0
  0
VERTEX
  5
20FB7
  8
0
 10
333.21441328153008
 20
84.451099345460648
 30
0.0
  0
VERTEX
  5
20FB8
  8
0
 10
333.86970115825528
 20
84.102736273780579
 30
0.0
  0
VERTEX
  5
20FB9
  8
0
 10
334.52492477372289
 20
83.754309872165436
 30
0.0
  0
SEQEND
  5
20FBA
  8
0
  0
POLYLINE
  5
209B4
  8
0
 66
     1
 10
0.0
 20
0.0
 30
0.0
 70
   128
  0
VERTEX
  5
20FBB
  8
0
 10
336.11414758488542
 20
83.019066089764223
 30
0.0
  0
VERTEX
  5
20FBC
  8
0
 10
335.27823062613612
 20
83.465750748291612
 30
0.0
  0
VERTEX
  5
20FBD
  8
0
 10
334.44653814658523
 20
83.91024493612349
 30
0.0
  0
VERTEX
  5
20FBE
  8
0
 10
333.6191707290709
 20
84.352494636550546
 30
0.0
  0
VERTEX
  5
20FBF
  8
0
 10
332.79622802510858
 20
84.792443970218301
 30
0.0
  0
VERTEX
  5
20FC0
  8
0
 10
331.97780782356858
 20
85.230042645707726
 30
0.0
  0
VERTEX
  5
20FC1
  8
0
 10
331.16401070728898
 20
85.665236646309495
 30
0.0
  0
VERTEX
  5
20FC2
  8
0
 10
330.3549326024949
 20
86.097975680604577
 30
0.0
  0
VERTEX
  5
20FC3
  8
0
 10
329.55067222937942
 20
86.528203869238439
 30
0.0
  0
SEQEND
  5
20FC4
  8
0
  0
LINE
  5
209B5
  8
0
 10
335.41947500780219
 20
83.278597751632446
 30
0.0
 11
335.90756533667439
 21
83.019066089764365
 31
0.0
  0
POLYLINE
  5
209B6
  8
0
 66
     1
 10
0.0
 20
0.0
 30
0.0
 70
   128
  0
VERTEX
  5
20FC5
  8
0
 10
332.64712886884809
 20
80.222518602386174
 30
0.0
  0
VERTEX
  5
20FC6
  8
0
 10
331.99190618470311
 20
80.570945004001317
 30
0.0
  0
VERTEX
  5
20FC7
  8
0
 10
331.33661830797791
 20
80.919308075681386
 30
0.0
  0
VERTEX
  5
20FC8
  8
0
 10
330.68166291341191
 20
81.267402926459965
 30
0.0
  0
VERTEX
  5
20FC9
  8
0
 10
330.02743627876038
 20
81.615009764209447
 30
0.0
  0
VERTEX
  5
20FCA
  8
0
 10
329.37433468177909
 20
81.961927423253655
 30
0.0
  0
VERTEX
  5
20FCB
  8
0
 10
328.72275346890092
 20
82.307936111465096
 30
0.0
  0
VERTEX
  5
20FCC
  8
0
 10
328.07308752089739
 20
82.652834663167596
 30
0.0
  0
VERTEX
  5
20FCD
  8
0
 10
327.42572985589499
 20
82.996412599459291
 30
0.0
  0
SEQEND
  5
20FCE
  8
0
  0
LINE
  5
209B7
  8
0
 10
335.97798915579909
 20
83.001506933942565
 30
0.0
 11
351.29918614406603
 21
83.001506933942636
 31
0.0
  0
LINE
  5
209B8
  8
0
 10
335.97798915579909
 20
79.001506278291458
 30
0.0
 11
351.29918614406603
 21
79.001506278291529
 31
0.0
  0
POLYLINE
  5
209B9
  8
0
 66
     1
 10
0.0
 20
0.0
 30
0.0
 70
   128
  0
VERTEX
  5
20FCF
  8
0
 10
335.97798915579909
 20
83.001506933942565
 30
0.0
  0
VERTEX
  5
20FD0
  8
0
 10
335.94169924035668
 20
83.005962381139526
 30
0.0
  0
VERTEX
  5
20FD1
  8
0
 10
335.90756533667439
 20
83.019066089764365
 30
0.0
  0
SEQEND
  5
20FD2
  8
0
  0
POLYLINE
  5
209BA
  8
0
 66
     1
 10
0.0
 20
0.0
 30
0.0
 70
   128
  0
VERTEX
  5
20FD3
  8
0
 10
334.02977036312222
 20
79.487276682630295
 30
0.0
  0
VERTEX
  5
20FD4
  8
0
 10
334.9740588106215
 20
79.124779859557862
 30
0.0
  0
VERTEX
  5
20FD5
  8
0
 10
335.97798915579909
 20
79.001506278291458
 30
0.0
  0
SEQEND
  5
20FD6
  8
0
  0
ARC
  5
209BB
  8
0
 10
336.1802147383637
 20
83.134576738886764
 30
0.0
 40
0.133069826893384
 50
240.2322890138868
 51
269.96709167046271
  0
LINE
  5
209BC
  8
0
 10
333.54167910292739
 20
79.746806481853241
 30
0.0
 11
334.02977036312222
 21
79.487276682630295
 31
0.0
  0
LINE
  5
209BD
  8
0
 10
333.07418869808322
 20
79.995439806953186
 30
0.0
 11
333.54167910292739
 21
79.746806481853241
 31
0.0
  0
LINE
  5
209BE
  8
0
 10
332.64712886884809
 20
80.222518602386174
 30
0.0
 11
333.07418869808322
 21
79.995439806953186
 31
0.0
  0
ARC
  5
209BF
  8
0
 10
257.79330785183379
 20
83.15150619053486
 30
0.0
 40
0.1499999999999784
 50
241.99999999999301
 51
269.99999999995441
  0
ARC
  5
209C0
  8
0
 10
257.79330785183362
 20
74.851506190535019
 30
0.0
 40
0.1500000000000057
 50
90.0
 51
118.00000000000691
  0
LINE
  5
209C1
  8
0
 10
321.60436253761873
 20
75.001505622640593
 30
0.0
 11
321.6043625376189
 21
55.000002682209363
 31
0.0
  0
ARC
  5
209C2
  8
0
 10
316.6043625490658
 20
55.000003379366042
 30
0.0
 40
4.9999999999999707
 50
270.0
 51
0.0
  0
LINE
  5
209C3
  8
0
 10
316.60436270758532
 20
50.000000000000277
 30
0.0
 11
269.40436186268948
 21
49.999999999999893
 31
0.0
  0
ARC
  5
209C4
  8
0
 10
269.40436254906552
 20
55.00000337936558
 30
0.0
 40
5.0000000000000284
 50
180.0
 51
270.0
  0
LINE
  5
209C5
  8
0
 10
264.40436290577082
 20
55.000002682208901
 30
0.0
 11
264.40436290577048
 21
75.001505622640195
 31
0.0
  0
CIRCLE
  5
209C6
  8
0
 10
293.00436254906572
 20
57.500003379365801
 30
0.0
 40
2.8499999999999939
  0
ARC
  5
209C7
  8
0
 10
313.70436254906582
 20
59.500003379365921
 30
0.0
 40
4.25
 50
0.0
 51
180.0
  0
LINE
  5
209C8
  8
0
 10
309.45436274632829
 20
57.50000402331375
 30
0.0
 11
309.45436274632829
 21
59.500004351139289
 31
0.0
  0
ARC
  5
209C9
  8
0
 10
313.70436254906582
 20
57.500003379365921
 30
0.0
 40
4.25
 50
180.0
 51
0.0
  0
LINE
  5
209CA
  8
0
 10
317.954362742603
 20
59.50000435113941
 30
0.0
 11
317.954362742603
 21
57.500004023313863
 31
0.0
  0
ARC
  5
209CB
  8
0
 10
272.30436254906567
 20
59.500003379365687
 30
0.0
 40
4.25
 50
0.0
 51
180.0
  0
LINE
  5
209CC
  8
0
 10
268.05436136201052
 20
57.500004023313409
 30
0.0
 11
268.05436136201052
 21
59.500004351138962
 31
0.0
  0
ARC
  5
209CD
  8
0
 10
272.30436254906567
 20
57.500003379365637
 30
0.0
 40
4.25
 50
180.0
 51
0.0
  0
LINE
  5
209CE
  8
0
 10
276.55436368659161
 20
59.500004351139061
 30
0.0
 11
276.55436368659161
 21
57.500004023313522
 31
0.0
  0
LINE
  5
209CF
  8
0
 10
321.60436253761873
 20
75.001505622640593
 30
0.0
 11
257.7928950950735
 21
75.001505622640138
 31
0.0
  0
LINE
  5
209D0
  8
0
 10
260.21336289122701
 20
71.001505898311791
 30
0.0
 11
260.21336289122701
 21
75.001506553962884
 31
0.0
  0
LINE
  5
209D1
  8
0
 10
264.40436290577048
 20
71.001505898311905
 30
0.0
 11
260.21336289122701
 21
71.001505898311791
 31
0.0
  0
CIRCLE
  5
209D2
  8
0
 10
202.00301398138211
 20
79.001505687229326
 30
0.0
 40
7.8470974979354171
  0
LINE
  5
209DE
  8
0
 10
321.60436253761873
 20
83.001506933942764
 30
0.0
 11
257.79283560011493
 21
83.001506933942323
 31
0.0
  0
CIRCLE
  5
209DF
  8
0
 10
293.00436254906521
 20
100.5030125623787
 30
0.0
 40
2.8500000000000218
  0
ARC
  5
209E0
  8
0
 10
313.70436254906531
 20
98.503012562378785
 30
0.0
 40
4.25
 50
180.0
 51
0.0
  0
LINE
  5
209E1
  8
0
 10
317.9543627426026
 20
100.50301272422099
 30
0.0
 11
317.9543627426026
 21
98.503013327718065
 31
0.0
  0
ARC
  5
209E2
  8
0
 10
313.70436254906531
 20
100.5030125623788
 30
0.0
 40
4.25
 50
0.0
 51
180.0
  0
LINE
  5
209E3
  8
0
 10
309.45436274632789
 20
98.503013327718008
 30
0.0
 11
309.45436274632789
 21
100.50301272422089
 31
0.0
  0
ARC
  5
209E4
  8
0
 10
272.30436254906527
 20
98.503012562378501
 30
0.0
 40
4.25
 50
180.0
 51
0.0
  0
LINE
  5
209E5
  8
0
 10
276.55436368659122
 20
100.5030127242207
 30
0.0
 11
276.55436368659122
 21
98.503013327717781
 31
0.0
  0
ARC
  5
209E6
  8
0
 10
272.30436254906522
 20
100.5030125623785
 30
0.0
 40
4.25
 50
0.0
 51
180.0
  0
LINE
  5
209E7
  8
0
 10
268.05436136201013
 20
98.503013327717667
 30
0.0
 11
268.05436136201001
 21
100.5030127242206
 31
0.0
  0
ARC
  5
209E8
  8
0
 10
316.6043625490654
 20
103.0030125623788
 30
0.0
 40
5.0000000000000284
 50
0.0
 51
90.0
  0
ARC
  5
209E9
  8
0
 10
269.40436254906513
 20
103.0030125623785
 30
0.0
 40
5.0
 50
90.0
 51
180.0
  0
LINE
  5
209EA
  8
0
 10
316.60436270758493
 20
108.003012556583
 30
0.0
 11
269.40436186268897
 21
108.0030125565826
 31
0.0
  0
LINE
  5
209EB
  8
0
 10
264.40436290577031
 20
103.00301220268
 30
0.0
 11
264.40436290577071
 21
83.001506933942323
 31
0.0
  0
LINE
  5
209EC
  8
0
 10
321.6043625376189
 20
83.001506933942721
 30
0.0
 11
321.6043625376185
 21
103.0030122026804
 31
0.0
  0
LINE
  5
209ED
  8
0
 10
260.21336289122701
 20
83.001507865265125
 30
0.0
 11
260.21336289122701
 21
87.001506658271069
 31
0.0
  0
LINE
  5
209EE
  8
0
 10
264.40436290577048
 20
87.001506658271126
 30
0.0
 11
260.21336289122701
 21
87.001506658271069
 31
0.0
  0
LINE
  5
209EF
  8
0
 10
321.6043625376189
 20
74.989044526591954
 30
0.0
 11
327.35097678378219
 21
74.989044526591897
 31
0.0
  0
LINE
  5
209F0
  8
0
 10
327.35097678378219
 20
70.989043870940804
 30
0.0
 11
321.6043625376189
 21
70.989043870940861
 31
0.0
  0
ARC
  5
209F1
  8
0
 10
327.35101546238621
 20
75.147283621319161
 30
0.0
 40
0.1582390994543547
 50
269.98599511249432
 51
297.24641774054379
  0
ARC
  5
209F2
  8
0
 10
327.35100470105158
 20
75.146848877195907
 30
0.0
 40
4.1578050063488261
 50
269.99961529179137
 51
297.9731478291522
  0
ARC
  5
209F3
  8
0
 10
327.60579064848872
 20
75.116305080867335
 30
0.0
 40
4.1272612118757044
 50
270.0017608630248
 51
298.07857917833388
  0
LINE
  5
209F4
  8
0
 10
327.35097678378219
 20
70.989043870940804
 30
0.0
 11
327.60591749101877
 21
70.989043870940748
 31
0.0
  0
POLYLINE
  5
209F5
  8
0
 66
     1
 10
0.0
 20
0.0
 30
0.0
 70
   128
  0
VERTEX
  5
20FD7
  8
0
 10
334.52465934678912
 20
74.249768117442841
 30
0.0
  0
VERTEX
  5
20FD8
  8
0
 10
333.8691814802587
 20
73.901207605376953
 30
0.0
  0
VERTEX
  5
20FD9
  8
0
 10
333.21364028379321
 20
73.552706697955841
 30
0.0
  0
VERTEX
  5
20FDA
  8
0
 10
332.55843063816428
 20
73.204481462016759
 30
0.0
  0
VERTEX
  5
20FDB
  8
0
 10
331.90395208075643
 20
72.856740513816533
 30
0.0
  0
VERTEX
  5
20FDC
  8
0
 10
331.25059949234128
 20
72.509692469611821
 30
0.0
  0
VERTEX
  5
20FDD
  8
0
 10
330.59876961633557
 20
72.163545945659337
 30
0.0
  0
VERTEX
  5
20FDE
  8
0
 10
329.94885686784983
 20
71.818517008796391
 30
0.0
  0
VERTEX
  5
20FDF
  8
0
 10
329.30125519633287
 20
71.474810549989343
 30
0.0
  0
SEQEND
  5
20FE0
  8
0
  0
LINE
  5
209F6
  8
0
 10
334.52465934678912
 20
74.249768117442841
 30
0.0
 11
334.95171824470162
 21
74.476850638166184
 31
0.0
  0
LINE
  5
209F7
  8
0
 10
334.95171824470162
 20
74.476850638166184
 30
0.0
 11
335.41920958086848
 21
74.72548023797583
 31
0.0
  0
LINE
  5
209F8
  8
0
 10
335.41920958086848
 20
74.72548023797583
 30
0.0
 11
335.90530036017299
 21
74.983948329463715
 31
0.0
  0
POLYLINE
  5
209F9
  8
0
 66
     1
 10
0.0
 20
0.0
 30
0.0
 70
   128
  0
VERTEX
  5
20FE1
  8
0
 10
329.54841842874879
 20
71.474810549989343
 30
0.0
  0
VERTEX
  5
20FE2
  8
0
 10
330.35267787054181
 20
71.905040601268411
 30
0.0
  0
VERTEX
  5
20FE3
  8
0
 10
331.16175411269069
 20
72.337777772918344
 30
0.0
  0
VERTEX
  5
20FE4
  8
0
 10
331.97555122897029
 20
72.772969910874963
 30
0.0
  0
VERTEX
  5
20FE5
  8
0
 10
332.79397049918771
 20
73.210568586364374
 30
0.0
  0
VERTEX
  5
20FE6
  8
0
 10
333.61691320314998
 20
73.650517920032144
 30
0.0
  0
VERTEX
  5
20FE7
  8
0
 10
334.44428062066441
 20
74.092769483104334
 30
0.0
  0
VERTEX
  5
20FE8
  8
0
 10
335.27597403153783
 20
74.537263670936227
 30
0.0
  0
VERTEX
  5
20FE9
  8
0
 10
336.11189192160958
 20
74.983948329463601
 30
0.0
  0
SEQEND
  5
20FEA
  8
0
  0
POLYLINE
  5
209FA
  8
0
 66
     1
 10
0.0
 20
0.0
 30
0.0
 70
   128
  0
VERTEX
  5
20FEB
  8
0
 10
327.4234602227807
 20
75.006601819768534
 30
0.0
  0
VERTEX
  5
20FEC
  8
0
 10
328.07106142863631
 20
75.350308278575525
 30
0.0
  0
VERTEX
  5
20FED
  8
0
 10
328.72097417712212
 20
75.695337215438485
 30
0.0
  0
VERTEX
  5
20FEE
  8
0
 10
329.372804518789
 20
76.041480014100671
 30
0.0
  0
VERTEX
  5
20FEF
  8
0
 10
330.02615664154291
 20
76.38852805830544
 30
0.0
  0
VERTEX
  5
20FF0
  8
0
 10
330.680635664612
 20
76.736272731795964
 30
0.0
  0
VERTEX
  5
20FF1
  8
0
 10
331.33584437891841
 20
77.08449796773499
 30
0.0
  0
VERTEX
  5
20FF2
  8
0
 10
331.99138650670648
 20
77.432998875156102
 30
0.0
  0
VERTEX
  5
20FF3
  8
0
 10
332.64686437323689
 20
77.781559387221989
 30
0.0
  0
SEQEND
  5
20FF4
  8
0
  0
LINE
  5
209FB
  8
0
 10
335.97572324797511
 20
75.001505622640366
 30
0.0
 11
351.29918614406552
 21
75.001505622640437
 31
0.0
  0
POLYLINE
  5
209FC
  8
0
 66
     1
 10
0.0
 20
0.0
 30
0.0
 70
   128
  0
VERTEX
  5
20FF5
  8
0
 10
335.97572324797511
 20
75.001505622640366
 30
0.0
  0
VERTEX
  5
20FF6
  8
0
 10
335.93943426385522
 20
74.997050175443405
 30
0.0
  0
VERTEX
  5
20FF7
  8
0
 10
335.90530036017299
 20
74.983948329463715
 30
0.0
  0
SEQEND
  5
20FF8
  8
0
  0
POLYLINE
  5
209FD
  8
0
 66
     1
 10
0.0
 20
0.0
 30
0.0
 70
   128
  0
VERTEX
  5
20FF9
  8
0
 10
334.02750445529819
 20
78.51573959924292
 30
0.0
  0
VERTEX
  5
20FFA
  8
0
 10
334.97179290279752
 20
78.878236422315354
 30
0.0
  0
VERTEX
  5
20FFB
  8
0
 10
335.97798915579909
 20
79.001506278291458
 30
0.0
  0
SEQEND
  5
20FFC
  8
0
  0
LINE
  5
209FE
  8
0
 10
333.5414146073162
 20
78.257271507755036
 30
0.0
 11
334.02750445529819
 21
78.51573959924292
 31
0.0
  0
LINE
  5
209FF
  8
0
 10
333.5414146073162
 20
78.257271507755036
 30
0.0
 11
333.0739232711494
 21
78.008641907945389
 31
0.0
  0
ARC
  5
20A00
  8
0
 10
336.1779443803639
 20
74.868478794617033
 30
0.0
 40
0.1330268423482912
 50
90.026589820977733
 51
119.7710088892625
  0
LINE
  5
20A01
  8
0
 10
333.0739232711494
 20
78.008641907945389
 30
0.0
 11
332.64686437323689
 21
77.781559387221989
 31
0.0
  0
LINE
  5
20A02
  8
0
 10
87.013969616964445
 20
237.4517870135607
 30
0.0
 11
84.001508960500246
 21
237.4517870135607
 31
0.0
  0
ARC
  5
20A06
  8
0
 10
69.701504900157033
 20
189.25951704450389
 30
0.0
 40
0.6999999999999887
 50
180.0
 51
270.0
  0
ARC
  5
20A07
  8
0
 10
70.301504900156942
 20
189.25951704450389
 30
0.0
 40
0.6999999999999887
 50
270.0
 51
0.0
  0
LINE
  5
20A08
  8
0
 10
69.701503871795467
 20
188.55951623991149
 30
0.0
 11
70.301506577846339
 21
188.55951623991149
 31
0.0
  0
ARC
  5
20A09
  8
0
 10
88.301507272380718
 20
207.3645170445038
 30
0.0
 40
0.7000000000000171
 50
296.5314361359595
 51
0.0
  0
ARC
  5
20A0A
  8
0
 10
88.301507272380718
 20
217.96451704450391
 30
0.0
 40
0.7000000000000171
 50
0.0
 51
63.468563864040462
  0
ARC
  5
20A0B
  8
0
 10
69.701507272380695
 20
217.96451704450391
 30
0.0
 40
0.7000000000000238
 50
116.53143613604691
 51
180.0
  0
ARC
  5
20A0C
  8
0
 10
69.701507272380695
 20
207.3645170445038
 30
0.0
 40
0.6999999999999887
 50
180.0
 51
243.4685638639458
  0
ARC
  5
20A0D
  8
0
 10
69.701504713715281
 20
204.1877248357923
 30
0.0
 40
0.6999999999999887
 50
116.5313058529659
 51
180.0
  0
ARC
  5
20A0E
  8
0
 10
69.701504713715167
 20
234.5475855046854
 30
0.0
 40
0.7000000000000455
 50
90.0
 51
180.0
  0
ARC
  5
20A0F
  8
0
 10
69.701504713715167
 20
223.94758550468549
 30
0.0
 40
0.7000000000000171
 50
180.0
 51
270.0
  0
ARC
  5
20A10
  8
0
 10
70.301504713715303
 20
234.5475855046854
 30
0.0
 40
0.7000000000000455
 50
10.827419307505091
 51
90.0
  0
LINE
  5
20A11
  8
0
 10
69.701505238144591
 20
223.24758665636199
 30
0.0
 11
70.301504218905166
 21
223.24758665636199
 31
0.0
  0
LINE
  5
20A12
  8
0
 10
70.301504218905166
 20
235.247584898025
 30
0.0
 11
69.701505238144591
 21
235.247584898025
 31
0.0
  0
ARC
  5
20A13
  8
0
 10
69.701504902773536
 20
182.96331704450381
 30
0.0
 40
0.6999999999999887
 50
90.0
 51
180.0
  0
ARC
  5
20A14
  8
0
 10
70.301504902773559
 20
182.96331704450381
 30
0.0
 40
0.7000000000000171
 50
0.0
 51
90.0
  0
LINE
  5
20A15
  8
0
 10
70.301506580462842
 20
183.66331690922391
 30
0.0
 11
69.701503874411969
 21
183.66331690922391
 31
0.0
  0
LINE
  5
20A16
  8
0
 10
91.829976486042142
 20
202.16902242973461
 30
0.0
 11
89.664912270382047
 21
203.41902123764169
 31
0.0
  0
LINE
  5
20A17
  8
0
 10
68.338100286200643
 20
203.41902123764169
 30
0.0
 11
66.173036070540533
 21
202.16902242973461
 31
0.0
  0
LINE
  5
20A18
  8
0
 10
89.664912270382047
 20
218.6850112862887
 30
0.0
 11
91.829976486042142
 21
219.9350138194861
 31
0.0
  0
LINE
  5
20A19
  8
0
 10
66.173036070540533
 20
219.9350138194861
 30
0.0
 11
68.338100286200643
 21
218.6850112862887
 31
0.0
  0
LINE
  5
20A1A
  8
0
 10
74.001511046662813
 20
237.4517870135607
 30
0.0
 11
70.989042939618216
 21
237.4517870135607
 31
0.0
  0
LINE
  5
20A1B
  8
0
 10
87.013969616964445
 20
237.4517870135607
 30
0.0
 11
87.013969616964445
 21
230.7020154781641
 31
0.0
  0
LINE
  5
20A1C
  8
0
 10
88.614188553765416
 20
201.50535451248311
 30
0.0
 11
88.614188553765416
 21
220.60201587155481
 31
0.0
  0
LINE
  5
20A1D
  8
0
 10
69.388824002817273
 20
220.60201587155481
 30
0.0
 11
88.614188553765416
 21
220.60201587155481
 31
0.0
  0
ARC
  5
20A1E
  8
0
 10
80.126578387747713
 20
202.50535485194081
 30
0.0
 40
1.0
 50
180.0
 51
270.0
  0
LINE
  5
20A1F
  8
0
 10
79.126580106094465
 20
202.505356539041
 30
0.0
 11
79.126580106094465
 21
219.60201757028719
 31
0.0
  0
ARC
  5
20A20
  8
0
 10
80.126578387747713
 20
219.60201704280121
 30
0.0
 40
1.000000000000113
 50
90.0
 51
179.99999995122479
  0
ARC
  5
20A21
  8
0
 10
77.886436157012781
 20
202.50535485194069
 30
0.0
 40
1.0
 50
269.99999999999352
 51
0.0
  0
ARC
  5
20A22
  8
0
 10
77.886436157012668
 20
219.60201704280101
 30
0.0
 40
1.000000000000113
 50
0.0000000487751546
 51
89.999999999993491
  0
LINE
  5
20A23
  8
0
 10
78.886436717584715
 20
219.60201757028719
 30
0.0
 11
78.886436717584715
 21
202.505356539041
 31
0.0
  0
LINE
  5
20A24
  8
0
 10
69.388824002817273
 20
201.50535451248311
 30
0.0
 11
69.388824002817273
 21
220.60201587155481
 31
0.0
  0
ARC
  5
20A25
  8
0
 10
74.543993859892325
 20
231.29829872758521
 30
0.0
 40
8.1989079276943038
 50
271.45028284596702
 51
302.93391623746533
  0
POLYLINE
  5
20A26
  8
0
 66
     1
 10
0.0
 20
0.0
 30
0.0
 70
   128
  0
VERTEX
  5
20FFD
  8
0
 10
74.751504184678197
 20
223.10201721265929
 30
0.0
  0
VERTEX
  5
20FFE
  8
0
 10
72.114143939688802
 20
223.63109411671769
 30
0.0
  0
VERTEX
  5
20FFF
  8
0
 10
70.501506747677922
 20
224.41697018221041
 30
0.0
  0
SEQEND
  5
21000
  8
0
  0
ARC
  5
20A27
  8
0
 10
74.959018899987313
 20
222.50573240105669
 30
0.0
 40
8.1989096004985971
 50
91.450313241778574
 51
122.93391420399659
  0
POLYLINE
  5
20A28
  8
0
 66
     1
 10
0.0
 20
0.0
 30
0.0
 70
   128
  0
VERTEX
  5
21001
  8
0
 10
74.751504184678197
 20
230.7020154781641
 30
0.0
  0
VERTEX
  5
21002
  8
0
 10
77.388868154957891
 20
230.1729385741057
 30
0.0
  0
VERTEX
  5
21003
  8
0
 10
79.00150534696877
 20
229.38706250861301
 30
0.0
  0
SEQEND
  5
21004
  8
0
  0
LINE
  5
20A29
  8
0
 10
79.00150534696877
 20
229.38706250861301
 30
0.0
 11
79.00150534696877
 21
224.41697018221041
 31
0.0
  0
POLYLINE
  5
20A2A
  8
0
 66
     1
 10
0.0
 20
0.0
 30
0.0
 70
   128
  0
VERTEX
  5
21005
  8
0
 10
83.251506509259343
 20
223.10201721265929
 30
0.0
  0
VERTEX
  5
21006
  8
0
 10
80.614146264269934
 20
223.63109411671769
 30
0.0
  0
VERTEX
  5
21007
  8
0
 10
79.00150534696877
 20
224.41697018221041
 30
0.0
  0
SEQEND
  5
21008
  8
0
  0
ARC
  5
20A2B
  8
0
 10
83.459019208120139
 20
222.50572629009611
 30
0.0
 40
8.1989156584654257
 50
91.450298074060697
 51
122.9339010093705
  0
ARC
  5
20A2C
  8
0
 10
83.043992802175353
 20
231.29830334524419
 30
0.0
 40
8.1989126294790928
 50
271.45030565791308
 51
302.93390760669098
  0
POLYLINE
  5
20A2D
  8
0
 66
     1
 10
0.0
 20
0.0
 30
0.0
 70
   128
  0
VERTEX
  5
21009
  8
0
 10
83.251506509259343
 20
230.7020154781641
 30
0.0
  0
VERTEX
  5
2100A
  8
0
 10
85.888866754248724
 20
230.1729385741057
 30
0.0
  0
VERTEX
  5
2100B
  8
0
 10
87.501505808904767
 20
229.38706250861301
 30
0.0
  0
SEQEND
  5
2100C
  8
0
  0
LINE
  5
20A2E
  8
0
 10
70.501506747677922
 20
230.7020154781641
 30
0.0
 11
70.501506747677922
 21
223.1020172126594
 31
0.0
  0
LINE
  5
20A2F
  8
0
 10
87.501505808904767
 20
230.7020154781643
 30
0.0
 11
70.501506747677922
 21
230.7020154781641
 31
0.0
  0
LINE
  5
20A30
  8
0
 10
87.501505808904767
 20
223.1020172126594
 30
0.0
 11
87.501505808904767
 21
230.7020154781641
 31
0.0
  0
LINE
  5
20A31
  8
0
 10
71.001505898311734
 20
176.44554332631469
 30
0.0
 11
71.001505898311734
 21
191.40201704576631
 31
0.0
  0
ARC
  5
20A32
  8
0
 10
70.501507970872126
 20
162.50301245299741
 30
0.0
 40
4.5000000000000027
 50
270.0
 51
311.2940823219617
  0
LINE
  5
20A33
  8
0
 10
50.0
 20
158.0030125565828
 30
0.0
 11
70.501509308815002
 21
158.0030125565828
 31
0.0
  0
LINE
  5
20A34
  8
0
 10
50.0
 20
162.00301228091141
 30
0.0
 11
70.504580749555544
 21
162.00301228091129
 31
0.0
  0
LINE
  5
20A35
  8
0
 10
50.0
 20
162.00301228091141
 30
0.0
 11
50.0
 21
158.0030125565828
 31
0.0
  0
LINE
  5
20A36
  8
0
 10
108.0030125565827
 20
162.00301228091141
 30
0.0
 11
87.498433257593888
 21
162.00301228091141
 31
0.0
  0
LINE
  5
20A37
  8
0
 10
108.0030125565827
 20
158.0030125565828
 30
0.0
 11
87.501508370041833
 21
158.0030125565828
 31
0.0
  0
ARC
  5
20A38
  8
0
 10
87.501507970872126
 20
162.50301245299741
 30
0.0
 40
4.5000000000000284
 50
228.7059176780383
 51
270.0
  0
LINE
  5
20A39
  8
0
 10
108.0030125565827
 20
158.0030125565828
 30
0.0
 11
108.0030125565827
 21
162.00301228091141
 31
0.0
  0
LINE
  5
20A3A
  8
0
 10
69.001503203495986
 20
199.1207625241201
 30
0.0
 11
69.001504900156988
 21
189.25951704450389
 31
0.0
  0
LINE
  5
20A3B
  8
0
 10
89.001506986096956
 20
207.36451717093601
 30
0.0
 11
89.001506986096956
 21
212.66451748088019
 31
0.0
  0
LINE
  5
20A3C
  8
0
 10
89.001506986096956
 20
212.66451748088019
 30
0.0
 11
89.001506986096956
 21
217.96451779082429
 31
0.0
  0
LINE
  5
20A3D
  8
0
 10
69.00150727238065
 20
217.96451726928231
 30
0.0
 11
69.001505570486643
 21
207.36451717093601
 31
0.0
  0
LINE
  5
20A3E
  8
0
 10
69.001504713715235
 20
204.1877248357923
 30
0.0
 11
69.001504590673562
 21
202.2699711416879
 31
0.0
  0
LINE
  5
20A3F
  8
0
 10
69.001504564612105
 20
234.54758794978281
 30
0.0
 11
69.001504713715235
 21
223.94758550468549
 31
0.0
  0
LINE
  5
20A40
  8
0
 10
69.001504902773604
 20
182.96331704450381
 30
0.0
 11
69.001503175058133
 21
174.0925963977802
 31
0.0
  0
LINE
  5
20A41
  8
0
 10
69.870159449055791
 20
199.00201717391619
 30
0.0
 11
88.132853107526884
 21
199.00201717391619
 31
0.0
  0
ARC
  5
20A42
  8
0
 10
88.132853595437496
 20
202.2386172217482
 30
0.0
 40
3.236600047831907
 50
269.99999136278512
 51
330.00003008907919
  0
POLYLINE
  5
20A43
  8
0
 66
     1
 10
0.0
 20
0.0
 30
0.0
 70
   128
  0
VERTEX
  5
2100D
  8
0
 10
69.388824002817273
 20
201.7022567325246
 30
0.0
  0
VERTEX
  5
2100E
  8
0
 10
69.232244463637471
 20
201.8703174777331
 30
0.0
  0
SEQEND
  5
2100F
  8
0
  0
ARC
  5
20A44
  8
0
 10
69.870158304120423
 20
202.23861608374841
 30
0.0
 40
3.2365989098322281
 50
209.9999582799588
 51
270.00002026818072
  0
POLYLINE
  5
20A45
  8
0
 66
     1
 10
0.0
 20
0.0
 30
0.0
 70
   128
  0
VERTEX
  5
21010
  8
0
 10
88.614188553765416
 20
201.59911343428041
 30
0.0
  0
VERTEX
  5
21011
  8
0
 10
89.156745420768857
 20
202.53885062411439
 30
0.0
  0
VERTEX
  5
21012
  8
0
 10
89.437395753338933
 20
203.02494885399949
 30
0.0
  0
VERTEX
  5
21013
  8
0
 10
89.607783081009984
 20
203.3200663514437
 30
0.0
  0
VERTEX
  5
21014
  8
0
 10
89.664912270382047
 20
203.41902123764169
 30
0.0
  0
SEQEND
  5
21015
  8
0
  0
POLYLINE
  5
20A46
  8
0
 66
     1
 10
0.0
 20
0.0
 30
0.0
 70
   128
  0
VERTEX
  5
21016
  8
0
 10
90.935832308605313
 20
200.62031866982599
 30
0.0
  0
VERTEX
  5
21017
  8
0
 10
91.321809636428952
 20
201.28884809091701
 30
0.0
  0
VERTEX
  5
21018
  8
0
 10
91.602458106353865
 20
201.77494632080209
 30
0.0
  0
VERTEX
  5
21019
  8
0
 10
91.77284543402493
 20
202.0700675435366
 30
0.0
  0
VERTEX
  5
2101A
  8
0
 10
91.829976486042142
 20
202.16902242973461
 30
0.0
  0
SEQEND
  5
2101B
  8
0
  0
POLYLINE
  5
20A47
  8
0
 66
     1
 10
0.0
 20
0.0
 30
0.0
 70
   128
  0
VERTEX
  5
2101C
  8
0
 10
68.338100286200643
 20
203.41902123764169
 30
0.0
  0
VERTEX
  5
2101D
  8
0
 10
68.395227612927556
 20
203.3200663514437
 30
0.0
  0
VERTEX
  5
2101E
  8
0
 10
68.565618665888906
 20
203.02494885399949
 30
0.0
  0
VERTEX
  5
2101F
  8
0
 10
68.846267135813832
 20
202.53885062411439
 30
0.0
  0
VERTEX
  5
21020
  8
0
 10
69.232244463637471
 20
201.8703174777331
 30
0.0
  0
SEQEND
  5
21021
  8
0
  0
POLYLINE
  5
20A48
  8
0
 66
     1
 10
0.0
 20
0.0
 30
0.0
 70
   128
  0
VERTEX
  5
21022
  8
0
 10
66.173036070540533
 20
202.16902242973461
 30
0.0
  0
VERTEX
  5
21023
  8
0
 10
66.230167122557745
 20
202.0700675435366
 30
0.0
  0
VERTEX
  5
21024
  8
0
 10
66.40055445022881
 20
201.77494632080209
 30
0.0
  0
VERTEX
  5
21025
  8
0
 10
66.681202920153737
 20
201.28884809091701
 30
0.0
  0
VERTEX
  5
21026
  8
0
 10
67.067180247977376
 20
200.62031866982599
 30
0.0
  0
SEQEND
  5
21027
  8
0
  0
LINE
  5
20A49
  8
0
 10
88.132853107526884
 20
223.10201721265929
 30
0.0
 11
69.870159449055791
 21
223.10201721265929
 31
0.0
  0
ARC
  5
20A4A
  8
0
 10
88.132851075552594
 20
219.8654109376107
 30
0.0
 40
3.2366062750492892
 50
30.00007163059113
 51
89.999964029124683
  0
ARC
  5
20A4B
  8
0
 10
69.870159497470922
 20
219.86541437323851
 30
0.0
 40
3.236602839420871
 50
90.000000857063085
 51
149.99996348321611
  0
ARC
  5
20A4C
  8
0
 10
69.726749173169992
 20
220.0057334896641
 30
0.0
 40
0.544529334818578
 50
128.3586566125033
 51
155.2485200159158
  0
POLYLINE
  5
20A4D
  8
0
 66
     1
 10
0.0
 20
0.0
 30
0.0
 70
   128
  0
VERTEX
  5
21028
  8
0
 10
89.664912270382047
 20
218.6850112862887
 30
0.0
  0
VERTEX
  5
21029
  8
0
 10
89.607783081009984
 20
218.78396617248671
 30
0.0
  0
VERTEX
  5
2102A
  8
0
 10
89.437395753338933
 20
219.07908739522119
 30
0.0
  0
VERTEX
  5
2102B
  8
0
 10
89.156745420768857
 20
219.5651856251063
 30
0.0
  0
VERTEX
  5
2102C
  8
0
 10
88.614188553765416
 20
220.50492281494019
 30
0.0
  0
SEQEND
  5
2102D
  8
0
  0
POLYLINE
  5
20A4E
  8
0
 66
     1
 10
0.0
 20
0.0
 30
0.0
 70
   128
  0
VERTEX
  5
2102E
  8
0
 10
91.829976486042142
 20
219.9350138194861
 30
0.0
  0
VERTEX
  5
2102F
  8
0
 10
91.77284543402493
 20
220.03396498039379
 30
0.0
  0
VERTEX
  5
21030
  8
0
 10
91.602458106353865
 20
220.3290862031283
 30
0.0
  0
VERTEX
  5
21031
  8
0
 10
91.321809636428952
 20
220.8151844330134
 30
0.0
  0
VERTEX
  5
21032
  8
0
 10
90.935832308605313
 20
221.48371757939481
 30
0.0
  0
SEQEND
  5
21033
  8
0
  0
POLYLINE
  5
20A4F
  8
0
 66
     1
 10
0.0
 20
0.0
 30
0.0
 70
   128
  0
VERTEX
  5
21034
  8
0
 10
67.067180247977376
 20
221.48371757939481
 30
0.0
  0
VERTEX
  5
21035
  8
0
 10
66.681202920153737
 20
220.8151844330134
 30
0.0
  0
VERTEX
  5
21036
  8
0
 10
66.40055445022881
 20
220.3290862031283
 30
0.0
  0
VERTEX
  5
21037
  8
0
 10
66.230167122557745
 20
220.03396498039379
 30
0.0
  0
VERTEX
  5
21038
  8
0
 10
66.173036070540533
 20
219.9350138194861
 30
0.0
  0
SEQEND
  5
21039
  8
0
  0
POLYLINE
  5
20A50
  8
0
 66
     1
 10
0.0
 20
0.0
 30
0.0
 70
   128
  0
VERTEX
  5
2103A
  8
0
 10
69.232244463637471
 20
220.23371877148759
 30
0.0
  0
VERTEX
  5
2103B
  8
0
 10
68.846267135813832
 20
219.5651856251063
 30
0.0
  0
VERTEX
  5
2103C
  8
0
 10
68.565618665888906
 20
219.07908739522119
 30
0.0
  0
VERTEX
  5
2103D
  8
0
 10
68.395227612927556
 20
218.78396617248671
 30
0.0
  0
VERTEX
  5
2103E
  8
0
 10
68.338100286200643
 20
218.6850112862887
 30
0.0
  0
SEQEND
  5
2103F
  8
0
  0
LINE
  5
20A51
  8
0
 10
70.989042939618216
 20
237.4517870135607
 30
0.0
 11
70.989042939618216
 21
230.7020154781641
 31
0.0
  0
LINE
  5
20A53
  8
0
 10
507.51538520605288
 20
237.4517870135607
 30
0.0
 11
503.515386413047
 21
237.4517870135607
 31
0.0
  0
LINE
  5
20A54
  8
0
 10
507.52784909606902
 20
169.3543601082639
 30
0.0
 11
515.52785040737103
 21
169.3543601082639
 31
0.0
  0
ARC
  5
20A55
  8
0
 10
500.8270281991953
 20
172.49608646753029
 30
0.0
 40
0.4999999999999888
 50
139.63546342690361
 51
194.53445508054489
  0
LINE
  5
20A56
  8
0
 10
500.3430304168046
 20
172.370605543256
 30
0.0
 11
503.03092260906658
 21
162.00302190594411
 31
0.0
  0
LINE
  5
20A57
  8
0
 10
520.02477469428175
 20
162.00301228091141
 30
0.0
 11
522.71266850216989
 21
172.370605543256
 31
0.0
  0
LINE
  5
20A58
  8
0
 10
501.52784909957882
 20
174.0926049738307
 30
0.0
 11
500.44605890794401
 21
172.819910477847
 31
0.0
  0
ARC
  5
20A5B
  8
0
 10
502.20292189713649
 20
234.5475855046854
 30
0.0
 40
0.7000000000000455
 50
90.0
 51
180.0
  0
ARC
  5
20A5C
  8
0
 10
502.20292189713649
 20
223.94758550468549
 30
0.0
 40
0.7000000000000455
 50
180.0
 51
270.0
  0
LINE
  5
20A5D
  8
0
 10
502.2029213041618
 20
223.24758665636199
 30
0.0
 11
502.80292214756759
 21
223.24758665636199
 31
0.0
  0
LINE
  5
20A5E
  8
0
 10
502.80292214756759
 20
235.247584898025
 30
0.0
 11
502.2029213041618
 21
235.247584898025
 31
0.0
  0
ARC
  5
20A60
  8
0
 10
502.22784885999903
 20
172.36331704450379
 30
0.0
 40
0.6999999999999887
 50
180.0
 51
270.0
  0
ARC
  5
20A62
  8
0
 10
502.82784885999922
 20
172.36331704450379
 30
0.0
 40
0.7000000000000455
 50
270.0
 51
0.0
  0
LINE
  5
20A63
  8
0
 10
502.2278479571703
 20
171.66331703774651
 30
0.0
 11
502.82784880057602
 21
171.66331703774651
 31
0.0
  0
LINE
  5
20A67
  8
0
 10
498.69105415696981
 20
219.9350138194861
 30
0.0
 11
500.85611837262991
 21
218.6850112862887
 31
0.0
  0
LINE
  5
20A68
  8
0
 10
519.54031309039317
 20
237.4517870135607
 30
0.0
 11
515.54031243474208
 21
237.4517870135607
 31
0.0
  0
ARC
  5
20A6D
  8
0
 10
539.77265502969556
 20
244.31579521955561
 30
0.0
 40
46.85415164040954
 50
220.22938130824241
 51
221.71830746210711
  0
ARC
  5
20A6F
  8
0
 10
504.38548278928562
 20
214.86304487358191
 30
0.0
 40
0.8947202255661441
 50
193.47327170045531
 51
244.56080849791411
  0
ARC
  5
20A70
  8
0
 10
517.24945026727301
 20
214.65797671673579
 30
0.0
 40
9.7340656530072405
 50
180.0199789714022
 51
183.4420322731543
  0
LINE
  5
20A71
  8
0
 10
507.51538520605283
 20
237.4517870135607
 30
0.0
 11
507.51538520605249
 21
214.65458245947971
 31
0.0
  0
LINE
  5
20A72
  8
0
 10
503.51538641304569
 20
212.1182472290763
 30
0.0
 11
503.515386413047
 21
237.4517870135607
 31
0.0
  0
LINE
  5
20A73
  8
0
 10
511.52784975172011
 20
169.3543601082639
 30
0.0
 11
511.52784975172011
 21
176.1636518644959
 31
0.0
  0
LINE
  5
20A74
  8
0
 10
511.52784975172011
 20
169.3543601082639
 30
0.0
 11
511.52784975172011
 21
176.1636518644959
 31
0.0
  0
LINE
  5
20A75
  8
0
 10
501.91516747624598
 20
220.60201587155481
 30
0.0
 11
501.91516747624598
 21
218.5907986946406
 31
0.0
  0
LINE
  5
20A76
  8
0
 10
501.91516747624598
 20
220.60201587155481
 30
0.0
 11
503.51538641304609
 21
220.6020158715549
 31
0.0
  0
LINE
  5
20A77
  8
0
 10
503.01952483410719
 20
223.28194069001049
 30
0.0
 11
503.01952483410719
 21
223.10201721265929
 31
0.0
  0
LINE
  5
20A78
  8
0
 10
540.52935603001151
 20
162.00301228091141
 30
0.0
 11
540.52935603001151
 21
158.0030125565828
 31
0.0
  0
LINE
  5
20A79
  8
0
 10
519.52784943320785
 20
179.7051994411126
 30
0.0
 11
519.52784943320785
 21
162.50301236286771
 31
0.0
  0
ARC
  5
20A7A
  8
0
 10
520.02784805913905
 20
162.50301245299741
 30
0.0
 40
0.5
 50
179.9999999999967
 51
270.00000000001302
  0
ARC
  5
20A7B
  8
0
 10
520.02784805913905
 20
162.50301245299741
 30
0.0
 40
4.5000000000000284
 50
179.9999999999967
 51
270.0
  0
LINE
  5
20A7C
  8
0
 10
515.52784877755676
 20
176.89308617138511
 30
0.0
 11
515.52784877755676
 21
162.50301236286771
 31
0.0
  0
LINE
  5
20A7D
  8
0
 10
520.02784672119651
 20
158.0030125565828
 30
0.0
 11
540.52935603001151
 21
158.0030125565828
 31
0.0
  0
LINE
  5
20A7E
  8
0
 10
520.02784672119651
 20
162.00301228091141
 30
0.0
 11
540.52935603001151
 21
162.00301228091141
 31
0.0
  0
LINE
  5
20A7F
  8
0
 10
505.99750638157769
 20
159.12201711908
 30
0.0
 11
517.05818973670046
 21
159.12201711908
 31
0.0
  0
LINE
  5
20A80
  8
0
 10
507.52784746625451
 20
176.8930874644399
 30
0.0
 11
507.52784746625451
 21
162.50301236286771
 31
0.0
  0
LINE
  5
20A81
  8
0
 10
503.02784765996961
 20
158.0030125565828
 30
0.0
 11
482.52634347342882
 21
158.0030125565828
 31
0.0
  0
LINE
  5
20A82
  8
0
 10
503.02784765996961
 20
162.00301228091141
 30
0.0
 11
482.52634347342882
 21
162.00301228091141
 31
0.0
  0
ARC
  5
20A83
  8
0
 10
503.0278480591391
 20
162.50301245299741
 30
0.0
 40
0.5
 50
270.0
 51
0.0
  0
LINE
  5
20A84
  8
0
 10
503.52784867324863
 20
179.70520096058749
 30
0.0
 11
503.52784867324863
 21
162.50301236286771
 31
0.0
  0
ARC
  5
20A85
  8
0
 10
503.0278480591391
 20
162.50301245299741
 30
0.0
 40
4.5000000000000284
 50
270.0
 51
0.0
  0
LINE
  5
20A86
  8
0
 10
482.52634347342882
 20
158.0030125565828
 30
0.0
 11
482.52634347342882
 21
162.00301228091141
 31
0.0
  0
LINE
  5
20A87
  8
0
 10
501.50292249327453
 20
234.54758794978281
 30
0.0
 11
501.50292189713639
 21
223.9475855834207
 31
0.0
  0
LINE
  5
20A88
  8
0
 10
501.52784887115871
 20
182.55012492244089
 30
0.0
 11
501.5278491462829
 21
172.36331701278701
 31
0.0
  0
LINE
  5
20A8B
  8
0
 10
503.51538641304609
 20
223.10201721265929
 30
0.0
 11
502.38817753548477
 21
223.10201721265929
 31
0.0
  0
ARC
  5
20A8C
  8
0
 10
502.38817323519191
 20
219.86542190542741
 30
0.0
 40
3.236595307234738
 50
89.999923874125358
 51
150.00004046615271
  0
POLYLINE
  5
20A8D
  8
0
 66
     1
 10
0.0
 20
0.0
 30
0.0
 70
   128
  0
VERTEX
  5
21040
  8
0
 10
501.91516747624598
 20
220.51934282555879
 30
0.0
  0
VERTEX
  5
21041
  8
0
 10
501.3642852222431
 20
219.5651856251063
 30
0.0
  0
VERTEX
  5
21042
  8
0
 10
501.08363488967302
 20
219.07908739522119
 30
0.0
  0
VERTEX
  5
21043
  8
0
 10
500.91324756200191
 20
218.78396617248671
 30
0.0
  0
VERTEX
  5
21044
  8
0
 10
500.85611837262991
 20
218.6850112862887
 30
0.0
  0
SEQEND
  5
21045
  8
0
  0
POLYLINE
  5
20A8E
  8
0
 66
     1
 10
0.0
 20
0.0
 30
0.0
 70
   128
  0
VERTEX
  5
21046
  8
0
 10
499.58519833440658
 20
221.48371757939481
 30
0.0
  0
VERTEX
  5
21047
  8
0
 10
499.199221006583
 20
220.8151844330134
 30
0.0
  0
VERTEX
  5
21048
  8
0
 10
498.91857253665808
 20
220.3290862031283
 30
0.0
  0
VERTEX
  5
21049
  8
0
 10
498.74818520898702
 20
220.03396498039379
 30
0.0
  0
VERTEX
  5
2104A
  8
0
 10
498.69105415696981
 20
219.9350138194861
 30
0.0
  0
SEQEND
  5
2104B
  8
0
  0
ARC
  5
20A93
  8
0
 10
483.27948478924139
 20
244.31816383243239
 30
0.0
 40
46.857588310110337
 50
318.28230372546318
 51
319.77239064588309
  0
ARC
  5
20A95
  8
0
 10
505.80776214861902
 20
214.6591550059658
 30
0.0
 40
9.7325508387810871
 50
359.12431027394302
 51
359.98069131534658
  0
ARC
  5
20A96
  8
0
 10
518.67017219162335
 20
214.86432341800861
 30
0.0
 40
0.8947602306269901
 50
295.44113007528188
 51
346.52827254813371
  0
LINE
  5
20A97
  8
0
 10
515.54031243474174
 20
214.65587513521331
 30
0.0
 11
515.54031243474208
 21
237.4517870135607
 31
0.0
  0
LINE
  5
20A98
  8
0
 10
519.54031309039158
 20
212.118247229079
 30
0.0
 11
519.54031309039317
 21
237.4517870135607
 31
0.0
  0
LINE
  5
20A9A
  8
0
 10
501.52784913395129
 20
172.81991047784689
 30
0.0
 11
500.44605890794401
 21
172.819910477847
 31
0.0
  0
LINE
  5
20A9B
  8
0
 10
501.52784914608623
 20
172.370605543256
 30
0.0
 11
500.3430304168046
 21
172.370605543256
 31
0.0
  0
LINE
  5
20A9D
  8
3
 10
197.81501231816361
 20
177.62201730918531
 30
0.0
 11
197.81501231816361
 21
191.40201704576609
 31
0.0
  0
LINE
  5
20A9E
  8
3
 10
197.81501231816401
 20
230.7020154781639
 30
0.0
 11
197.81501231816421
 21
244.62201716378351
 31
0.0
  0
LINE
  5
20A9F
  8
3
 10
206.19101231816401
 20
177.62201709178231
 30
0.0
 11
206.19101231816401
 21
191.4020170457662
 31
0.0
  0
LINE
  5
20AA0
  8
3
 10
206.19101231816421
 20
230.70201547816399
 30
0.0
 11
206.1910123181643
 21
244.6220171637834
 31
0.0
  0
LINE
  5
20AA1
  8
1
 10
202.0030123181642
 20
156.12201711908
 30
0.0
 11
202.0030123181642
 21
247.62201716378351
 31
0.0
  0
LINE
  5
20AA2
  8
1
 10
202.00301065494611
 20
310.80856679799859
 30
0.0
 11
202.00301065494611
 21
336.43847682652211
 31
0.0
  0
LINE
  5
20AA3
  8
0
 10
206.91049202730241
 20
315.1235218590557
 30
0.0
 11
211.8179659490784
 21
323.6235223209917
 31
0.0
  0
LINE
  5
20AA4
  8
0
 10
211.8179659490784
 20
323.6235223209917
 30
0.0
 11
206.91049202730261
 21
332.1235209202826
 31
0.0
  0
LINE
  5
20AA5
  8
0
 10
197.09553673317009
 20
315.1235218590557
 30
0.0
 11
192.18806003103629
 21
323.6235230263398
 31
0.0
  0
LINE
  5
20AA6
  8
0
 10
192.18806003103629
 20
323.6235230263398
 30
0.0
 11
197.09554034729629
 21
332.12351979641818
 31
0.0
  0
LINE
  5
20AA7
  8
0
 10
197.09554034729629
 20
332.12351979641818
 30
0.0
 11
206.91049202730261
 21
332.1235209202826
 31
0.0
  0
LINE
  5
20AA8
  8
1
 10
153.0130112357437
 20
323.62352181226032
 30
0.0
 11
444.89898093422829
 21
323.62352181226021
 31
0.0
  0
ARC
  5
20AA9
  8
0
 10
318.91686239358182
 20
332.34844921967152
 30
0.0
 40
0.7000000000000455
 50
270.0
 51
0.0
  0
LINE
  5
20AAA
  8
0
 10
327.66325547010979
 20
319.62352115661042
 30
0.0
 11
257.79331000521779
 21
319.623521156609
 31
0.0
  0
ARC
  5
20AAB
  8
0
 10
275.43523754906369
 20
314.32352187503028
 30
0.0
 40
0.7000000000000455
 50
269.99999999998698
 51
359.99999999998698
  0
ARC
  5
20AAC
  8
0
 10
264.83523754906378
 20
314.3235218750321
 30
0.0
 40
0.7000000000000455
 50
179.99999999998701
 51
269.99999999998698
  0
ARC
  5
20AAD
  8
0
 10
275.4352375490638
 20
314.92352187503019
 30
0.0
 40
0.6999999999999887
 50
359.99999999998698
 51
89.999999999986969
  0
ARC
  5
20AAE
  8
0
 10
264.83523754906389
 20
314.92352187503218
 30
0.0
 40
0.7000000000000455
 50
89.999999999986969
 51
180.0
  0
LINE
  5
20AAF
  8
0
 10
264.13523675873688
 20
314.32352084667059
 30
0.0
 11
264.13523675873711
 21
314.92352355272152
 31
0.0
  0
LINE
  5
20AB0
  8
0
 10
276.13523872569027
 20
314.92352355271947
 30
0.0
 11
276.13523872569021
 21
314.3235208466686
 31
0.0
  0
ARC
  5
20AB1
  8
0
 10
290.51966253655428
 20
314.3235218750275
 30
0.0
 40
0.6999999999999887
 50
269.99999999998698
 51
359.99999999998698
  0
ARC
  5
20AB2
  8
0
 10
279.91966253655409
 20
314.32352187502948
 30
0.0
 40
0.6999999999999887
 50
179.99999999998701
 51
269.99999999998698
  0
ARC
  5
20AB3
  8
0
 10
290.51966253655439
 20
314.92352187502757
 30
0.0
 40
0.7000000000000064
 50
359.99999999998698
 51
74.663544327265214
  0
ARC
  5
20AB4
  8
0
 10
279.91966253655431
 20
314.92352187502951
 30
0.0
 40
0.6999999999999887
 50
89.999999999986969
 51
180.0
  0
LINE
  5
20AB5
  8
0
 10
279.21966360881743
 20
314.32352084666809
 30
0.0
 11
279.2196636088176
 21
314.9235235527189
 31
0.0
  0
LINE
  5
20AB6
  8
0
 10
291.21966185048052
 20
314.92352355271669
 30
0.0
 11
291.21966185048041
 21
314.32352084666587
 31
0.0
  0
ARC
  5
20AB7
  8
0
 10
310.9510974314432
 20
314.29859440484569
 30
0.0
 40
0.6999999999999887
 50
269.99999999998698
 51
359.99999999998698
  0
ARC
  5
20AB8
  8
0
 10
310.95109743144337
 20
314.89859440484582
 30
0.0
 40
0.7000000000000455
 50
359.99999999998698
 51
89.999999999986969
  0
LINE
  5
20AB9
  8
0
 10
311.65109751745888
 20
314.89859391003557
 30
0.0
 11
311.65109751745882
 21
314.298594929275
 31
0.0
  0
ARC
  5
20ABA
  8
0
 10
302.56796703635928
 20
314.29859440484751
 30
0.0
 40
0.7000000000000455
 50
269.99999999998698
 51
359.99999999998698
  0
ARC
  5
20ABB
  8
0
 10
291.96796703635943
 20
314.29859440484933
 30
0.0
 40
0.6999999999999887
 50
179.99999999998701
 51
269.99999999998698
  0
ARC
  5
20ABC
  8
0
 10
302.56796703635939
 20
314.89859440484747
 30
0.0
 40
0.7000000000000455
 50
359.99999999998698
 51
89.999999999986969
  0
ARC
  5
20ABD
  8
0
 10
291.96796703635948
 20
314.8985944048494
 30
0.0
 40
0.6999999999999887
 50
89.999999999986969
 51
179.99999999998701
  0
LINE
  5
20ABE
  8
0
 10
291.26796768978062
 20
314.29859492927898
 30
0.0
 11
291.26796768978068
 21
314.89859391003949
 31
0.0
  0
LINE
  5
20ABF
  8
0
 10
303.2679677940888
 20
314.89859391003722
 30
0.0
 11
303.26796779408869
 21
314.29859492927659
 31
0.0
  0
ARC
  5
20AC0
  8
0
 10
318.91686254906369
 20
314.2985922323449
 30
0.0
 40
0.6999999999999887
 50
269.99999999998698
 51
359.99999999998698
  0
LINE
  5
20AC1
  8
0
 10
319.61686247959562
 20
314.89859391003409
 30
0.0
 11
319.61686247959551
 21
314.29859120398322
 31
0.0
  0
LINE
  5
20AC2
  8
0
 10
264.40436290576889
 20
315.62352050096371
 30
0.0
 11
264.40436290576889
 21
315.47519806773039
 31
0.0
  0
LINE
  5
20AC3
  8
0
 10
275.43523805215762
 20
313.62352017313623
 30
0.0
 11
264.83523743226931
 21
313.6235201731381
 31
0.0
  0
LINE
  5
20AC4
  8
0
 10
290.51966117694781
 20
313.6235201731335
 30
0.0
 11
279.9196642823498
 21
313.62352017313538
 31
0.0
  0
LINE
  5
20AC5
  8
0
 10
310.9510974314432
 20
313.59859440484558
 30
0.0
 11
302.56796712055609
 21
313.59859425574427
 31
0.0
  0
LINE
  5
20AC6
  8
0
 10
302.56796712055609
 20
313.59859425574427
 30
0.0
 11
291.96796650066779
 21
313.59859425574621
 31
0.0
  0
LINE
  5
20AC7
  8
0
 10
318.9168625045549
 20
313.59859053045079
 30
0.0
 11
310.9510974314432
 21
313.59859440484558
 31
0.0
  0
ARC
  5
20AC8
  8
0
 10
318.91686239358012
 20
314.8985944048444
 30
0.0
 40
0.7000000000000455
 50
359.99999999998698
 51
89.999999999986969
  0
LINE
  5
20AC9
  8
1
 10
272.30436254906567
 20
351.37502634100048
 30
0.0
 11
272.30436254906567
 21
336.87502634100048
 31
0.0
  0
LINE
  5
20ACA
  8
1
 10
272.30436254906567
 20
310.37201715798761
 30
0.0
 11
272.30436254906567
 21
295.87201715798761
 31
0.0
  0
LINE
  5
20ACB
  8
1
 10
293.00436254906572
 20
349.97502634100039
 30
0.0
 11
293.00436254906572
 21
340.27502634100028
 31
0.0
  0
LINE
  5
20ACC
  8
1
 10
293.00436254906572
 20
306.97201715798758
 30
0.0
 11
293.00436254906572
 21
297.27201715798759
 31
0.0
  0
LINE
  5
20ACD
  8
1
 10
313.70436254906582
 20
351.37502634100031
 30
0.0
 11
313.70436254906582
 21
336.87502634100031
 31
0.0
  0
LINE
  5
20ACE
  8
1
 10
313.70436254906582
 20
310.37201715798739
 30
0.0
 11
313.70436254906582
 21
295.87201715798739
 31
0.0
  0
LINE
  5
20ACF
  8
1
 10
319.95436254906582
 20
345.12502634100031
 30
0.0
 11
307.45436254906582
 21
345.12502634100031
 31
0.0
  0
LINE
  5
20AD0
  8
1
 10
297.8543625490658
 20
345.12502634100031
 30
0.0
 11
288.1543625490657
 21
345.12502634100031
 31
0.0
  0
LINE
  5
20AD1
  8
1
 10
278.55436254906567
 20
345.12502634100048
 30
0.0
 11
266.05436254906567
 21
345.12502634100031
 31
0.0
  0
LINE
  5
20AD2
  8
1
 10
319.95436254906582
 20
343.12502634100048
 30
0.0
 11
307.45436254906582
 21
343.12502634100048
 31
0.0
  0
LINE
  5
20AD3
  8
1
 10
278.55436254906567
 20
343.12502634100048
 30
0.0
 11
266.05436254906567
 21
343.12502634100048
 31
0.0
  0
LINE
  5
20AD4
  8
1
 10
319.95436254906531
 20
304.12201715798761
 30
0.0
 11
307.45436254906531
 21
304.12201715798761
 31
0.0
  0
LINE
  5
20AD5
  8
1
 10
278.55436254906527
 20
304.12201715798761
 30
0.0
 11
266.05436254906527
 21
304.12201715798761
 31
0.0
  0
LINE
  5
20AD6
  8
1
 10
319.95436254906531
 20
302.12201715798761
 30
0.0
 11
307.45436254906531
 21
302.12201715798761
 31
0.0
  0
LINE
  5
20AD7
  8
1
 10
297.85436254906529
 20
302.12201715798761
 30
0.0
 11
288.15436254906518
 21
302.12201715798761
 31
0.0
  0
LINE
  5
20AD8
  8
1
 10
278.55436254906522
 20
302.12201715798761
 30
0.0
 11
266.05436254906522
 21
302.12201715798761
 31
0.0
  0
LINE
  5
20AD9
  8
0
 10
158.00301255658269
 20
78.876433381811808
 30
0.0
 11
162.00302066281429
 21
78.876433381811808
 31
0.0
  0
ARC
  5
20ADA
  8
0
 10
166.00301398138231
 20
77.388824080543259
 30
0.0
 40
8.0000000000001137
 50
180.0
 51
270.0
  0
LINE
  5
20ADB
  8
0
 10
158.00301255658269
 20
78.876433381811808
 30
0.0
 11
158.00301255658269
 21
77.388824382797907
 31
0.0
  0
LINE
  5
20ADC
  8
0
 10
162.00302066281429
 20
78.876433381811808
 30
0.0
 11
162.00302066281429
 21
77.388824382797793
 31
0.0
  0
ARC
  5
20ADD
  8
0
 10
166.00301398138231
 20
77.388824080543259
 30
0.0
 40
4.0000000000001128
 50
180.0
 51
270.0
  0
LINE
  5
20ADE
  8
0
 10
166.00301386788479
 20
73.388823727146701
 30
0.0
 11
190.2770669584045
 21
73.388823727146587
 31
0.0
  0
LINE
  5
20ADF
  8
0
 10
213.728957677924
 20
73.388823727146345
 30
0.0
 11
246.16527827456591
 21
73.388823727146132
 31
0.0
  0
ARC
  5
20AE0
  8
0
 10
246.16528089614741
 20
73.538824080542668
 30
0.0
 40
0.1499999999999773
 50
270.0
 51
297.99999999997738
  0
LINE
  5
20AE1
  8
0
 10
246.23570116236809
 20
73.406381020322783
 30
0.0
 11
255.845005530864
 21
78.515739599243034
 31
0.0
  0
LINE
  5
20AE2
  8
0
 10
248.11359019950029
 20
69.874591613188727
 30
0.0
 11
257.72288711741572
 21
74.983948329463828
 31
0.0
  0
ARC
  5
20AE3
  8
0
 10
246.16528089614741
 20
73.538824080542668
 30
0.0
 40
4.1500000000000394
 50
270.0
 51
297.9999999999996
  0
LINE
  5
20AE4
  8
0
 10
166.00301386788479
 20
69.388824934140757
 30
0.0
 11
193.0472939168753
 21
69.388824934140416
 31
0.0
  0
LINE
  5
20AE5
  8
0
 10
210.93898817252489
 20
69.388824934140416
 30
0.0
 11
246.16527827456591
 21
69.388824934140189
 31
0.0
  0
ARC
  5
20AE6
  8
0
 10
257.79331114121169
 20
74.851506215525319
 30
0.0
 40
4.1500000000000394
 50
90.0
 51
117.9999999999996
  0
ARC
  5
20AE7
  8
0
 10
166.00301530222109
 20
80.614188350508698
 30
0.0
 40
4.0
 50
90.0
 51
180.0
  0
LINE
  5
20AE8
  8
0
 10
162.00302066281429
 20
79.116576770321558
 30
0.0
 11
162.00302066281429
 21
80.614188173786715
 31
0.0
  0
LINE
  5
20AE9
  8
0
 10
158.00301255658269
 20
80.614188173786829
 30
0.0
 11
158.00301255658269
 21
79.116576770321558
 31
0.0
  0
ARC
  5
20AEA
  8
0
 10
166.00301530222109
 20
80.614188350508698
 30
0.0
 40
8.0
 50
90.0
 51
180.0
  0
LINE
  5
20AEB
  8
0
 10
246.16527827456591
 20
88.614189485088318
 30
0.0
 11
210.95872729544061
 21
88.614189485088545
 31
0.0
  0
LINE
  5
20AEC
  8
0
 10
193.06703815548121
 20
88.614189485088787
 30
0.0
 11
166.00301386788479
 21
88.614189485088886
 31
0.0
  0
ARC
  5
20AED
  8
0
 10
246.1652808961471
 20
84.464188350508152
 30
0.0
 40
4.1499999999999773
 50
62.000000000000433
 51
90.0
  0
LINE
  5
20AEE
  8
0
 10
257.72288711741572
 20
83.019064227119316
 30
0.0
 11
248.11359019950029
 21
88.128419080749495
 31
0.0
  0
ARC
  5
20AEF
  8
0
 10
257.7933111412114
 20
83.151506215525174
 30
0.0
 40
4.1500000000000163
 50
242.0000000000004
 51
270.0
  0
LINE
  5
20AF0
  8
0
 10
246.23570116236809
 20
84.596631536260574
 30
0.0
 11
255.845005530864
 21
79.48727295734011
 31
0.0
  0
ARC
  5
20AF1
  8
0
 10
246.1652808961471
 20
84.464188350508152
 30
0.0
 40
0.1499999999999773
 50
62.000000000037332
 51
90.0
  0
LINE
  5
20AF2
  8
0
 10
166.00301386788479
 20
84.614188829437794
 30
0.0
 11
190.2770669584049
 21
84.614188829437637
 31
0.0
  0
LINE
  5
20AF3
  8
0
 10
213.72895767792349
 20
84.614188829437595
 30
0.0
 11
246.16527827456591
 21
84.614188829437225
 31
0.0
  0
LINE
  5
20AF4
  8
0
 10
162.00302066281429
 20
79.116576770321558
 30
0.0
 11
158.00301255658269
 21
79.116576770321558
 31
0.0
  0
ARC
  5
20AF5
  8
0
 10
204.28003498811401
 20
84.15645817519578
 30
0.0
 40
8.0297135295813895
 50
29.683599524638161
 51
57.595503798571897
  0
ARC
  5
20AF6
  8
0
 10
200.65350523843929
 20
83.271958236918067
 30
0.0
 40
9.2786808065445943
 50
124.3134619428787
 51
148.40727520691911
  0
ARC
  5
20AF7
  8
0
 10
203.3526352063177
 20
74.730925963584696
 30
0.0
 40
9.2785125282379433
 50
304.31333617486001
 51
328.40756050193329
  0
ARC
  5
20AF8
  8
0
 10
199.726022894349
 20
73.846599850009511
 30
0.0
 40
8.0297682379443351
 50
209.68375739650099
 51
237.59550545370661
  0
ARC
  5
20AF9
  8
0
 10
202.00301231816411
 20
79.001506278291572
 30
0.0
 40
13.000000000000041
 50
315.3792079457678
 51
44.620792054232233
  0
ARC
  5
20AFA
  8
0
 10
202.00301231816411
 20
79.001506278291572
 30
0.0
 40
12.999999999999959
 50
135.3792079457678
 51
224.6207920542322
  0
ARC
  5
20AFB
  8
0
 10
202.00301438023621
 20
67.398677344837893
 30
0.0
 40
24.43962368302207
 50
74.381040178349167
 51
105.6189598216508
  0
ARC
  5
20AFC
  8
0
 10
202.00301438023649
 20
90.604334366564444
 30
0.0
 40
24.439623683023392
 50
254.3810401783492
 51
285.61895982165078
  0
LINE
  5
20AFD
  8
1
 10
202.00301065494619
 20
64.800684935669551
 30
0.0
 11
202.00301065494611
 21
93.202326438788859
 31
0.0
  0
LINE
  5
20AFE
  8
1
 10
153.0130112357437
 20
79.001506278291572
 30
0.0
 11
444.89898093422829
 21
79.001506278291458
 31
0.0
  0
LINE
  5
20AFF
  8
1
 10
272.30436254906567
 20
106.7530108070321
 30
0.0
 11
272.30436254906567
 21
92.253010807032126
 31
0.0
  0
LINE
  5
20B00
  8
1
 10
272.30436254906567
 20
65.750001624019262
 30
0.0
 11
272.30436254906567
 21
51.250001624019262
 31
0.0
  0
LINE
  5
20B01
  8
1
 10
293.00436254906572
 20
105.35301080703201
 30
0.0
 11
293.00436254906572
 21
95.653010807031976
 31
0.0
  0
LINE
  5
20B02
  8
1
 10
293.00436254906572
 20
62.350001624019278
 30
0.0
 11
293.00436254906572
 21
52.650001624019239
 31
0.0
  0
LINE
  5
20B03
  8
1
 10
313.70436254906582
 20
106.7530108070319
 30
0.0
 11
313.70436254906582
 21
92.253010807031885
 31
0.0
  0
LINE
  5
20B04
  8
1
 10
313.70436254906582
 20
65.750001624019035
 30
0.0
 11
313.70436254906582
 21
51.250001624019028
 31
0.0
  0
LINE
  5
20B05
  8
1
 10
319.95436254906582
 20
100.503010807032
 30
0.0
 11
307.45436254906582
 21
100.503010807032
 31
0.0
  0
LINE
  5
20B06
  8
1
 10
297.8543625490658
 20
100.503010807032
 30
0.0
 11
288.1543625490657
 21
100.503010807032
 31
0.0
  0
LINE
  5
20B07
  8
1
 10
278.55436254906567
 20
100.5030108070321
 30
0.0
 11
266.05436254906567
 21
100.503010807032
 31
0.0
  0
LINE
  5
20B08
  8
1
 10
319.95436254906582
 20
98.503010807032126
 30
0.0
 11
307.45436254906582
 21
98.503010807032126
 31
0.0
  0
LINE
  5
20B09
  8
1
 10
278.55436254906567
 20
98.503010807032126
 30
0.0
 11
266.05436254906567
 21
98.503010807032126
 31
0.0
  0
LINE
  5
20B0A
  8
1
 10
319.95436254906531
 20
59.500001624019262
 30
0.0
 11
307.45436254906531
 21
59.500001624019262
 31
0.0
  0
LINE
  5
20B0B
  8
1
 10
278.55436254906527
 20
59.500001624019262
 30
0.0
 11
266.05436254906527
 21
59.500001624019262
 31
0.0
  0
LINE
  5
20B0C
  8
1
 10
319.95436254906531
 20
57.500001624019262
 30
0.0
 11
307.45436254906531
 21
57.500001624019262
 31
0.0
  0
LINE
  5
20B0D
  8
1
 10
297.85436254906529
 20
57.500001624019262
 30
0.0
 11
288.15436254906518
 21
57.500001624019262
 31
0.0
  0
LINE
  5
20B0E
  8
1
 10
278.55436254906522
 20
57.500001624019262
 30
0.0
 11
266.05436254906522
 21
57.500001624019262
 31
0.0
  0
CIRCLE
  5
20B0F
  8
0
 10
202.00301065494611
 20
79.001506278291572
 30
0.0
 40
7.3630979570637534
  0
LINE
  5
20B10
  8
0
 10
321.73281764844432
 20
74.989044526591954
 30
0.0
 11
321.73281764844432
 21
83.013971755281091
 31
0.0
  0
LINE
  5
20B11
  8
0
 10
297.65109801664948
 20
75.001505622640423
 30
0.0
 11
297.65109801664948
 21
83.001506933942608
 31
0.0
  0
LINE
  5
20B12
  8
0
 10
257.79258936492471
 20
79.001506278291515
 30
0.0
 11
267.13523911312222
 21
79.001506278291458
 31
0.0
  0
LINE
  5
20B13
  8
0
 10
297.65109801664948
 20
79.001506278291515
 30
0.0
 11
273.13523637130862
 21
79.001506278291515
 31
0.0
  0
LINE
  5
20B14
  8
0
 10
297.65109801664948
 20
79.001506278291515
 30
0.0
 11
321.73281764844432
 21
79.001508140936494
 31
0.0
  0
LINE
  5
20B15
  8
0
 10
507.52784975172011
 20
237.18508603051319
 30
0.0
 11
507.52784975172011
 21
214.0735297231212
 31
0.0
  0
LINE
  5
20B16
  8
0
 10
515.52784975172005
 20
237.18508603051319
 30
0.0
 11
515.52784975172005
 21
214.51433090489331
 31
0.0
  0
LINE
  5
20B17
  8
0
 10
506.52785452009169
 20
244.12201615050449
 30
0.0
 11
506.52785452009169
 21
237.4517870135607
 31
0.0
  0
LINE
  5
20B18
  8
0
 10
516.52785243392907
 20
237.4517870135607
 30
0.0
 11
516.52785243392907
 21
244.12201615050449
 31
0.0
  0
LINE
  5
20B19
  8
0
 10
516.52785243392907
 20
244.12201615050449
 30
0.0
 11
516.02785142065022
 21
244.62201716378351
 31
0.0
  0
LINE
  5
20B1A
  8
0
 10
507.02784808279011
 20
244.62201716378351
 30
0.0
 11
506.52785452009169
 21
244.12201615050449
 31
0.0
  0
LINE
  5
20B1B
  8
0
 10
516.52785243392907
 20
244.12201615050449
 30
0.0
 11
506.52785452009169
 21
244.12201615050449
 31
0.0
  0
LINE
  5
20B1C
  8
0
 10
516.02785142065022
 20
244.6220171637834
 30
0.0
 11
507.02784808279011
 21
244.62201716378351
 31
0.0
  0
LINE
  5
20B1D
  8
3
 10
507.33984975172001
 20
237.4517870135607
 30
0.0
 11
507.33984975172001
 21
244.62201716378351
 31
0.0
  0
LINE
  5
20B1E
  8
3
 10
515.71584975172016
 20
237.4517870135607
 30
0.0
 11
515.71584975172016
 21
244.6220171637834
 31
0.0
  0
LINE
  5
20B1F
  8
1
 10
511.52784975172011
 20
153.0030125565828
 30
0.0
 11
511.52784975172011
 21
249.62201716378351
 31
0.0
  0
LINE
  5
20B20
  8
0
 10
507.52784975172011
 20
237.18508603051319
 30
0.0
 11
515.52784975172005
 21
237.18508603051319
 31
0.0
  0
LINE
  5
20B21
  8
0
 10
504.0011530920944
 20
214.05507521703791
 30
0.0
 11
507.5329443618736
 21
214.07355638220861
 31
0.0
  0
LINE
  5
20B23
  8
0
 10
516.62944688584594
 20
214.06902070603101
 30
0.0
 11
519.05454641134349
 21
214.05633063986849
 31
0.0
  0
ARC
  5
20B24
  8
0
 10
522.22867130424515
 20
172.4960864675312
 30
0.0
 40
0.4999999999999888
 50
345.46554491946171
 51
40.364536573096657
  0
LINE
  5
20B25
  8
0
 10
521.52785040386198
 20
174.09260497383161
 30
0.0
 11
522.60964059549678
 21
172.819910477848
 31
0.0
  0
ARC
  5
20B27
  8
0
 10
520.82785064344148
 20
172.3633170445047
 30
0.0
 40
0.6999999999999887
 50
270.0
 51
0.0000000000048853
  0
ARC
  5
20B29
  8
0
 10
520.22785064344134
 20
172.36331704450461
 30
0.0
 40
0.7000000000000455
 50
180.00000000000489
 51
270.0
  0
LINE
  5
20B2A
  8
0
 10
520.82785154627049
 20
171.6633170377473
 30
0.0
 11
520.22785070286477
 21
171.6633170377473
 31
0.0
  0
LINE
  5
20B2C
  8
0
 10
521.527850632281
 20
182.5501249224402
 30
0.0
 11
521.5278503571576
 21
172.36331701278789
 31
0.0
  0
LINE
  5
20B2D
  8
0
 10
521.52785036948944
 20
172.81991047784791
 30
0.0
 11
522.60964059549678
 21
172.819910477848
 31
0.0
  0
LINE
  5
20B2E
  8
0
 10
521.52785035735451
 20
172.37060554325689
 30
0.0
 11
522.7126690866362
 21
172.370605543257
 31
0.0
  0
LINE
  5
20B2F
  8
1
 10
533.02935428046021
 20
156.0030125565828
 30
0.0
 11
533.02935428046021
 21
164.00301228091129
 31
0.0
  0
LINE
  5
20B30
  8
1
 10
531.02935428046044
 20
156.0030125565828
 30
0.0
 11
531.02935428046044
 21
164.00301228091129
 31
0.0
  0
LINE
  5
20B31
  8
1
 10
492.02634509744752
 20
156.0030125565828
 30
0.0
 11
492.02634509744752
 21
164.00301228091141
 31
0.0
  0
LINE
  5
20B32
  8
1
 10
490.02634509744757
 20
156.0030125565828
 30
0.0
 11
490.02634509744757
 21
164.00301228091141
 31
0.0
  0
ARC
  5
20B33
  8
0
 10
502.20292189713649
 20
217.9645176511643
 30
0.0
 40
0.7000000000000455
 50
90.0
 51
180.0
  0
LINE
  5
20B36
  8
0
 10
502.80292214756759
 20
218.66451704450381
 30
0.0
 11
502.2029213041618
 21
218.66451704450381
 31
0.0
  0
LINE
  5
20B37
  8
0
 10
501.50292249327453
 20
217.96452009626171
 30
0.0
 11
501.50292203395361
 21
209.7972778985301
 31
0.0
  0
ARC
  5
20B38
  8
0
 10
502.80292155459301
 20
234.5475855046854
 30
0.0
 40
0.7000000000000455
 50
0.0
 51
90.0
  0
ARC
  5
20B39
  8
0
 10
502.80292155459301
 20
223.94758550468549
 30
0.0
 40
0.7000000000000455
 50
270.0
 51
0.0
  0
ARC
  5
20B3A
  8
0
 10
502.80292155459301
 20
217.9645176511643
 30
0.0
 40
0.7000000000000455
 50
0.0
 51
90.0
  0
ARC
  5
20B3C
  8
0
 10
520.85277760630368
 20
234.5475855046854
 30
0.0
 40
0.7000000000000455
 50
0.0
 51
90.0
  0
ARC
  5
20B3D
  8
0
 10
520.85277760630368
 20
223.94758550468549
 30
0.0
 40
0.7000000000000455
 50
270.0
 51
0.0
  0
LINE
  5
20B3E
  8
0
 10
520.85277819927842
 20
223.24758665636199
 30
0.0
 11
520.25277735587269
 21
223.24758665636199
 31
0.0
  0
LINE
  5
20B3F
  8
0
 10
520.25277735587269
 20
235.247584898025
 30
0.0
 11
520.85277819927842
 21
235.247584898025
 31
0.0
  0
LINE
  5
20B40
  8
0
 10
524.36464534647041
 20
219.9350138194861
 30
0.0
 11
522.19958113081032
 21
218.6850112862887
 31
0.0
  0
LINE
  5
20B41
  8
0
 10
521.14053202719424
 20
220.60201587155481
 30
0.0
 11
521.14053202719424
 21
218.5907986946406
 31
0.0
  0
LINE
  5
20B42
  8
0
 10
521.14053202719424
 20
220.60201587155481
 30
0.0
 11
519.54031309039408
 21
220.6020158715549
 31
0.0
  0
LINE
  5
20B43
  8
0
 10
520.03617466933315
 20
223.28194069001049
 30
0.0
 11
520.03617466933315
 21
223.10201721265929
 31
0.0
  0
LINE
  5
20B44
  8
0
 10
521.55277701016576
 20
234.54758794978281
 30
0.0
 11
521.55277760630383
 21
223.9475855834207
 31
0.0
  0
LINE
  5
20B45
  8
0
 10
519.54031309039408
 20
223.10201721265929
 30
0.0
 11
520.66752196795551
 21
223.10201721265929
 31
0.0
  0
ARC
  5
20B46
  8
0
 10
520.66752626824825
 20
219.86542190542741
 30
0.0
 40
3.236595307234738
 50
29.999959533843601
 51
90.000076125874656
  0
POLYLINE
  5
20B47
  8
0
 66
     1
 10
0.0
 20
0.0
 30
0.0
 70
   128
  0
VERTEX
  5
2104C
  8
0
 10
521.14053202719424
 20
220.51934282555879
 30
0.0
  0
VERTEX
  5
2104D
  8
0
 10
521.69141428119724
 20
219.5651856251063
 30
0.0
  0
VERTEX
  5
2104E
  8
0
 10
521.9720646137672
 20
219.07908739522119
 30
0.0
  0
VERTEX
  5
2104F
  8
0
 10
522.14245194143825
 20
218.78396617248671
 30
0.0
  0
VERTEX
  5
21050
  8
0
 10
522.19958113081032
 20
218.6850112862887
 30
0.0
  0
SEQEND
  5
21051
  8
0
  0
POLYLINE
  5
20B48
  8
0
 66
     1
 10
0.0
 20
0.0
 30
0.0
 70
   128
  0
VERTEX
  5
21052
  8
0
 10
523.47050116903358
 20
221.48371757939481
 30
0.0
  0
VERTEX
  5
21053
  8
0
 10
523.85647849685733
 20
220.8151844330134
 30
0.0
  0
VERTEX
  5
21054
  8
0
 10
524.13712696678215
 20
220.3290862031283
 30
0.0
  0
VERTEX
  5
21055
  8
0
 10
524.3075142944532
 20
220.03396498039379
 30
0.0
  0
VERTEX
  5
21056
  8
0
 10
524.36464534647041
 20
219.9350138194861
 30
0.0
  0
SEQEND
  5
21057
  8
0
  0
ARC
  5
20B49
  8
0
 10
520.85277760630368
 20
217.9645176511643
 30
0.0
 40
0.7000000000000455
 50
0.0
 51
90.0
  0
LINE
  5
20B4C
  8
0
 10
520.25277735587269
 20
218.66451704450381
 30
0.0
 11
520.85277819927842
 21
218.66451704450381
 31
0.0
  0
LINE
  5
20B4D
  8
0
 10
521.55277701016576
 20
217.96452009626171
 30
0.0
 11
521.55277746948673
 21
209.7972778985301
 31
0.0
  0
ARC
  5
20B4E
  8
0
 10
520.25277794884732
 20
234.5475855046854
 30
0.0
 40
0.7000000000000455
 50
90.0
 51
180.0
  0
ARC
  5
20B4F
  8
0
 10
520.25277794884732
 20
223.94758550468549
 30
0.0
 40
0.7000000000000455
 50
180.0
 51
270.0
  0
ARC
  5
20B50
  8
0
 10
520.25277794884732
 20
217.9645176511643
 30
0.0
 40
0.7000000000000455
 50
90.0
 51
180.0
  0
LINE
  5
20B54
  8
0
 10
511.52784975172011
 20
237.18508603051319
 30
0.0
 11
511.5276370017591
 21
215.14377672557671
 31
0.0
  0
LINE
  5
20B55
  8
0
 10
74.001511046662813
 20
244.12201615050449
 30
0.0
 11
74.001511046662813
 21
230.7020154781641
 31
0.0
  0
LINE
  5
20B56
  8
0
 10
74.001511046662813
 20
191.40201704576631
 30
0.0
 11
74.001511046662813
 21
177.62201735749861
 31
0.0
  0
LINE
  5
20B57
  8
0
 10
84.001508960500246
 20
177.62201707070651
 30
0.0
 11
84.001508960500246
 21
191.40201704576631
 31
0.0
  0
LINE
  5
20B58
  8
0
 10
84.001508960500246
 20
230.70201547816399
 30
0.0
 11
84.001508960500345
 21
244.12201615050449
 31
0.0
  0
LINE
  5
20B59
  8
0
 10
84.001508960500345
 20
244.12201615050449
 30
0.0
 11
83.501507947221384
 21
244.62201716378351
 31
0.0
  0
LINE
  5
20B5A
  8
0
 10
74.501504609361291
 20
244.62201716378351
 30
0.0
 11
74.001511046662813
 21
244.12201615050449
 31
0.0
  0
ARC
  5
20B5B
  8
0
 10
89.702328693069376
 20
172.49608646753029
 30
0.0
 40
0.5000000000000476
 50
345.46554491946159
 51
40.36453657309621
  0
ARC
  5
20B5C
  8
0
 10
68.300687189949258
 20
172.49608646753029
 30
0.0
 40
0.4999999999999927
 50
139.6354634269033
 51
194.5344550805417
  0
LINE
  5
20B5D
  8
0
 10
67.81669468618918
 20
172.370605543256
 30
0.0
 11
71.154405781999117
 21
159.49653638526809
 31
0.0
  0
LINE
  5
20B5E
  8
0
 10
86.848606774583445
 20
159.49653638526809
 30
0.0
 11
90.186325320973992
 21
172.370605543256
 31
0.0
  0
LINE
  5
20B5F
  8
0
 10
90.083298692479715
 20
172.819910477847
 30
0.0
 11
86.600502440705895
 21
176.91731350496431
 31
0.0
  0
LINE
  5
20B60
  8
0
 10
71.40251011587668
 20
176.91731350496431
 30
0.0
 11
67.919721314683443
 21
172.819910477847
 31
0.0
  0
ARC
  5
20B61
  8
0
 10
86.364606990361835
 20
159.6220170428013
 30
0.0
 40
0.5000000000000476
 50
270.0
 51
345.46554491946159
  0
ARC
  5
20B62
  8
0
 10
71.638408892656798
 20
159.6220170428013
 30
0.0
 40
0.5
 50
194.5344550805417
 51
270.0
  0
ARC
  5
20B63
  8
0
 10
85.076626991827993
 20
175.6220170428013
 30
0.0
 40
2.0
 50
40.364536573096657
 51
90.0
  0
ARC
  5
20B64
  8
0
 10
72.926388891190754
 20
175.6220170428013
 30
0.0
 40
2.000000000000028
 50
90.0
 51
139.6354634269033
  0
LINE
  5
20B65
  8
0
 10
84.001508960500345
 20
244.12201615050449
 30
0.0
 11
74.001511046662813
 21
244.12201615050449
 31
0.0
  0
LINE
  5
20B66
  8
0
 10
83.501507947221384
 20
244.6220171637834
 30
0.0
 11
74.501504609361291
 21
244.62201716378351
 31
0.0
  0
LINE
  5
20B67
  8
0
 10
86.364883176355988
 20
159.12201711908
 30
0.0
 11
71.638408892656798
 21
159.12201711908
 31
0.0
  0
LINE
  5
20B68
  8
0
 10
85.076626991827993
 20
177.6220170428013
 30
0.0
 11
72.926388891190754
 21
177.6220170428013
 31
0.0
  0
LINE
  5
20B69
  8
0
 10
90.083298521720508
 20
172.819910477847
 30
0.0
 11
67.919721314683443
 21
172.819910477847
 31
0.0
  0
LINE
  5
20B6A
  8
0
 10
90.186325320973992
 20
172.370605543256
 30
0.0
 11
67.81669468618918
 21
172.370605543256
 31
0.0
  0
LINE
  5
20B6B
  8
3
 10
74.813506278290788
 20
177.62201730918531
 30
0.0
 11
74.813506278290788
 21
191.40201704576609
 31
0.0
  0
LINE
  5
20B6C
  8
3
 10
74.813506278291243
 20
230.7020154781639
 30
0.0
 11
74.813506278291243
 21
244.62201716378351
 31
0.0
  0
LINE
  5
20B6D
  8
3
 10
83.189506278291219
 20
177.62201709178231
 30
0.0
 11
83.189506278291219
 21
191.4020170457662
 31
0.0
  0
LINE
  5
20B6E
  8
3
 10
83.189506278291333
 20
230.70201547816399
 30
0.0
 11
83.189506278291447
 21
244.6220171637834
 31
0.0
  0
ARC
  5
20B6F
  8
0
 10
74.543993859892325
 20
190.80573379634529
 30
0.0
 40
8.1989079276943038
 50
57.066083762533609
 51
88.549717154033075
  0
POLYLINE
  5
20B70
  8
0
 66
     1
 10
0.0
 20
0.0
 30
0.0
 70
   128
  0
VERTEX
  5
21058
  8
0
 10
74.751504184678197
 20
199.00201531127121
 30
0.0
  0
VERTEX
  5
21059
  8
0
 10
72.114143939688802
 20
198.47293840721281
 30
0.0
  0
VERTEX
  5
2105A
  8
0
 10
70.501506747677922
 20
197.68706234172009
 30
0.0
  0
SEQEND
  5
2105B
  8
0
  0
ARC
  5
20B71
  8
0
 10
74.959018899987313
 20
199.59830012287381
 30
0.0
 40
8.1989096004985971
 50
237.0660857960045
 51
268.54968675822141
  0
POLYLINE
  5
20B72
  8
0
 66
     1
 10
0.0
 20
0.0
 30
0.0
 70
   128
  0
VERTEX
  5
2105C
  8
0
 10
74.751504184678197
 20
191.4020170457664
 30
0.0
  0
VERTEX
  5
2105D
  8
0
 10
77.388868154957891
 20
191.9310939498248
 30
0.0
  0
VERTEX
  5
2105E
  8
0
 10
79.00150534696877
 20
192.71697001531749
 30
0.0
  0
SEQEND
  5
2105F
  8
0
  0
LINE
  5
20B73
  8
0
 10
79.00150534696877
 20
192.71697001531749
 30
0.0
 11
79.00150534696877
 21
197.68706234172009
 31
0.0
  0
POLYLINE
  5
20B74
  8
0
 66
     1
 10
0.0
 20
0.0
 30
0.0
 70
   128
  0
VERTEX
  5
21060
  8
0
 10
83.251506509259343
 20
199.00201531127121
 30
0.0
  0
VERTEX
  5
21061
  8
0
 10
80.614146264269934
 20
198.47293840721281
 30
0.0
  0
VERTEX
  5
21062
  8
0
 10
79.00150534696877
 20
197.68706234172009
 30
0.0
  0
SEQEND
  5
21063
  8
0
  0
ARC
  5
20B75
  8
0
 10
83.459019208120139
 20
199.59830623383439
 30
0.0
 40
8.1989156584654257
 50
237.06609899062951
 51
268.5497019259393
  0
ARC
  5
20B76
  8
0
 10
83.043992802175353
 20
190.80572917868631
 30
0.0
 40
8.1989126294790928
 50
57.066092393308907
 51
88.549694342086894
  0
POLYLINE
  5
20B77
  8
0
 66
     1
 10
0.0
 20
0.0
 30
0.0
 70
   128
  0
VERTEX
  5
21064
  8
0
 10
83.251506509259343
 20
191.4020170457664
 30
0.0
  0
VERTEX
  5
21065
  8
0
 10
85.888866754248724
 20
191.9310939498248
 30
0.0
  0
VERTEX
  5
21066
  8
0
 10
87.501505808904767
 20
192.71697001531749
 30
0.0
  0
SEQEND
  5
21067
  8
0
  0
LINE
  5
20B78
  8
0
 10
70.501506747677922
 20
191.4020170457664
 30
0.0
 11
70.501506747677922
 21
199.00201531127109
 31
0.0
  0
LINE
  5
20B79
  8
0
 10
87.501505808904767
 20
191.40201704576631
 30
0.0
 11
70.501506747677922
 21
191.4020170457664
 31
0.0
  0
LINE
  5
20B7A
  8
0
 10
87.501505808904767
 20
199.00201531127109
 30
0.0
 11
87.501505808904767
 21
191.4020170457664
 31
0.0
  0
ARC
  5
20B7B
  8
0
 10
70.301504713715303
 20
223.9475879497829
 30
0.0
 40
0.7000000000000455
 50
270.0
 51
286.60172332292092
  0
ARC
  5
20B7C
  8
0
 10
88.301521222900874
 20
234.5475669635926
 30
0.0
 40
0.7000000000000454
 50
359.99988577145888
 51
89.999885771460512
  0
ARC
  5
20B7D
  8
0
 10
88.30150009006104
 20
223.9475669636137
 30
0.0
 40
0.7000000000000171
 50
269.99988577146053
 51
359.99988577145888
  0
ARC
  5
20B7E
  8
0
 10
87.701521222901974
 20
234.54756815979101
 30
0.0
 40
0.7000000000000454
 50
89.999885771460512
 51
169.17246646395469
  0
LINE
  5
20B7F
  8
0
 10
88.301498170069067
 20
223.24756811529261
 30
0.0
 11
87.701499189309729
 21
223.247569311489
 31
0.0
  0
LINE
  5
20B80
  8
0
 10
87.701523113275684
 20
235.24756755312831
 30
0.0
 11
88.301522094035136
 21
235.2475663569318
 31
0.0
  0
LINE
  5
20B81
  8
0
 10
89.001521372007474
 20
234.5475680131247
 30
0.0
 11
89.001500090059594
 21
223.94756556804879
 31
0.0
  0
ARC
  5
20B82
  8
0
 10
87.701500090067157
 20
223.9475706049096
 30
0.0
 40
0.7000000000000454
 50
253.3981624485462
 51
269.99988577146053
  0
LINE
  5
20B83
  8
0
 10
88.614188553765416
 20
201.50535451248311
 30
0.0
 11
69.388824002817273
 21
201.50535451248311
 31
0.0
  0
ARC
  5
20B84
  8
0
 10
88.301507842867409
 20
204.1877248357923
 30
0.0
 40
0.6999999999999887
 50
0.0
 51
63.468694147034057
  0
LINE
  5
20B85
  8
0
 10
89.001507842867454
 20
204.1877248357923
 30
0.0
 11
89.001507965909127
 21
202.2699711416879
 31
0.0
  0
ARC
  5
20B86
  8
0
 10
88.301507656425656
 20
189.25951704450389
 30
0.0
 40
0.6999999999999887
 50
270.0
 51
0.0
  0
ARC
  5
20B87
  8
0
 10
87.701507656425747
 20
189.25951704450389
 30
0.0
 40
0.6999999999999887
 50
180.0
 51
270.0
  0
LINE
  5
20B88
  8
0
 10
88.301508684787237
 20
188.55951623991149
 30
0.0
 11
87.701505978736364
 21
188.55951623991149
 31
0.0
  0
LINE
  5
20B89
  8
0
 10
87.001506658270955
 20
176.44554332631469
 30
0.0
 11
87.001506658270955
 21
191.40201704576631
 31
0.0
  0
LINE
  5
20B8A
  8
0
 10
89.001509353086703
 20
199.1207625241201
 30
0.0
 11
89.001507656425687
 21
189.25951704450389
 31
0.0
  0
ARC
  5
20B8B
  8
0
 10
88.301507653809153
 20
182.96331704450381
 30
0.0
 40
0.6999999999999887
 50
0.0
 51
90.0
  0
ARC
  5
20B8C
  8
0
 10
87.701507653809131
 20
182.96331704450381
 30
0.0
 40
0.7000000000000171
 50
90.0
 51
180.0
  0
LINE
  5
20B8D
  8
0
 10
87.701505976119847
 20
183.66331690922391
 30
0.0
 11
88.301508682170734
 21
183.66331690922391
 31
0.0
  0
LINE
  5
20B8E
  8
0
 10
89.001507653809085
 20
182.96331704450381
 30
0.0
 11
89.001509381524556
 21
174.0925963977802
 31
0.0
  0
LINE
  5
20B8F
  8
1
 10
79.001646034506393
 20
153.0030125565828
 30
0.0
 11
79.001646034506621
 21
249.62201716378351
 31
0.0
  0
LINE
  5
20B90
  8
1
 10
100.50315056324661
 20
156.0030125565828
 30
0.0
 11
100.50315056324661
 21
164.00301228091121
 31
0.0
  0
LINE
  5
20B91
  8
1
 10
98.503150563246777
 20
156.0030125565828
 30
0.0
 11
98.503150563246777
 21
164.00301228091121
 31
0.0
  0
LINE
  5
20B92
  8
1
 10
59.500141380233913
 20
156.0030125565828
 30
0.0
 11
59.500141380233799
 21
164.00301228091129
 31
0.0
  0
LINE
  5
20B93
  8
1
 10
57.500141380233799
 20
156.0030125565828
 30
0.0
 11
57.500141380233799
 21
164.00301228091129
 31
0.0
  0
LINE
  5
20BDF
  8
0
 10
360.97374828536567
 20
334.5109323039602
 30
0.0
 11
356.05817930776561
 21
334.31229237466022
 31
0.0
  0
LINE
  5
20BE0
  8
0
 10
420.88608713826551
 20
336.92074809226023
 30
0.0
 11
369.0536086447658
 21
334.82948560266021
 31
0.0
  0
ARC
  5
20BE1
  8
0
 10
426.18999931034318
 20
323.6392594870249
 30
0.0
 40
13.708981623885229
 50
359.9342254178103
 51
37.956970468532333
  0
ARC
  5
20BE2
  8
0
 10
426.64335391307782
 20
323.84994847736061
 30
0.0
 40
13.22241592510021
 50
38.445426954892334
 51
60.198002797305222
  0
ARC
  5
20BE3
  8
0
 10
426.41870805206048
 20
323.44881451509951
 30
0.0
 40
13.68214982591363
 50
60.216550823662502
 51
84.754956587084848
  0
LINE
  5
20BE4
  8
0
 10
427.66946824276579
 20
337.07367498426021
 30
0.0
 11
422.75051297626578
 21
336.98759097606018
 31
0.0
  0
LINE
  5
20BE5
  8
0
 10
368.96836655216561
 20
333.33181831986019
 30
0.0
 11
361.21544139466567
 21
333.01673326646011
 31
0.0
  0
POLYLINE
  5
20BE6
  8
0
 66
     1
 10
0.0
 20
0.0
 30
0.0
 70
   128
  0
VERTEX
  5
21068
  8
0
 10
430.81447752196573
 20
332.87557829176018
 30
0.0
  0
VERTEX
  5
21069
  8
0
 10
430.3626147099655
 20
333.10213554656019
 30
0.0
  0
VERTEX
  5
2106A
  8
0
 10
429.95557459076582
 20
333.38723573836018
 30
0.0
  0
VERTEX
  5
2106B
  8
0
 10
429.63178725916572
 20
333.70921630416018
 30
0.0
  0
VERTEX
  5
2106C
  8
0
 10
429.4512149878658
 20
334.00370422756021
 30
0.0
  0
VERTEX
  5
2106D
  8
0
 10
429.40661581236583
 20
334.2766078188601
 30
0.0
  0
VERTEX
  5
2106E
  8
0
 10
429.52595921236571
 20
334.47424564516018
 30
0.0
  0
VERTEX
  5
2106F
  8
0
 10
429.77668615066568
 20
334.5785500481602
 30
0.0
  0
VERTEX
  5
21070
  8
0
 10
430.15948208056568
 20
334.58798248326019
 30
0.0
  0
VERTEX
  5
21071
  8
0
 10
430.5998709984658
 20
334.49145648626018
 30
0.0
  0
VERTEX
  5
21072
  8
0
 10
430.74756385766563
 20
334.4403641298602
 30
0.0
  0
VERTEX
  5
21073
  8
0
 10
431.21158601716559
 20
334.22215897586022
 30
0.0
  0
VERTEX
  5
21074
  8
0
 10
431.62596495826568
 20
333.9338364079602
 30
0.0
  0
VERTEX
  5
21075
  8
0
 10
431.93178148946572
 20
333.62364266066021
 30
0.0
  0
VERTEX
  5
21076
  8
0
 10
432.12321670726578
 20
333.29410720616022
 30
0.0
  0
VERTEX
  5
21077
  8
0
 10
432.14815380056569
 20
333.03036410366019
 30
0.0
  0
VERTEX
  5
21078
  8
0
 10
432.0323866792657
 20
332.83303175126019
 30
0.0
  0
VERTEX
  5
21079
  8
0
 10
431.76606567576567
 20
332.71825183186019
 30
0.0
  0
VERTEX
  5
2107A
  8
0
 10
431.40020491556578
 20
332.71720875056019
 30
0.0
  0
VERTEX
  5
2107B
  8
0
 10
430.94828994946579
 20
332.82544706016017
 30
0.0
  0
VERTEX
  5
2107C
  8
0
 10
430.81447752196573
 20
332.87557829176018
 30
0.0
  0
SEQEND
  5
2107D
  8
0
  0
POLYLINE
  5
20BE7
  8
0
 66
     1
 10
0.0
 20
0.0
 30
0.0
 70
   128
  0
VERTEX
  5
2107E
  8
0
 10
417.34534772116581
 20
331.1848962679602
 30
0.0
  0
VERTEX
  5
2107F
  8
0
 10
416.7593968101657
 20
331.25076685106018
 30
0.0
  0
VERTEX
  5
21080
  8
0
 10
416.32776977496559
 20
331.43430072816022
 30
0.0
  0
VERTEX
  5
21081
  8
0
 10
416.01212592796549
 20
331.71407002956022
 30
0.0
  0
VERTEX
  5
21082
  8
0
 10
415.85570098836558
 20
332.0229636505602
 30
0.0
  0
VERTEX
  5
21083
  8
0
 10
415.8487644978656
 20
332.37097654496017
 30
0.0
  0
VERTEX
  5
21084
  8
0
 10
416.01356389006583
 20
332.68198613076021
 30
0.0
  0
VERTEX
  5
21085
  8
0
 10
416.31727190696569
 20
332.93334636836022
 30
0.0
  0
VERTEX
  5
21086
  8
0
 10
416.75842078406572
 20
333.11979342256018
 30
0.0
  0
VERTEX
  5
21087
  8
0
 10
417.24463822326561
 20
333.20278171446017
 30
0.0
  0
VERTEX
  5
21088
  8
0
 10
417.33773322776568
 20
333.20785555986021
 30
0.0
  0
VERTEX
  5
21089
  8
0
 10
417.92238773786562
 20
333.16220212726017
 30
0.0
  0
VERTEX
  5
2108A
  8
0
 10
418.35680129006568
 20
333.01244173196022
 30
0.0
  0
VERTEX
  5
2108B
  8
0
 10
418.67223652086562
 20
332.78177175676018
 30
0.0
  0
VERTEX
  5
2108C
  8
0
 10
418.84174467996559
 20
332.47105274346018
 30
0.0
  0
VERTEX
  5
2108D
  8
0
 10
418.83279653266561
 20
332.16079194096022
 30
0.0
  0
VERTEX
  5
2108E
  8
0
 10
418.6762002297657
 20
331.83502648026018
 30
0.0
  0
VERTEX
  5
2108F
  8
0
 10
418.35518451416573
 20
331.52225110676022
 30
0.0
  0
VERTEX
  5
21090
  8
0
 10
417.92773725466549
 20
331.30139354616023
 30
0.0
  0
VERTEX
  5
21091
  8
0
 10
417.41509260616562
 20
331.18914682416022
 30
0.0
  0
VERTEX
  5
21092
  8
0
 10
417.34534772116581
 20
331.1848962679602
 30
0.0
  0
SEQEND
  5
21093
  8
0
  0
POLYLINE
  5
20BE8
  8
0
 66
     1
 10
0.0
 20
0.0
 30
0.0
 70
   128
  0
VERTEX
  5
21094
  8
0
 10
426.31203206256578
 20
336.03166285906019
 30
0.0
  0
VERTEX
  5
21095
  8
0
 10
425.81641199076569
 20
336.0917890444602
 30
0.0
  0
VERTEX
  5
21096
  8
0
 10
425.3661361523657
 20
336.1777501180602
 30
0.0
  0
VERTEX
  5
21097
  8
0
 10
424.99934406956572
 20
336.28420773896011
 30
0.0
  0
VERTEX
  5
21098
  8
0
 10
424.78840323166582
 20
336.39141041786019
 30
0.0
  0
VERTEX
  5
21099
  8
0
 10
424.72283067186572
 20
336.50489021096018
 30
0.0
  0
VERTEX
  5
2109A
  8
0
 10
424.83734609566562
 20
336.61180976776018
 30
0.0
  0
VERTEX
  5
2109B
  8
0
 10
425.10748179636551
 20
336.69854197656019
 30
0.0
  0
VERTEX
  5
2109C
  8
0
 10
425.52185328686568
 20
336.7593275383602
 30
0.0
  0
VERTEX
  5
2109D
  8
0
 10
425.98198624336578
 20
336.7772424593602
 30
0.0
  0
VERTEX
  5
2109E
  8
0
 10
426.13142253836583
 20
336.77450437096007
 30
0.0
  0
VERTEX
  5
2109F
  8
0
 10
426.63108827546569
 20
336.73562724146018
 30
0.0
  0
VERTEX
  5
210A0
  8
0
 10
427.08330126486561
 20
336.65114510806018
 30
0.0
  0
VERTEX
  5
210A1
  8
0
 10
427.42022396996572
 20
336.53862271456018
 30
0.0
  0
VERTEX
  5
210A2
  8
0
 10
427.6540604420656
 20
336.39540392906019
 30
0.0
  0
VERTEX
  5
210A3
  8
0
 10
427.71760644396568
 20
336.25319469716021
 30
0.0
  0
VERTEX
  5
210A4
  8
0
 10
427.60800095276568
 20
336.12997699526022
 30
0.0
  0
VERTEX
  5
210A5
  8
0
 10
427.32743443926569
 20
336.04582641276011
 30
0.0
  0
VERTEX
  5
210A6
  8
0
 10
426.9501146860656
 20
336.0124925151602
 30
0.0
  0
VERTEX
  5
210A7
  8
0
 10
426.47131802516577
 20
336.02020014076021
 30
0.0
  0
VERTEX
  5
210A8
  8
0
 10
426.31203206256578
 20
336.03166285906019
 30
0.0
  0
SEQEND
  5
210A9
  8
0
  0
POLYLINE
  5
20BE9
  8
0
 66
     1
 10
0.0
 20
0.0
 30
0.0
 70
   128
  0
VERTEX
  5
210AA
  8
0
 10
426.40485139566562
 20
330.97939807926019
 30
0.0
  0
VERTEX
  5
210AB
  8
0
 10
425.91450633486579
 20
331.13359156996017
 30
0.0
  0
VERTEX
  5
210AC
  8
0
 10
425.4836169071657
 20
331.3904801383602
 30
0.0
  0
VERTEX
  5
210AD
  8
0
 10
425.15452476226568
 20
331.73066619786022
 30
0.0
  0
VERTEX
  5
210AE
  8
0
 10
424.98367549856562
 20
332.08464700726029
 30
0.0
  0
VERTEX
  5
210AF
  8
0
 10
424.96438594536562
 20
332.45707545426018
 30
0.0
  0
VERTEX
  5
210B0
  8
0
 10
425.12138457976579
 20
332.77554679666019
 30
0.0
  0
VERTEX
  5
210B1
  8
0
 10
425.41665853936559
 20
333.00632108006022
 30
0.0
  0
VERTEX
  5
210B2
  8
0
 10
425.84841968496551
 20
333.1455798819602
 30
0.0
  0
VERTEX
  5
210B3
  8
0
 10
426.3266277499655
 20
333.15825704486019
 30
0.0
  0
VERTEX
  5
210B4
  8
0
 10
426.47781493146562
 20
333.13906062396018
 30
0.0
  0
VERTEX
  5
210B5
  8
0
 10
426.97028340776569
 20
333.00186935816021
 30
0.0
  0
VERTEX
  5
210B6
  8
0
 10
427.40345271306558
 20
332.75663349776022
 30
0.0
  0
VERTEX
  5
210B7
  8
0
 10
427.71724136546572
 20
332.4467340484602
 30
0.0
  0
VERTEX
  5
210B8
  8
0
 10
427.91030080996569
 20
332.06603173166019
 30
0.0
  0
VERTEX
  5
210B9
  8
0
 10
427.92537333446552
 20
331.6965350881602
 30
0.0
  0
VERTEX
  5
210BA
  8
0
 10
427.77616800746563
 20
331.36441055686021
 30
0.0
  0
VERTEX
  5
210BB
  8
0
 10
427.46465178206557
 20
331.10632989556018
 30
0.0
  0
VERTEX
  5
210BC
  8
0
 10
427.06338586286569
 20
330.9740746393602
 30
0.0
  0
VERTEX
  5
210BD
  8
0
 10
426.5738380141658
 20
330.95587287096021
 30
0.0
  0
VERTEX
  5
210BE
  8
0
 10
426.40485139566562
 20
330.97939807926019
 30
0.0
  0
SEQEND
  5
210BF
  8
0
  0
POLYLINE
  5
20BEA
  8
0
 66
     1
 10
0.0
 20
0.0
 30
0.0
 70
   128
  0
VERTEX
  5
210C0
  8
0
 10
403.73766692356571
 20
333.33903048186022
 30
0.0
  0
VERTEX
  5
210C1
  8
0
 10
403.2402959652656
 20
333.3559321239602
 30
0.0
  0
VERTEX
  5
210C2
  8
0
 10
402.79625626286571
 20
333.45665652306019
 30
0.0
  0
VERTEX
  5
210C3
  8
0
 10
402.44911881166581
 20
333.6324790492601
 30
0.0
  0
VERTEX
  5
210C4
  8
0
 10
402.26274998866569
 20
333.83831251416018
 30
0.0
  0
VERTEX
  5
210C5
  8
0
 10
402.22808988766559
 20
334.07225329426018
 30
0.0
  0
VERTEX
  5
210C6
  8
0
 10
402.37015755856578
 20
334.28612593566021
 30
0.0
  0
VERTEX
  5
210C7
  8
0
 10
402.65127541506558
 20
334.45945624266022
 30
0.0
  0
VERTEX
  5
210C8
  8
0
 10
403.07069094856558
 20
334.59490779786017
 30
0.0
  0
VERTEX
  5
210C9
  8
0
 10
403.54589642956552
 20
334.66597516086023
 30
0.0
  0
VERTEX
  5
210CA
  8
0
 10
403.70452674106559
 20
334.67630911616021
 30
0.0
  0
VERTEX
  5
210CB
  8
0
 10
404.20504184446582
 20
334.66880638156022
 30
0.0
  0
VERTEX
  5
210CC
  8
0
 10
404.65004267176568
 20
334.59593970326023
 30
0.0
  0
VERTEX
  5
210CD
  8
0
 10
404.98065473516561
 20
334.46815107016022
 30
0.0
  0
VERTEX
  5
210CE
  8
0
 10
405.18528493126558
 20
334.2784071341602
 30
0.0
  0
VERTEX
  5
210CF
  8
0
 10
405.20940991126571
 20
334.06637851146019
 30
0.0
  0
VERTEX
  5
210D0
  8
0
 10
405.07704289636553
 20
333.8405737653602
 30
0.0
  0
VERTEX
  5
210D1
  8
0
 10
404.7814858146657
 20
333.61906800416023
 30
0.0
  0
VERTEX
  5
210D2
  8
0
 10
404.38837828116561
 20
333.4563063457602
 30
0.0
  0
VERTEX
  5
210D3
  8
0
 10
403.90135617926552
 20
333.35342500356018
 30
0.0
  0
VERTEX
  5
210D4
  8
0
 10
403.73766692356571
 20
333.33903048186022
 30
0.0
  0
SEQEND
  5
210D5
  8
0
  0
POLYLINE
  5
20BEB
  8
0
 66
     1
 10
0.0
 20
0.0
 30
0.0
 70
   128
  0
VERTEX
  5
210D6
  8
0
 10
421.8807023950655
 20
334.2082412913602
 30
0.0
  0
VERTEX
  5
210D7
  8
0
 10
421.3736382313657
 20
334.23248548066022
 30
0.0
  0
VERTEX
  5
210D8
  8
0
 10
420.92149974786571
 20
334.33543760326017
 30
0.0
  0
VERTEX
  5
210D9
  8
0
 10
420.56787284096561
 20
334.50736720116021
 30
0.0
  0
VERTEX
  5
210DA
  8
0
 10
420.37430675706548
 20
334.70726627856021
 30
0.0
  0
VERTEX
  5
210DB
  8
0
 10
420.34042151646571
 20
334.9294127896602
 30
0.0
  0
VERTEX
  5
210DC
  8
0
 10
420.48631133516568
 20
335.12647319586023
 30
0.0
  0
VERTEX
  5
210DD
  8
0
 10
420.77201129876562
 20
335.28598640116019
 30
0.0
  0
VERTEX
  5
210DE
  8
0
 10
421.19784178216582
 20
335.41029188786018
 30
0.0
  0
VERTEX
  5
210DF
  8
0
 10
421.67559536176549
 20
335.4746351018602
 30
0.0
  0
VERTEX
  5
210E0
  8
0
 10
421.8314838596657
 20
335.48373971136022
 30
0.0
  0
VERTEX
  5
210E1
  8
0
 10
422.34067888936551
 20
335.47550309446018
 30
0.0
  0
VERTEX
  5
210E2
  8
0
 10
422.7933687158656
 20
335.40385831146023
 30
0.0
  0
VERTEX
  5
210E3
  8
0
 10
423.13037337736557
 20
335.27786899356022
 30
0.0
  0
VERTEX
  5
210E4
  8
0
 10
423.33986880266571
 20
335.09113509206009
 30
0.0
  0
VERTEX
  5
210E5
  8
0
 10
423.36806925016572
 20
334.8811032250602
 30
0.0
  0
VERTEX
  5
210E6
  8
0
 10
423.23141815146568
 20
334.65763796126021
 30
0.0
  0
VERTEX
  5
210E7
  8
0
 10
422.9293194599656
 20
334.45081729446019
 30
0.0
  0
VERTEX
  5
210E8
  8
0
 10
422.53899099306562
 20
334.30749792606019
 30
0.0
  0
VERTEX
  5
210E9
  8
0
 10
422.0517453737657
 20
334.2195997014602
 30
0.0
  0
VERTEX
  5
210EA
  8
0
 10
421.8807023950655
 20
334.2082412913602
 30
0.0
  0
SEQEND
  5
210EB
  8
0
  0
POLYLINE
  5
20BEC
  8
0
 66
     1
 10
0.0
 20
0.0
 30
0.0
 70
   128
  0
VERTEX
  5
210EC
  8
0
 10
417.2378954477656
 20
335.74545998126018
 30
0.0
  0
VERTEX
  5
210ED
  8
0
 10
416.73781992876559
 20
335.74636522686018
 30
0.0
  0
VERTEX
  5
210EE
  8
0
 10
416.29144819456559
 20
335.79096440226022
 30
0.0
  0
VERTEX
  5
210EF
  8
0
 10
415.93615235766561
 20
335.87410915646018
 30
0.0
  0
VERTEX
  5
210F0
  8
0
 10
415.7376763411657
 20
335.97507942466018
 30
0.0
  0
VERTEX
  5
210F1
  8
0
 10
415.70133985956562
 20
336.08765024696021
 30
0.0
  0
VERTEX
  5
210F2
  8
0
 10
415.84511371336561
 20
336.18802819406022
 30
0.0
  0
VERTEX
  5
210F3
  8
0
 10
416.12553866586558
 20
336.27027887856019
 30
0.0
  0
VERTEX
  5
210F4
  8
0
 10
416.54507340866581
 20
336.3380381837602
 30
0.0
  0
VERTEX
  5
210F5
  8
0
 10
417.01580854136569
 20
336.37876305726019
 30
0.0
  0
VERTEX
  5
210F6
  8
0
 10
417.16123642406558
 20
336.38628441846009
 30
0.0
  0
VERTEX
  5
210F7
  8
0
 10
417.66481371596569
 20
336.3955231383602
 30
0.0
  0
VERTEX
  5
210F8
  8
0
 10
418.1134727783658
 20
336.37472484266021
 30
0.0
  0
VERTEX
  5
210F9
  8
0
 10
418.44696821646562
 20
336.32546160366019
 30
0.0
  0
VERTEX
  5
210FA
  8
0
 10
418.65907879546569
 20
336.24178785836023
 30
0.0
  0
VERTEX
  5
210FB
  8
0
 10
418.6918613501656
 20
336.13704014566019
 30
0.0
  0
VERTEX
  5
210FC
  8
0
 10
418.55830969296562
 20
336.01802084596022
 30
0.0
  0
VERTEX
  5
210FD
  8
0
 10
418.26034607366569
 20
335.9010355547602
 30
0.0
  0
VERTEX
  5
210FE
  8
0
 10
417.87769170486581
 20
335.81475783136023
 30
0.0
  0
VERTEX
  5
210FF
  8
0
 10
417.39937933166561
 20
335.75538415466019
 30
0.0
  0
VERTEX
  5
21100
  8
0
 10
417.2378954477656
 20
335.74545998126018
 30
0.0
  0
SEQEND
  5
21101
  8
0
  0
POLYLINE
  5
20BED
  8
0
 66
     1
 10
0.0
 20
0.0
 30
0.0
 70
   128
  0
VERTEX
  5
21102
  8
0
 10
390.18930764876558
 20
334.58759132776009
 30
0.0
  0
VERTEX
  5
21103
  8
0
 10
389.69351621346573
 20
334.59408823406022
 30
0.0
  0
VERTEX
  5
21104
  8
0
 10
389.2526206560658
 20
334.6530074253601
 30
0.0
  0
VERTEX
  5
21105
  8
0
 10
388.90816541396572
 20
334.7575651481601
 30
0.0
  0
VERTEX
  5
21106
  8
0
 10
388.72374864296557
 20
334.87944547086022
 30
0.0
  0
VERTEX
  5
21107
  8
0
 10
388.69322361426572
 20
335.01464370636018
 30
0.0
  0
VERTEX
  5
21108
  8
0
 10
388.83951576426563
 20
335.13531330976019
 30
0.0
  0
VERTEX
  5
21109
  8
0
 10
389.12489535296572
 20
335.23196224126019
 30
0.0
  0
VERTEX
  5
2110A
  8
0
 10
389.5472538657657
 20
335.30793208626022
 30
0.0
  0
VERTEX
  5
2110B
  8
0
 10
390.02145351846571
 20
335.3509778156602
 30
0.0
  0
VERTEX
  5
2110C
  8
0
 10
390.1758295484658
 20
335.35856250676022
 30
0.0
  0
VERTEX
  5
2110D
  8
0
 10
390.67399771886562
 20
335.36326382306021
 30
0.0
  0
VERTEX
  5
2110E
  8
0
 10
391.11580969766578
 20
335.33337954436018
 30
0.0
  0
VERTEX
  5
2110F
  8
0
 10
391.44134791576562
 20
335.27133110916031
 30
0.0
  0
VERTEX
  5
21110
  8
0
 10
391.64480092006562
 20
335.16955617816018
 30
0.0
  0
VERTEX
  5
21111
  8
0
 10
391.66837455706559
 20
335.0465955212602
 30
0.0
  0
VERTEX
  5
21112
  8
0
 10
391.5326175280656
 20
334.90937445316018
 30
0.0
  0
VERTEX
  5
21113
  8
0
 10
391.23329045256583
 20
334.77090541276021
 30
0.0
  0
VERTEX
  5
21114
  8
0
 10
390.83949001506562
 20
334.66664571316022
 30
0.0
  0
VERTEX
  5
21115
  8
0
 10
390.35383882006568
 20
334.5981189981602
 30
0.0
  0
VERTEX
  5
21116
  8
0
 10
390.18930764876558
 20
334.58759132776009
 30
0.0
  0
SEQEND
  5
21117
  8
0
  0
POLYLINE
  5
20BEE
  8
0
 66
     1
 10
0.0
 20
0.0
 30
0.0
 70
   128
  0
VERTEX
  5
21118
  8
0
 10
394.74102379756579
 20
332.8152323141602
 30
0.0
  0
VERTEX
  5
21119
  8
0
 10
394.24541117626569
 20
332.83499497926022
 30
0.0
  0
VERTEX
  5
2111A
  8
0
 10
393.80251141266558
 20
332.94286821036019
 30
0.0
  0
VERTEX
  5
2111B
  8
0
 10
393.45386894426571
 20
333.13031736766021
 30
0.0
  0
VERTEX
  5
2111C
  8
0
 10
393.26507868246563
 20
333.35005734116021
 30
0.0
  0
VERTEX
  5
2111D
  8
0
 10
393.22791518646568
 20
333.59990138566019
 30
0.0
  0
VERTEX
  5
2111E
  8
0
 10
393.36820216856557
 20
333.82890988146022
 30
0.0
  0
VERTEX
  5
2111F
  8
0
 10
393.64827694376572
 20
334.0143697336602
 30
0.0
  0
VERTEX
  5
21120
  8
0
 10
394.0667090006657
 20
334.15906373416021
 30
0.0
  0
VERTEX
  5
21121
  8
0
 10
394.54148234806581
 20
334.23469457776019
 30
0.0
  0
VERTEX
  5
21122
  8
0
 10
394.70067145306581
 20
334.24558360126019
 30
0.0
  0
VERTEX
  5
21123
  8
0
 10
395.19920470196581
 20
334.23669133336023
 30
0.0
  0
VERTEX
  5
21124
  8
0
 10
395.64302088696581
 20
334.15771145376021
 30
0.0
  0
VERTEX
  5
21125
  8
0
 10
395.97254516556569
 20
334.02054999026018
 30
0.0
  0
VERTEX
  5
21126
  8
0
 10
396.17965640506583
 20
333.81717521696021
 30
0.0
  0
VERTEX
  5
21127
  8
0
 10
396.20787175376591
 20
333.5886919870602
 30
0.0
  0
VERTEX
  5
21128
  8
0
 10
396.07819439846571
 20
333.34622774276022
 30
0.0
  0
VERTEX
  5
21129
  8
0
 10
395.78449251136573
 20
333.11015982186018
 30
0.0
  0
VERTEX
  5
2112A
  8
0
 10
395.3930390067656
 20
332.93808866296018
 30
0.0
  0
VERTEX
  5
2112B
  8
0
 10
394.90740271286569
 20
332.83021915706018
 30
0.0
  0
VERTEX
  5
2112C
  8
0
 10
394.74102379756579
 20
332.8152323141602
 30
0.0
  0
SEQEND
  5
2112D
  8
0
  0
ARC
  5
20BEF
  8
0
 10
403.11962538905868
 20
340.28031351451602
 30
0.0
 40
4.2344800977816393
 50
257.10213199506461
 51
277.3901539723351
  0
POLYLINE
  5
20BF0
  8
0
 66
     1
 10
0.0
 20
0.0
 30
0.0
 70
   128
  0
VERTEX
  5
2112E
  8
0
 10
402.17443080626572
 20
336.15267146376021
 30
0.0
  0
VERTEX
  5
2112F
  8
0
 10
402.32203762769763
 20
336.17175245236632
 30
0.0
  0
SEQEND
  5
21130
  8
0
  0
POLYLINE
  5
20BF1
  8
0
 66
     1
 10
0.0
 20
0.0
 30
0.0
 70
   128
  0
VERTEX
  5
21131
  8
0
 10
404.77259074280272
 20
336.27062385418498
 30
0.0
  0
VERTEX
  5
21132
  8
0
 10
404.91795809946569
 20
336.27405259756023
 30
0.0
  0
VERTEX
  5
21133
  8
0
 10
405.11980922896572
 20
336.2669372931602
 30
0.0
  0
VERTEX
  5
21134
  8
0
 10
405.14266015966558
 20
336.24315131456018
 30
0.0
  0
VERTEX
  5
21135
  8
0
 10
405.00150145966558
 20
336.2051719799602
 30
0.0
  0
VERTEX
  5
21136
  8
0
 10
404.69669820746572
 20
336.15897838026018
 30
0.0
  0
VERTEX
  5
21137
  8
0
 10
404.30560978136572
 20
336.1191997304602
 30
0.0
  0
VERTEX
  5
21138
  8
0
 10
403.82360937076578
 20
336.08759064226018
 30
0.0
  0
VERTEX
  5
21139
  8
0
 10
403.6642861552657
 20
336.08100805436021
 30
0.0
  0
VERTEX
  5
2113A
  8
0
 10
403.6642861552657
 20
336.08100805436021
 30
0.0
  0
SEQEND
  5
2113B
  8
0
  0
POLYLINE
  5
20BF2
  8
0
 66
     1
 10
0.0
 20
0.0
 30
0.0
 70
   128
  0
VERTEX
  5
2113C
  8
0
 10
399.18776126586567
 20
334.98513568196017
 30
0.0
  0
VERTEX
  5
2113D
  8
0
 10
398.69009973486573
 20
334.99036598956019
 30
0.0
  0
VERTEX
  5
2113E
  8
0
 10
398.24784817176561
 20
335.0452134385601
 30
0.0
  0
VERTEX
  5
2113F
  8
0
 10
397.90430190046573
 20
335.14309916646022
 30
0.0
  0
VERTEX
  5
21140
  8
0
 10
397.72093566136567
 20
335.25754753506021
 30
0.0
  0
VERTEX
  5
21141
  8
0
 10
397.6916772313657
 20
335.38497854026008
 30
0.0
  0
VERTEX
  5
21142
  8
0
 10
397.83932538706563
 20
335.49882341176021
 30
0.0
  0
VERTEX
  5
21143
  8
0
 10
398.12602372846578
 20
335.59015635406018
 30
0.0
  0
VERTEX
  5
21144
  8
0
 10
398.54912729936558
 20
335.66174525766019
 30
0.0
  0
VERTEX
  5
21145
  8
0
 10
399.02131529526559
 20
335.70190016186018
 30
0.0
  0
VERTEX
  5
21146
  8
0
 10
399.1718915291658
 20
335.7087993994603
 30
0.0
  0
VERTEX
  5
21147
  8
0
 10
399.6706408448656
 20
335.71291584526023
 30
0.0
  0
VERTEX
  5
21148
  8
0
 10
400.11275084696558
 20
335.68430561576019
 30
0.0
  0
VERTEX
  5
21149
  8
0
 10
400.43850513176551
 20
335.62550563366023
 30
0.0
  0
VERTEX
  5
2114A
  8
0
 10
400.64177932226562
 20
335.52976194766018
 30
0.0
  0
VERTEX
  5
2114B
  8
0
 10
400.66532315686572
 20
335.41405443106021
 30
0.0
  0
VERTEX
  5
2114C
  8
0
 10
400.52785994486561
 20
335.28491724286022
 30
0.0
  0
VERTEX
  5
2114D
  8
0
 10
400.22708000616581
 20
335.1558471098603
 30
0.0
  0
VERTEX
  5
2114E
  8
0
 10
399.8357904143657
 20
335.05941424516021
 30
0.0
  0
VERTEX
  5
2114F
  8
0
 10
399.35245634996568
 20
334.99525729566022
 30
0.0
  0
VERTEX
  5
21150
  8
0
 10
399.18776126586567
 20
334.98513568196017
 30
0.0
  0
SEQEND
  5
21151
  8
0
  0
POLYLINE
  5
20BF3
  8
0
 66
     1
 10
0.0
 20
0.0
 30
0.0
 70
   128
  0
VERTEX
  5
21152
  8
0
 10
381.39961929996571
 20
328.83107904346019
 30
0.0
  0
VERTEX
  5
21153
  8
0
 10
380.90831683956571
 20
328.8702653720602
 30
0.0
  0
VERTEX
  5
21154
  8
0
 10
380.46517493206579
 20
329.03957236556022
 30
0.0
  0
VERTEX
  5
21155
  8
0
 10
380.1063735969658
 20
329.3314227834602
 30
0.0
  0
VERTEX
  5
21156
  8
0
 10
379.9035762436659
 20
329.67849690466022
 30
0.0
  0
VERTEX
  5
21157
  8
0
 10
379.8520890064658
 20
330.07402587686022
 30
0.0
  0
VERTEX
  5
21158
  8
0
 10
379.97823478656579
 20
330.4416486993602
 30
0.0
  0
VERTEX
  5
21159
  8
0
 10
380.24610178546573
 20
330.74217904356021
 30
0.0
  0
VERTEX
  5
2115A
  8
0
 10
380.65587626776568
 20
330.97756151106017
 30
0.0
  0
VERTEX
  5
2115B
  8
0
 10
381.12679766496581
 20
331.09706882386018
 30
0.0
  0
VERTEX
  5
2115C
  8
0
 10
381.29511000596563
 20
331.11318442976022
 30
0.0
  0
VERTEX
  5
2115D
  8
0
 10
381.79170610386558
 20
331.0870440676602
 30
0.0
  0
VERTEX
  5
2115E
  8
0
 10
382.23708318546568
 20
330.94457779076021
 30
0.0
  0
VERTEX
  5
2115F
  8
0
 10
382.57004963236568
 20
330.71164283906018
 30
0.0
  0
VERTEX
  5
21160
  8
0
 10
382.78936864816569
 20
330.37529755386021
 30
0.0
  0
VERTEX
  5
21161
  8
0
 10
382.83175872646581
 20
330.00399041926022
 30
0.0
  0
VERTEX
  5
21162
  8
0
 10
382.71520556886571
 20
329.62416727096019
 30
0.0
  0
VERTEX
  5
21163
  8
0
 10
382.43519039826589
 20
329.26493380216021
 30
0.0
  0
VERTEX
  5
21164
  8
0
 10
382.05287130556582
 20
329.00797072796018
 30
0.0
  0
VERTEX
  5
21165
  8
0
 10
381.57165320596567
 20
328.85148618376019
 30
0.0
  0
VERTEX
  5
21166
  8
0
 10
381.39961929996571
 20
328.83107904346019
 30
0.0
  0
SEQEND
  5
21167
  8
0
  0
POLYLINE
  5
20BF4
  8
0
 66
     1
 10
0.0
 20
0.0
 30
0.0
 70
   128
  0
VERTEX
  5
21168
  8
0
 10
408.3281409927655
 20
330.6815201416602
 30
0.0
  0
VERTEX
  5
21169
  8
0
 10
407.83144803726572
 20
330.71673158556018
 30
0.0
  0
VERTEX
  5
2116A
  8
0
 10
407.38499434666568
 20
330.87462056426023
 30
0.0
  0
VERTEX
  5
2116B
  8
0
 10
407.03332694256568
 20
331.14426452666021
 30
0.0
  0
VERTEX
  5
2116C
  8
0
 10
406.84329988436571
 20
331.45570252096019
 30
0.0
  0
VERTEX
  5
2116D
  8
0
 10
406.7995575256657
 20
331.81355390696018
 30
0.0
  0
VERTEX
  5
2116E
  8
0
 10
406.9323715754656
 20
332.14685562996021
 30
0.0
  0
VERTEX
  5
2116F
  8
0
 10
407.20556201416559
 20
332.41725210106023
 30
0.0
  0
VERTEX
  5
21170
  8
0
 10
407.61875631296579
 20
332.62960482386029
 30
0.0
  0
VERTEX
  5
21171
  8
0
 10
408.09989990666571
 20
332.74116609246022
 30
0.0
  0
VERTEX
  5
21172
  8
0
 10
408.27256711206559
 20
332.7567266300602
 30
0.0
  0
VERTEX
  5
21173
  8
0
 10
408.77190502366579
 20
332.73545149716023
 30
0.0
  0
VERTEX
  5
21174
  8
0
 10
409.21809794386559
 20
332.60925728826021
 30
0.0
  0
VERTEX
  5
21175
  8
0
 10
409.55035658556579
 20
332.3994265869602
 30
0.0
  0
VERTEX
  5
21176
  8
0
 10
409.76109625776581
 20
332.09575954826022
 30
0.0
  0
VERTEX
  5
21177
  8
0
 10
409.79191185906569
 20
331.76748324186019
 30
0.0
  0
VERTEX
  5
21178
  8
0
 10
409.66986389836569
 20
331.4264291897602
 30
0.0
  0
VERTEX
  5
21179
  8
0
 10
409.38505055386548
 20
331.09357450156023
 30
0.0
  0
VERTEX
  5
2117A
  8
0
 10
408.99167479956549
 20
330.84897939116019
 30
0.0
  0
VERTEX
  5
2117B
  8
0
 10
408.50253673276552
 20
330.70105183866019
 30
0.0
  0
VERTEX
  5
2117C
  8
0
 10
408.3281409927655
 20
330.6815201416602
 30
0.0
  0
SEQEND
  5
2117D
  8
0
  0
POLYLINE
  5
20BF5
  8
0
 66
     1
 10
0.0
 20
0.0
 30
0.0
 70
   128
  0
VERTEX
  5
2117E
  8
0
 10
399.3468535133656
 20
330.05207646636018
 30
0.0
  0
VERTEX
  5
2117F
  8
0
 10
398.84808929646562
 20
330.08566740906019
 30
0.0
  0
VERTEX
  5
21180
  8
0
 10
398.39899810036582
 20
330.24651799356019
 30
0.0
  0
VERTEX
  5
21181
  8
0
 10
398.0471593328657
 20
330.52186910066018
 30
0.0
  0
VERTEX
  5
21182
  8
0
 10
397.85521747546568
 20
330.84303010256019
 30
0.0
  0
VERTEX
  5
21183
  8
0
 10
397.80913563446569
 20
331.21233675626019
 30
0.0
  0
VERTEX
  5
21184
  8
0
 10
397.93945373976572
 20
331.56111706046022
 30
0.0
  0
VERTEX
  5
21185
  8
0
 10
398.21291239936568
 20
331.84650409966019
 30
0.0
  0
VERTEX
  5
21186
  8
0
 10
398.62735839566562
 20
332.06930626186022
 30
0.0
  0
VERTEX
  5
21187
  8
0
 10
399.10144628966577
 20
332.18398187306019
 30
0.0
  0
VERTEX
  5
21188
  8
0
 10
399.26532926046571
 20
332.19983298336018
 30
0.0
  0
VERTEX
  5
21189
  8
0
 10
399.76098658526581
 20
332.18018580226021
 30
0.0
  0
VERTEX
  5
2118A
  8
0
 10
400.20482512196571
 20
332.05204326656019
 30
0.0
  0
VERTEX
  5
2118B
  8
0
 10
400.5353701301658
 20
331.83849100026021
 30
0.0
  0
VERTEX
  5
2118C
  8
0
 10
400.7518392987655
 20
331.52669165286022
 30
0.0
  0
VERTEX
  5
2118D
  8
0
 10
400.79221399506571
 20
331.17965105926021
 30
0.0
  0
VERTEX
  5
2118E
  8
0
 10
400.67453952506571
 20
330.81959802656019
 30
0.0
  0
VERTEX
  5
2118F
  8
0
 10
400.39287777626572
 20
330.47509063036023
 30
0.0
  0
VERTEX
  5
21190
  8
0
 10
400.00956030566567
 20
330.22757861766019
 30
0.0
  0
VERTEX
  5
21191
  8
0
 10
399.52962370596578
 20
330.07453996686019
 30
0.0
  0
VERTEX
  5
21192
  8
0
 10
399.3468535133656
 20
330.05207646636018
 30
0.0
  0
SEQEND
  5
21193
  8
0
  0
POLYLINE
  5
20BF6
  8
0
 66
     1
 10
0.0
 20
0.0
 30
0.0
 70
   128
  0
VERTEX
  5
21194
  8
0
 10
390.37193628036562
 20
329.43278420716018
 30
0.0
  0
VERTEX
  5
21195
  8
0
 10
389.87256111586572
 20
329.47024945166021
 30
0.0
  0
VERTEX
  5
21196
  8
0
 10
389.42291112616567
 20
329.63795829566021
 30
0.0
  0
VERTEX
  5
21197
  8
0
 10
389.06991751866582
 20
329.9229541793602
 30
0.0
  0
VERTEX
  5
21198
  8
0
 10
388.87632163246582
 20
330.2552798762602
 30
0.0
  0
VERTEX
  5
21199
  8
0
 10
388.82995666936557
 20
330.63763249666022
 30
0.0
  0
VERTEX
  5
2119A
  8
0
 10
388.96022262056567
 20
330.99495489156021
 30
0.0
  0
VERTEX
  5
2119B
  8
0
 10
389.23310758546558
 20
331.28774780776018
 30
0.0
  0
VERTEX
  5
2119C
  8
0
 10
389.64727791026581
 20
331.51553068306021
 30
0.0
  0
VERTEX
  5
2119D
  8
0
 10
390.11852713306581
 20
331.63025844846021
 30
0.0
  0
VERTEX
  5
2119E
  8
0
 10
390.27909459546572
 20
331.64531234656022
 30
0.0
  0
VERTEX
  5
2119F
  8
0
 10
390.77543737366568
 20
331.6216232255602
 30
0.0
  0
VERTEX
  5
211A0
  8
0
 10
391.22001351796581
 20
331.48526269946018
 30
0.0
  0
VERTEX
  5
211A1
  8
0
 10
391.55034245926572
 20
331.26176390796019
 30
0.0
  0
VERTEX
  5
211A2
  8
0
 10
391.7686966248657
 20
330.93628901986023
 30
0.0
  0
VERTEX
  5
211A3
  8
0
 10
391.81064339356573
 20
330.57465646416023
 30
0.0
  0
VERTEX
  5
211A4
  8
0
 10
391.6923505254656
 20
330.20218331366021
 30
0.0
  0
VERTEX
  5
211A5
  8
0
 10
391.41023429116581
 20
329.85257226976017
 30
0.0
  0
VERTEX
  5
211A6
  8
0
 10
391.03076877076569
 20
329.60616294296022
 30
0.0
  0
VERTEX
  5
211A7
  8
0
 10
390.55396141486591
 20
329.45449147376019
 30
0.0
  0
VERTEX
  5
211A8
  8
0
 10
390.37193628036562
 20
329.43278420716018
 30
0.0
  0
SEQEND
  5
211A9
  8
0
  0
ARC
  5
20BF7
  8
0
 10
394.10426498896572
 20
340.8013158718602
 30
0.0
 40
5.08082543523326
 50
259.639631250089
 51
276.43268220870038
  0
POLYLINE
  5
20BF8
  8
0
 66
     1
 10
0.0
 20
0.0
 30
0.0
 70
   128
  0
VERTEX
  5
211AA
  8
0
 10
396.14464510588778
 20
335.9225158802426
 30
0.0
  0
VERTEX
  5
211AB
  8
0
 10
396.15974845366583
 20
335.91051269326022
 30
0.0
  0
VERTEX
  5
211AC
  8
0
 10
396.01929010826581
 20
335.87787542496022
 30
0.0
  0
VERTEX
  5
211AD
  8
0
 10
395.71563424546571
 20
335.83359289916029
 30
0.0
  0
VERTEX
  5
211AE
  8
0
 10
395.32049270346579
 20
335.79289782796019
 30
0.0
  0
VERTEX
  5
211AF
  8
0
 10
394.83475955206558
 20
335.75963471086021
 30
0.0
  0
VERTEX
  5
211B0
  8
0
 10
394.67349918566561
 20
335.7524784281602
 30
0.0
  0
SEQEND
  5
211B1
  8
0
  0
POLYLINE
  5
20BF9
  8
0
 66
     1
 10
0.0
 20
0.0
 30
0.0
 70
   128
  0
VERTEX
  5
211B2
  8
0
 10
385.75214417656571
 20
332.31428507716021
 30
0.0
  0
VERTEX
  5
211B3
  8
0
 10
385.25519045076572
 20
332.3371509090602
 30
0.0
  0
VERTEX
  5
211B4
  8
0
 10
384.81075959286568
 20
332.45193082836022
 30
0.0
  0
VERTEX
  5
211B5
  8
0
 10
384.46167008956559
 20
332.64925573026022
 30
0.0
  0
VERTEX
  5
211B6
  8
0
 10
384.27265631036562
 20
332.87932593376019
 30
0.0
  0
VERTEX
  5
211B7
  8
0
 10
384.23435660086579
 20
333.14098659906023
 30
0.0
  0
VERTEX
  5
211B8
  8
0
 10
384.37356697396558
 20
333.38130135086021
 30
0.0
  0
VERTEX
  5
211B9
  8
0
 10
384.65381683786569
 20
333.57602972536017
 30
0.0
  0
VERTEX
  5
211BA
  8
0
 10
385.07230849936582
 20
333.72689653186018
 30
0.0
  0
VERTEX
  5
211BB
  8
0
 10
385.54554702716558
 20
333.80462098866019
 30
0.0
  0
VERTEX
  5
211BC
  8
0
 10
385.70294054226571
 20
333.8154727593602
 30
0.0
  0
VERTEX
  5
211BD
  8
0
 10
386.20125027376571
 20
333.80465824156022
 30
0.0
  0
VERTEX
  5
211BE
  8
0
 10
386.64522292096581
 20
333.72000101956019
 30
0.0
  0
VERTEX
  5
211BF
  8
0
 10
386.9738456793657
 20
333.57506860046021
 30
0.0
  0
VERTEX
  5
211C0
  8
0
 10
387.18363912776567
 20
333.35986230526021
 30
0.0
  0
VERTEX
  5
211C1
  8
0
 10
387.21475275236571
 20
333.11763275416018
 30
0.0
  0
VERTEX
  5
211C2
  8
0
 10
387.08629729226573
 20
332.86205921326018
 30
0.0
  0
VERTEX
  5
211C3
  8
0
 10
386.79344477136578
 20
332.61620122936017
 30
0.0
  0
VERTEX
  5
211C4
  8
0
 10
386.40424134216568
 20
332.4393132701602
 30
0.0
  0
VERTEX
  5
211C5
  8
0
 10
385.92133941136558
 20
332.32946936046022
 30
0.0
  0
VERTEX
  5
211C6
  8
0
 10
385.75214417656571
 20
332.31428507716021
 30
0.0
  0
SEQEND
  5
211C7
  8
0
  0
POLYLINE
  5
20BFA
  8
0
 66
     1
 10
0.0
 20
0.0
 30
0.0
 70
   128
  0
VERTEX
  5
211C8
  8
0
 10
381.19326801976581
 20
334.18800923976022
 30
0.0
  0
VERTEX
  5
211C9
  8
0
 10
380.69688798866559
 20
334.19597018506022
 30
0.0
  0
VERTEX
  5
211CA
  8
0
 10
380.25540383536583
 20
334.25863329326017
 30
0.0
  0
VERTEX
  5
211CB
  8
0
 10
379.9117718823656
 20
334.36850700526008
 30
0.0
  0
VERTEX
  5
211CC
  8
0
 10
379.72879679876559
 20
334.4953792169602
 30
0.0
  0
VERTEX
  5
211CD
  8
0
 10
379.69766454776573
 20
334.63619146496018
 30
0.0
  0
VERTEX
  5
211CE
  8
0
 10
379.84355809176549
 20
334.7626017406601
 30
0.0
  0
VERTEX
  5
211CF
  8
0
 10
380.12973861776572
 20
334.86350867896022
 30
0.0
  0
VERTEX
  5
211D0
  8
0
 10
380.5538740940658
 20
334.9423991516602
 30
0.0
  0
VERTEX
  5
211D1
  8
0
 10
381.0271386988656
 20
334.9865997210602
 30
0.0
  0
VERTEX
  5
211D2
  8
0
 10
381.18064673626583
 20
334.99432969836022
 30
0.0
  0
VERTEX
  5
211D3
  8
0
 10
381.67697833856568
 20
334.99896768486019
 30
0.0
  0
VERTEX
  5
211D4
  8
0
 10
382.11727039896579
 20
334.96778700506019
 30
0.0
  0
VERTEX
  5
211D5
  8
0
 10
382.44112106046578
 20
334.90338046106018
 30
0.0
  0
VERTEX
  5
211D6
  8
0
 10
382.64634357766568
 20
334.7972283139602
 30
0.0
  0
VERTEX
  5
211D7
  8
0
 10
382.67267765486582
 20
334.66766644266022
 30
0.0
  0
VERTEX
  5
211D8
  8
0
 10
382.53819094976581
 20
334.52331516896021
 30
0.0
  0
VERTEX
  5
211D9
  8
0
 10
382.23968343816568
 20
334.37836784866022
 30
0.0
  0
VERTEX
  5
211DA
  8
0
 10
381.84708254416569
 20
334.26992837336019
 30
0.0
  0
VERTEX
  5
211DB
  8
0
 10
381.36221738536568
 20
334.19899512086022
 30
0.0
  0
VERTEX
  5
211DC
  8
0
 10
381.19326801976581
 20
334.18800923976022
 30
0.0
  0
SEQEND
  5
211DD
  8
0
  0
POLYLINE
  5
20BFB
  8
0
 66
     1
 10
0.0
 20
0.0
 30
0.0
 70
   128
  0
VERTEX
  5
211DE
  8
0
 10
376.77156450236572
 20
331.82880524546022
 30
0.0
  0
VERTEX
  5
211DF
  8
0
 10
376.2806308456656
 20
331.85405898836018
 30
0.0
  0
VERTEX
  5
211E0
  8
0
 10
375.84121795376569
 20
331.9727281108602
 30
0.0
  0
VERTEX
  5
211E1
  8
0
 10
375.48970328646578
 20
332.17715714126018
 30
0.0
  0
VERTEX
  5
211E2
  8
0
 10
375.29533999046572
 20
332.41841066626017
 30
0.0
  0
VERTEX
  5
211E3
  8
0
 10
375.25352360686571
 20
332.69031587986018
 30
0.0
  0
VERTEX
  5
211E4
  8
0
 10
375.38939239466572
 20
332.9409347847602
 30
0.0
  0
VERTEX
  5
211E5
  8
0
 10
375.66769020636571
 20
333.14429838216017
 30
0.0
  0
VERTEX
  5
211E6
  8
0
 10
376.08591737226578
 20
333.30140504986019
 30
0.0
  0
VERTEX
  5
211E7
  8
0
 10
376.5564811416657
 20
333.38113371286022
 30
0.0
  0
VERTEX
  5
211E8
  8
0
 10
376.71568514786549
 20
333.39224625376022
 30
0.0
  0
VERTEX
  5
211E9
  8
0
 10
377.21112268046568
 20
333.37997142226021
 30
0.0
  0
VERTEX
  5
211EA
  8
0
 10
377.65303151686572
 20
333.29139146956021
 30
0.0
  0
VERTEX
  5
211EB
  8
0
 10
377.98026101666568
 20
333.14111325886017
 30
0.0
  0
VERTEX
  5
211EC
  8
0
 10
378.19290431216558
 20
332.9173425212602
 30
0.0
  0
VERTEX
  5
211ED
  8
0
 10
378.22763146836559
 20
332.66392219816021
 30
0.0
  0
VERTEX
  5
211EE
  8
0
 10
378.10188429436562
 20
332.3983388021602
 30
0.0
  0
VERTEX
  5
211EF
  8
0
 10
377.81141223386572
 20
332.14269075546019
 30
0.0
  0
VERTEX
  5
211F0
  8
0
 10
377.42131100976582
 20
331.95752147586018
 30
0.0
  0
VERTEX
  5
211F1
  8
0
 10
376.9357976503656
 20
331.8435350432602
 30
0.0
  0
VERTEX
  5
211F2
  8
0
 10
376.77156450236572
 20
331.82880524546022
 30
0.0
  0
SEQEND
  5
211F3
  8
0
  0
POLYLINE
  5
20BFC
  8
0
 66
     1
 10
0.0
 20
0.0
 30
0.0
 70
   128
  0
VERTEX
  5
211F4
  8
0
 10
412.6461696811657
 20
336.4019306376602
 30
0.0
  0
VERTEX
  5
211F5
  8
0
 10
412.1553999372656
 20
336.3923082128602
 30
0.0
  0
VERTEX
  5
211F6
  8
0
 10
411.71902688226578
 20
336.40036974106022
 30
0.0
  0
VERTEX
  5
211F7
  8
0
 10
411.36859627446569
 20
336.42320949586019
 30
0.0
  0
VERTEX
  5
211F8
  8
0
 10
411.1733389087658
 20
336.45260576156022
 30
0.0
  0
VERTEX
  5
211F9
  8
0
 10
411.13954307516559
 20
336.4846656098602
 30
0.0
  0
VERTEX
  5
211FA
  8
0
 10
411.28502311186571
 20
336.51331681756022
 30
0.0
  0
VERTEX
  5
211FB
  8
0
 10
411.56999291856567
 20
336.5380750969602
 30
0.0
  0
VERTEX
  5
211FC
  8
0
 10
411.97926370997442
 20
336.5613883572359
 30
0.0
  0
SEQEND
  5
211FD
  8
0
  0
POLYLINE
  5
20BFD
  8
0
 66
     1
 10
0.0
 20
0.0
 30
0.0
 70
   128
  0
VERTEX
  5
211FE
  8
0
 10
413.14123258277272
 20
336.60826981049439
 30
0.0
  0
VERTEX
  5
211FF
  8
0
 10
413.53450240576581
 20
336.61851529036011
 30
0.0
  0
VERTEX
  5
21200
  8
0
 10
413.86135192596561
 20
336.61925289776019
 30
0.0
  0
VERTEX
  5
21201
  8
0
 10
414.06912626706571
 20
336.60516757516018
 30
0.0
  0
VERTEX
  5
21202
  8
0
 10
414.06912626706571
 20
336.60516757516018
 30
0.0
  0
SEQEND
  5
21203
  8
0
  0
POLYLINE
  5
20BFE
  8
0
 66
     1
 10
0.0
 20
0.0
 30
0.0
 70
   128
  0
VERTEX
  5
21204
  8
0
 10
414.06912626706571
 20
336.60516757516018
 30
0.0
  0
VERTEX
  5
21205
  8
0
 10
414.09918190916568
 20
336.57563347366022
 30
0.0
  0
VERTEX
  5
21206
  8
0
 10
413.96218063316559
 20
336.53305340556022
 30
0.0
  0
VERTEX
  5
21207
  8
0
 10
413.66100581366572
 20
336.48376036436019
 30
0.0
  0
VERTEX
  5
21208
  8
0
 10
413.27479006726571
 20
336.44205573946022
 30
0.0
  0
VERTEX
  5
21209
  8
0
 10
412.79661180456549
 20
336.40868086366021
 30
0.0
  0
VERTEX
  5
2120A
  8
0
 10
412.6461696811657
 20
336.4019306376602
 30
0.0
  0
SEQEND
  5
2120B
  8
0
  0
POLYLINE
  5
20BFF
  8
0
 66
     1
 10
0.0
 20
0.0
 30
0.0
 70
   128
  0
VERTEX
  5
2120C
  8
0
 10
408.19834442816563
 20
335.3643478825602
 30
0.0
  0
VERTEX
  5
2120D
  8
0
 10
407.6966074295658
 20
335.36840099846017
 30
0.0
  0
VERTEX
  5
2120E
  8
0
 10
407.25070508206562
 20
335.41864771396018
 30
0.0
  0
VERTEX
  5
2120F
  8
0
 10
406.90649570906561
 20
335.50863582646019
 30
0.0
  0
VERTEX
  5
21210
  8
0
 10
406.72222049906571
 20
335.61446759846018
 30
0.0
  0
VERTEX
  5
21211
  8
0
 10
406.69377418236559
 20
335.73219422256022
 30
0.0
  0
VERTEX
  5
21212
  8
0
 10
406.8423238583656
 20
335.83757150916023
 30
0.0
  0
VERTEX
  5
21213
  8
0
 10
407.12967785076552
 20
335.92259753496018
 30
0.0
  0
VERTEX
  5
21214
  8
0
 10
407.55305709326581
 20
335.98945159466018
 30
0.0
  0
VERTEX
  5
21215
  8
0
 10
408.02166881046583
 20
336.02676782756021
 30
0.0
  0
VERTEX
  5
21216
  8
0
 10
408.16771509126579
 20
336.03309709576018
 30
0.0
  0
VERTEX
  5
21217
  8
0
 10
408.67039086306562
 20
336.03723961856019
 30
0.0
  0
VERTEX
  5
21218
  8
0
 10
409.11597283566562
 20
336.0105777159601
 30
0.0
  0
VERTEX
  5
21219
  8
0
 10
409.4465029426658
 20
335.95511559396022
 30
0.0
  0
VERTEX
  5
2121A
  8
0
 10
409.64873405176581
 20
335.8658948913602
 30
0.0
  0
VERTEX
  5
2121B
  8
0
 10
409.67104854066559
 20
335.75845751916017
 30
0.0
  0
VERTEX
  5
2121C
  8
0
 10
409.53111918646567
 20
335.6381045654602
 30
0.0
  0
VERTEX
  5
2121D
  8
0
 10
409.22832759106558
 20
335.5194838717602
 30
0.0
  0
VERTEX
  5
2121E
  8
0
 10
408.84007783606569
 20
335.4321481659602
 30
0.0
  0
VERTEX
  5
2121F
  8
0
 10
408.35886718706558
 20
335.37357170136022
 30
0.0
  0
VERTEX
  5
21220
  8
0
 10
408.19834442816563
 20
335.3643478825602
 30
0.0
  0
SEQEND
  5
21221
  8
0
  0
POLYLINE
  5
20C00
  8
0
 66
     1
 10
0.0
 20
0.0
 30
0.0
 70
   128
  0
VERTEX
  5
21222
  8
0
 10
412.76894779876568
 20
333.82408563046022
 30
0.0
  0
VERTEX
  5
21223
  8
0
 10
412.26344080646572
 20
333.84419474756021
 30
0.0
  0
VERTEX
  5
21224
  8
0
 10
411.81295635186569
 20
333.94474405796018
 30
0.0
  0
VERTEX
  5
21225
  8
0
 10
411.46818818526572
 20
334.11414790896021
 30
0.0
  0
VERTEX
  5
21226
  8
0
 10
411.28555210316563
 20
334.30891353636019
 30
0.0
  0
VERTEX
  5
21227
  8
0
 10
411.25560821966559
 20
334.52865350996018
 30
0.0
  0
VERTEX
  5
21228
  8
0
 10
411.4016843028657
 20
334.72625035796023
 30
0.0
  0
VERTEX
  5
21229
  8
0
 10
411.68543221436562
 20
334.88620687276023
 30
0.0
  0
VERTEX
  5
2122A
  8
0
 10
412.10774602376563
 20
335.0111791864602
 30
0.0
  0
VERTEX
  5
2122B
  8
0
 10
412.58422555406582
 20
335.07623765616017
 30
0.0
  0
VERTEX
  5
2122C
  8
0
 10
412.7384227700656
 20
335.08534226566019
 30
0.0
  0
VERTEX
  5
2122D
  8
0
 10
413.24344547466558
 20
335.0774632766603
 30
0.0
  0
VERTEX
  5
2122E
  8
0
 10
413.69188847026561
 20
335.0074538961602
 30
0.0
  0
VERTEX
  5
2122F
  8
0
 10
414.02555527166578
 20
334.8841914907602
 30
0.0
  0
VERTEX
  5
21230
  8
0
 10
414.22825576746573
 20
334.70200989396022
 30
0.0
  0
VERTEX
  5
21231
  8
0
 10
414.24903543666568
 20
334.50016621506018
 30
0.0
  0
VERTEX
  5
21232
  8
0
 10
414.11258550366568
 20
334.2848891392602
 30
0.0
  0
VERTEX
  5
21233
  8
0
 10
413.81371291356572
 20
334.07771456986018
 30
0.0
  0
VERTEX
  5
21234
  8
0
 10
413.42246057466559
 20
333.92925057566021
 30
0.0
  0
VERTEX
  5
21235
  8
0
 10
412.93680937966559
 20
333.8367404416602
 30
0.0
  0
VERTEX
  5
21236
  8
0
 10
412.76894779876568
 20
333.82408563046022
 30
0.0
  0
SEQEND
  5
21237
  8
0
  0
POLYLINE
  5
20C01
  8
0
 66
     1
 10
0.0
 20
0.0
 30
0.0
 70
   128
  0
VERTEX
  5
21238
  8
0
 10
421.6053363867656
 20
336.78712565456021
 30
0.0
  0
VERTEX
  5
21239
  8
0
 10
421.1204153485657
 20
336.77251879126021
 30
0.0
  0
VERTEX
  5
2123A
  8
0
 10
420.68545790396558
 20
336.77468318496011
 30
0.0
  0
VERTEX
  5
2123B
  8
0
 10
420.3241345472656
 20
336.79156247526021
 30
0.0
  0
VERTEX
  5
2123C
  8
0
 10
420.11254550896558
 20
336.81680504236022
 30
0.0
  0
VERTEX
  5
2123D
  8
0
 10
420.06223918876572
 20
336.84604484586021
 30
0.0
  0
VERTEX
  5
2123E
  8
0
 10
420.19344391306572
 20
336.87353376296022
 30
0.0
  0
VERTEX
  5
2123F
  8
0
 10
420.47004671776563
 20
336.8976438418602
 30
0.0
  0
VERTEX
  5
21240
  8
0
 10
420.88608713826551
 20
336.92074809226023
 30
0.0
  0
VERTEX
  5
21241
  8
0
 10
421.33999885996559
 20
336.94076407706018
 30
0.0
  0
VERTEX
  5
21242
  8
0
 10
421.48091169076559
 20
336.94654200226017
 30
0.0
  0
VERTEX
  5
21243
  8
0
 10
421.97532476866547
 20
336.96583900606021
 30
0.0
  0
VERTEX
  5
21244
  8
0
 10
422.41850765426562
 20
336.98092643176022
 30
0.0
  0
VERTEX
  5
21245
  8
0
 10
422.75051297626578
 20
336.98759097606018
 30
0.0
  0
VERTEX
  5
21246
  8
0
 10
422.97270419076563
 20
336.98166776446021
 30
0.0
  0
VERTEX
  5
21247
  8
0
 10
422.97270419076563
 20
336.98166776446021
 30
0.0
  0
SEQEND
  5
21248
  8
0
  0
POLYLINE
  5
20C02
  8
0
 66
     1
 10
0.0
 20
0.0
 30
0.0
 70
   128
  0
VERTEX
  5
21249
  8
0
 10
422.97270419076563
 20
336.98166776446021
 30
0.0
  0
VERTEX
  5
2124A
  8
0
 10
423.02051456646558
 20
336.9594389572602
 30
0.0
  0
VERTEX
  5
2124B
  8
0
 10
422.89775880056573
 20
336.92185077816021
 30
0.0
  0
VERTEX
  5
2124C
  8
0
 10
422.60811002926562
 20
336.87461037186017
 30
0.0
  0
VERTEX
  5
2124D
  8
0
 10
422.22655089576568
 20
336.83165404946021
 30
0.0
  0
VERTEX
  5
2124E
  8
0
 10
421.74983294686552
 20
336.7948928847602
 30
0.0
  0
VERTEX
  5
2124F
  8
0
 10
421.6053363867656
 20
336.78712565456021
 30
0.0
  0
SEQEND
  5
21250
  8
0
  0
POLYLINE
  5
20C03
  8
0
 66
     1
 10
0.0
 20
0.0
 30
0.0
 70
   128
  0
VERTEX
  5
21251
  8
0
 10
360.97374828536567
 20
334.5109323039602
 30
0.0
  0
VERTEX
  5
21252
  8
0
 10
361.34482445196568
 20
334.49314776806023
 30
0.0
  0
VERTEX
  5
21253
  8
0
 10
362.0635372586658
 20
334.34952665126019
 30
0.0
  0
VERTEX
  5
21254
  8
0
 10
362.94543640696571
 20
334.08141750846022
 30
0.0
  0
VERTEX
  5
21255
  8
0
 10
364.08941717826559
 20
333.75203851616021
 30
0.0
  0
VERTEX
  5
21256
  8
0
 10
364.82326956466568
 20
333.62293113026021
 30
0.0
  0
VERTEX
  5
21257
  8
0
 10
365.23621426896563
 20
333.59191063796021
 30
0.0
  0
VERTEX
  5
21258
  8
0
 10
365.66565828406578
 20
333.59649274496019
 30
0.0
  0
VERTEX
  5
21259
  8
0
 10
366.08642982326569
 20
333.63807816056021
 30
0.0
  0
VERTEX
  5
2125A
  8
0
 10
366.47796528416569
 20
333.71372763066017
 30
0.0
  0
VERTEX
  5
2125B
  8
0
 10
367.13145943366573
 20
333.92185587436018
 30
0.0
  0
VERTEX
  5
2125C
  8
0
 10
368.02738057456583
 20
334.3569772317602
 30
0.0
  0
VERTEX
  5
2125D
  8
0
 10
368.6224509962658
 20
334.6747742965602
 30
0.0
  0
VERTEX
  5
2125E
  8
0
 10
369.0536086447658
 20
334.82948560266021
 30
0.0
  0
SEQEND
  5
2125F
  8
0
  0
ARC
  5
20C04
  8
0
 10
628.96846830405468
 20
52.626858900721217
 30
0.0
 40
392.20748242663473
 50
134.09350762822521
 51
135.0696055638052
  0
LINE
  5
20C05
  8
0
 10
369.93926661096572
 20
330.99272344266018
 30
0.0
 11
369.64764716106561
 21
332.6741071417602
 31
0.0
  0
ARC
  5
20C06
  8
0
 10
368.87628101310003
 20
332.55707857431997
 30
0.0
 40
0.7801931939107254
 50
8.6268959822731137
 51
83.221627193420048
  0
ARC
  5
20C07
  8
0
 10
361.35154102787737
 20
331.05468106293739
 30
0.0
 40
1.9667668798078011
 50
93.968020628755895
 51
125.21096372838809
  0
ARC
  5
20C08
  8
0
 10
363.70970910416031
 20
329.07828432670487
 30
0.0
 40
5.0035467667550888
 50
134.26209288562021
 51
160.04534233750411
  0
ARC
  5
20C09
  8
0
 10
371.94966027361602
 20
326.49872700611792
 30
0.0
 40
13.634642974411831
 50
161.6735537402954
 51
171.4010703534897
  0
ARC
  5
20C0A
  8
0
 10
392.85485074655872
 20
323.36436777131217
 30
0.0
 40
34.773491573251199
 50
171.4448201072868
 51
179.57299167912529
  0
ARC
  5
20C0B
  8
0
 10
235.3389004084477
 20
326.24632201373799
 30
0.0
 40
134.6840261811935
 50
358.88416699449482
 51
2.0195794491861792
  0
LINE
  5
20C0C
  8
0
 10
351.48136215286581
 20
327.62352246796019
 30
0.0
 11
351.48136215286581
 21
319.62352115666022
 31
0.0
  0
LINE
  5
20C0D
  8
0
 10
351.28618945139277
 20
327.62352246796019
 30
0.0
 11
351.29918614406569
 21
329.6223083510601
 31
0.0
  0
ARC
  5
20C11
  8
0
 10
402.33621521495411
 20
323.53246592703772
 30
0.0
 40
44.636163531725792
 50
171.74807096516579
 51
179.8831189526251
  0
ARC
  5
20C12
  8
0
 10
373.68127281479002
 20
326.94281437219331
 30
0.0
 40
15.805649255290209
 50
155.27524625411769
 51
169.072966129035
  0
ARC
  5
20C13
  8
0
 10
361.1104808607497
 20
332.37611198748931
 30
0.0
 40
2.1391946103120292
 50
93.664717412521924
 51
146.60062355502961
  0
ARC
  5
20C14
  8
0
 10
368.8374400869173
 20
333.70518871084522
 30
0.0
 40
1.144889665577935
 50
2.7412425052020182
 51
79.116555823437039
  0
ARC
  5
20C15
  8
0
 10
348.41462550372012
 20
330.1620123671027
 30
0.0
 40
21.864456684977071
 50
359.53468650970342
 51
9.4714523635222427
  0
ARC
  5
20C16
  8
0
 10
169.79099821980321
 20
326.73998102002469
 30
0.0
 40
200.51361365728081
 50
359.10945124301918
 51
0.9271308218265406
  0
LINE
  5
20C17
  8
0
 10
360.97374828536567
 20
312.73611132066009
 30
0.0
 11
356.05817930776561
 21
312.93475124996019
 31
0.0
  0
LINE
  5
20C18
  8
0
 10
420.88608713826551
 20
310.32629553236012
 30
0.0
 11
369.0536086447658
 21
312.41755802196008
 31
0.0
  0
ARC
  5
20C19
  8
0
 10
426.18999931034318
 20
323.60778413759539
 30
0.0
 40
13.708981623885229
 50
322.0430295314693
 51
0.065774582189476
  0
ARC
  5
20C1A
  8
0
 10
426.64335391307782
 20
323.39709514725979
 30
0.0
 40
13.22241592510021
 50
299.80199720269479
 51
321.5545730451073
  0
ARC
  5
20C1B
  8
0
 10
426.41870805206048
 20
323.79822910952078
 30
0.0
 40
13.68214982591363
 50
275.24504341291509
 51
299.78344917633751
  0
LINE
  5
20C1C
  8
0
 10
427.66946824276579
 20
310.1733686403602
 30
0.0
 11
422.75051297626578
 21
310.25945264856023
 31
0.0
  0
LINE
  5
20C1D
  8
0
 10
368.96836655216561
 20
313.91522530476021
 30
0.0
 11
361.21544139466567
 21
314.23031035816018
 31
0.0
  0
POLYLINE
  5
20C1E
  8
0
 66
     1
 10
0.0
 20
0.0
 30
0.0
 70
   128
  0
VERTEX
  5
21260
  8
0
 10
430.81447752196573
 20
314.37146533286023
 30
0.0
  0
VERTEX
  5
21261
  8
0
 10
430.3626147099655
 20
314.1449080780601
 30
0.0
  0
VERTEX
  5
21262
  8
0
 10
429.95557459076582
 20
313.85980788626011
 30
0.0
  0
VERTEX
  5
21263
  8
0
 10
429.63178725916572
 20
313.53782732046022
 30
0.0
  0
VERTEX
  5
21264
  8
0
 10
429.4512149878658
 20
313.24333939706008
 30
0.0
  0
VERTEX
  5
21265
  8
0
 10
429.40661581236583
 20
312.97043580576019
 30
0.0
  0
VERTEX
  5
21266
  8
0
 10
429.52595921236571
 20
312.77279797946011
 30
0.0
  0
VERTEX
  5
21267
  8
0
 10
429.77668615066568
 20
312.66849357646009
 30
0.0
  0
VERTEX
  5
21268
  8
0
 10
430.15948208056568
 20
312.65906114136021
 30
0.0
  0
VERTEX
  5
21269
  8
0
 10
430.5998709984658
 20
312.75558713836011
 30
0.0
  0
VERTEX
  5
2126A
  8
0
 10
430.74756385766563
 20
312.80667949476009
 30
0.0
  0
VERTEX
  5
2126B
  8
0
 10
431.21158601716559
 20
313.02488464876012
 30
0.0
  0
VERTEX
  5
2126C
  8
0
 10
431.62596495826568
 20
313.31320721666009
 30
0.0
  0
VERTEX
  5
2126D
  8
0
 10
431.93178148946572
 20
313.62340096396008
 30
0.0
  0
VERTEX
  5
2126E
  8
0
 10
432.12321670726578
 20
313.95293641846013
 30
0.0
  0
VERTEX
  5
2126F
  8
0
 10
432.14815380056569
 20
314.21667952096021
 30
0.0
  0
VERTEX
  5
21270
  8
0
 10
432.0323866792657
 20
314.41401187336021
 30
0.0
  0
VERTEX
  5
21271
  8
0
 10
431.76606567576567
 20
314.52879179276022
 30
0.0
  0
VERTEX
  5
21272
  8
0
 10
431.40020491556578
 20
314.52983487406021
 30
0.0
  0
VERTEX
  5
21273
  8
0
 10
430.94828994946579
 20
314.42159656446017
 30
0.0
  0
VERTEX
  5
21274
  8
0
 10
430.81447752196573
 20
314.37146533286023
 30
0.0
  0
SEQEND
  5
21275
  8
0
  0
POLYLINE
  5
20C1F
  8
0
 66
     1
 10
0.0
 20
0.0
 30
0.0
 70
   128
  0
VERTEX
  5
21276
  8
0
 10
417.34534772116581
 20
316.06214735666009
 30
0.0
  0
VERTEX
  5
21277
  8
0
 10
416.7593968101657
 20
315.99627677356023
 30
0.0
  0
VERTEX
  5
21278
  8
0
 10
416.32776977496559
 20
315.81274289646012
 30
0.0
  0
VERTEX
  5
21279
  8
0
 10
416.01212592796549
 20
315.53297359506013
 30
0.0
  0
VERTEX
  5
2127A
  8
0
 10
415.85570098836558
 20
315.2240799740602
 30
0.0
  0
VERTEX
  5
2127B
  8
0
 10
415.8487644978656
 20
314.87606707966012
 30
0.0
  0
VERTEX
  5
2127C
  8
0
 10
416.01356389006583
 20
314.56505749386008
 30
0.0
  0
VERTEX
  5
2127D
  8
0
 10
416.31727190696569
 20
314.31369725626013
 30
0.0
  0
VERTEX
  5
2127E
  8
0
 10
416.75842078406572
 20
314.12725020206022
 30
0.0
  0
VERTEX
  5
2127F
  8
0
 10
417.24463822326561
 20
314.04426191016017
 30
0.0
  0
VERTEX
  5
21280
  8
0
 10
417.33773322776568
 20
314.0391880647602
 30
0.0
  0
VERTEX
  5
21281
  8
0
 10
417.92238773786562
 20
314.08484149736012
 30
0.0
  0
VERTEX
  5
21282
  8
0
 10
418.35680129006568
 20
314.23460189266018
 30
0.0
  0
VERTEX
  5
21283
  8
0
 10
418.67223652086562
 20
314.46527186786022
 30
0.0
  0
VERTEX
  5
21284
  8
0
 10
418.84174467996559
 20
314.77599088116023
 30
0.0
  0
VERTEX
  5
21285
  8
0
 10
418.83279653266561
 20
315.08625168366012
 30
0.0
  0
VERTEX
  5
21286
  8
0
 10
418.6762002297657
 20
315.41201714436022
 30
0.0
  0
VERTEX
  5
21287
  8
0
 10
418.35518451416573
 20
315.72479251786018
 30
0.0
  0
VERTEX
  5
21288
  8
0
 10
417.92773725466549
 20
315.94565007846012
 30
0.0
  0
VERTEX
  5
21289
  8
0
 10
417.41509260616562
 20
316.05789680046013
 30
0.0
  0
VERTEX
  5
2128A
  8
0
 10
417.34534772116581
 20
316.06214735666009
 30
0.0
  0
SEQEND
  5
2128B
  8
0
  0
POLYLINE
  5
20C20
  8
0
 66
     1
 10
0.0
 20
0.0
 30
0.0
 70
   128
  0
VERTEX
  5
2128C
  8
0
 10
426.31203206256578
 20
311.21538076556021
 30
0.0
  0
VERTEX
  5
2128D
  8
0
 10
425.81641199076569
 20
311.15525458016009
 30
0.0
  0
VERTEX
  5
2128E
  8
0
 10
425.3661361523657
 20
311.0692935065602
 30
0.0
  0
VERTEX
  5
2128F
  8
0
 10
424.99934406956572
 20
310.96283588566018
 30
0.0
  0
VERTEX
  5
21290
  8
0
 10
424.78840323166582
 20
310.8556332067601
 30
0.0
  0
VERTEX
  5
21291
  8
0
 10
424.72283067186572
 20
310.74215341366022
 30
0.0
  0
VERTEX
  5
21292
  8
0
 10
424.83734609566562
 20
310.63523385686022
 30
0.0
  0
VERTEX
  5
21293
  8
0
 10
425.10748179636551
 20
310.54850164806021
 30
0.0
  0
VERTEX
  5
21294
  8
0
 10
425.52185328686568
 20
310.48771608626021
 30
0.0
  0
VERTEX
  5
21295
  8
0
 10
425.98198624336578
 20
310.46980116526009
 30
0.0
  0
VERTEX
  5
21296
  8
0
 10
426.13142253836583
 20
310.47253925366022
 30
0.0
  0
VERTEX
  5
21297
  8
0
 10
426.63108827546569
 20
310.51141638316011
 30
0.0
  0
VERTEX
  5
21298
  8
0
 10
427.08330126486561
 20
310.59589851656011
 30
0.0
  0
VERTEX
  5
21299
  8
0
 10
427.42022396996572
 20
310.70842091006023
 30
0.0
  0
VERTEX
  5
2129A
  8
0
 10
427.6540604420656
 20
310.85163969556021
 30
0.0
  0
VERTEX
  5
2129B
  8
0
 10
427.71760644396568
 20
310.99384892746008
 30
0.0
  0
VERTEX
  5
2129C
  8
0
 10
427.60800095276568
 20
311.11706662936018
 30
0.0
  0
VERTEX
  5
2129D
  8
0
 10
427.32743443926569
 20
311.20121721186018
 30
0.0
  0
VERTEX
  5
2129E
  8
0
 10
426.9501146860656
 20
311.2345511094602
 30
0.0
  0
VERTEX
  5
2129F
  8
0
 10
426.47131802516577
 20
311.22684348386008
 30
0.0
  0
VERTEX
  5
212A0
  8
0
 10
426.31203206256578
 20
311.21538076556021
 30
0.0
  0
SEQEND
  5
212A1
  8
0
  0
POLYLINE
  5
20C21
  8
0
 66
     1
 10
0.0
 20
0.0
 30
0.0
 70
   128
  0
VERTEX
  5
212A2
  8
0
 10
426.40485139566562
 20
316.26764554536021
 30
0.0
  0
VERTEX
  5
212A3
  8
0
 10
425.91450633486579
 20
316.11345205466012
 30
0.0
  0
VERTEX
  5
212A4
  8
0
 10
425.4836169071657
 20
315.85656348626009
 30
0.0
  0
VERTEX
  5
212A5
  8
0
 10
425.15452476226568
 20
315.51637742676019
 30
0.0
  0
VERTEX
  5
212A6
  8
0
 10
424.98367549856562
 20
315.16239661736012
 30
0.0
  0
VERTEX
  5
212A7
  8
0
 10
424.96438594536562
 20
314.78996817036023
 30
0.0
  0
VERTEX
  5
212A8
  8
0
 10
425.12138457976579
 20
314.4714968279601
 30
0.0
  0
VERTEX
  5
212A9
  8
0
 10
425.41665853936559
 20
314.24072254456007
 30
0.0
  0
VERTEX
  5
212AA
  8
0
 10
425.84841968496551
 20
314.10146374266009
 30
0.0
  0
VERTEX
  5
212AB
  8
0
 10
426.3266277499655
 20
314.08878657976021
 30
0.0
  0
VERTEX
  5
212AC
  8
0
 10
426.47781493146562
 20
314.10798300066023
 30
0.0
  0
VERTEX
  5
212AD
  8
0
 10
426.97028340776569
 20
314.24517426646008
 30
0.0
  0
VERTEX
  5
212AE
  8
0
 10
427.40345271306558
 20
314.49041012686013
 30
0.0
  0
VERTEX
  5
212AF
  8
0
 10
427.71724136546572
 20
314.80030957616009
 30
0.0
  0
VERTEX
  5
212B0
  8
0
 10
427.91030080996569
 20
315.1810118929601
 30
0.0
  0
VERTEX
  5
212B1
  8
0
 10
427.92537333446552
 20
315.55050853646009
 30
0.0
  0
VERTEX
  5
212B2
  8
0
 10
427.77616800746563
 20
315.8826330677602
 30
0.0
  0
VERTEX
  5
212B3
  8
0
 10
427.46465178206557
 20
316.14071372906022
 30
0.0
  0
VERTEX
  5
212B4
  8
0
 10
427.06338586286569
 20
316.27296898526009
 30
0.0
  0
VERTEX
  5
212B5
  8
0
 10
426.5738380141658
 20
316.2911707536602
 30
0.0
  0
VERTEX
  5
212B6
  8
0
 10
426.40485139566562
 20
316.26764554536021
 30
0.0
  0
SEQEND
  5
212B7
  8
0
  0
POLYLINE
  5
20C22
  8
0
 66
     1
 10
0.0
 20
0.0
 30
0.0
 70
   128
  0
VERTEX
  5
212B8
  8
0
 10
403.73766692356571
 20
313.90801314276013
 30
0.0
  0
VERTEX
  5
212B9
  8
0
 10
403.2402959652656
 20
313.89111150066009
 30
0.0
  0
VERTEX
  5
212BA
  8
0
 10
402.79625626286571
 20
313.7903871015601
 30
0.0
  0
VERTEX
  5
212BB
  8
0
 10
402.44911881166581
 20
313.61456457536019
 30
0.0
  0
VERTEX
  5
212BC
  8
0
 10
402.26274998866569
 20
313.40873111046022
 30
0.0
  0
VERTEX
  5
212BD
  8
0
 10
402.22808988766559
 20
313.17479033036011
 30
0.0
  0
VERTEX
  5
212BE
  8
0
 10
402.37015755856578
 20
312.96091768896019
 30
0.0
  0
VERTEX
  5
212BF
  8
0
 10
402.65127541506558
 20
312.78758738196012
 30
0.0
  0
VERTEX
  5
212C0
  8
0
 10
403.07069094856558
 20
312.65213582676017
 30
0.0
  0
VERTEX
  5
212C1
  8
0
 10
403.54589642956552
 20
312.58106846376012
 30
0.0
  0
VERTEX
  5
212C2
  8
0
 10
403.70452674106559
 20
312.57073450846019
 30
0.0
  0
VERTEX
  5
212C3
  8
0
 10
404.20504184446582
 20
312.57823724306007
 30
0.0
  0
VERTEX
  5
212C4
  8
0
 10
404.65004267176568
 20
312.65110392136017
 30
0.0
  0
VERTEX
  5
212C5
  8
0
 10
404.98065473516561
 20
312.77889255446013
 30
0.0
  0
VERTEX
  5
212C6
  8
0
 10
405.18528493126558
 20
312.9686364904602
 30
0.0
  0
VERTEX
  5
212C7
  8
0
 10
405.20940991126571
 20
313.18066511316022
 30
0.0
  0
VERTEX
  5
212C8
  8
0
 10
405.07704289636553
 20
313.40646985926008
 30
0.0
  0
VERTEX
  5
212C9
  8
0
 10
404.7814858146657
 20
313.62797562046018
 30
0.0
  0
VERTEX
  5
212CA
  8
0
 10
404.38837828116561
 20
313.79073727886009
 30
0.0
  0
VERTEX
  5
212CB
  8
0
 10
403.90135617926552
 20
313.89361862106023
 30
0.0
  0
VERTEX
  5
212CC
  8
0
 10
403.73766692356571
 20
313.90801314276013
 30
0.0
  0
SEQEND
  5
212CD
  8
0
  0
POLYLINE
  5
20C23
  8
0
 66
     1
 10
0.0
 20
0.0
 30
0.0
 70
   128
  0
VERTEX
  5
212CE
  8
0
 10
421.8807023950655
 20
313.03880233326021
 30
0.0
  0
VERTEX
  5
212CF
  8
0
 10
421.3736382313657
 20
313.01455814396007
 30
0.0
  0
VERTEX
  5
212D0
  8
0
 10
420.92149974786571
 20
312.91160602136023
 30
0.0
  0
VERTEX
  5
212D1
  8
0
 10
420.56787284096561
 20
312.73967642346008
 30
0.0
  0
VERTEX
  5
212D2
  8
0
 10
420.37430675706548
 20
312.53977734606019
 30
0.0
  0
VERTEX
  5
212D3
  8
0
 10
420.34042151646571
 20
312.31763083496008
 30
0.0
  0
VERTEX
  5
212D4
  8
0
 10
420.48631133516568
 20
312.12057042876012
 30
0.0
  0
VERTEX
  5
212D5
  8
0
 10
420.77201129876562
 20
311.96105722346022
 30
0.0
  0
VERTEX
  5
212D6
  8
0
 10
421.19784178216582
 20
311.83675173676022
 30
0.0
  0
VERTEX
  5
212D7
  8
0
 10
421.67559536176549
 20
311.77240852276009
 30
0.0
  0
VERTEX
  5
212D8
  8
0
 10
421.8314838596657
 20
311.76330391326019
 30
0.0
  0
VERTEX
  5
212D9
  8
0
 10
422.34067888936551
 20
311.77154053016011
 30
0.0
  0
VERTEX
  5
212DA
  8
0
 10
422.7933687158656
 20
311.84318531316018
 30
0.0
  0
VERTEX
  5
212DB
  8
0
 10
423.13037337736557
 20
311.96917463106018
 30
0.0
  0
VERTEX
  5
212DC
  8
0
 10
423.33986880266571
 20
312.1559085325602
 30
0.0
  0
VERTEX
  5
212DD
  8
0
 10
423.36806925016572
 20
312.36594039956009
 30
0.0
  0
VERTEX
  5
212DE
  8
0
 10
423.23141815146568
 20
312.58940566336008
 30
0.0
  0
VERTEX
  5
212DF
  8
0
 10
422.9293194599656
 20
312.7962263301601
 30
0.0
  0
VERTEX
  5
212E0
  8
0
 10
422.53899099306562
 20
312.9395456985601
 30
0.0
  0
VERTEX
  5
212E1
  8
0
 10
422.0517453737657
 20
313.02744392316021
 30
0.0
  0
VERTEX
  5
212E2
  8
0
 10
421.8807023950655
 20
313.03880233326021
 30
0.0
  0
SEQEND
  5
212E3
  8
0
  0
POLYLINE
  5
20C24
  8
0
 66
     1
 10
0.0
 20
0.0
 30
0.0
 70
   128
  0
VERTEX
  5
212E4
  8
0
 10
417.2378954477656
 20
311.50158364336011
 30
0.0
  0
VERTEX
  5
212E5
  8
0
 10
416.73781992876559
 20
311.50067839776023
 30
0.0
  0
VERTEX
  5
212E6
  8
0
 10
416.29144819456559
 20
311.45607922236007
 30
0.0
  0
VERTEX
  5
212E7
  8
0
 10
415.93615235766561
 20
311.37293446816022
 30
0.0
  0
VERTEX
  5
212E8
  8
0
 10
415.7376763411657
 20
311.27196419996022
 30
0.0
  0
VERTEX
  5
212E9
  8
0
 10
415.70133985956562
 20
311.15939337766008
 30
0.0
  0
VERTEX
  5
212EA
  8
0
 10
415.84511371336561
 20
311.05901543056012
 30
0.0
  0
VERTEX
  5
212EB
  8
0
 10
416.12553866586558
 20
310.97676474606021
 30
0.0
  0
VERTEX
  5
212EC
  8
0
 10
416.54507340866581
 20
310.90900544086008
 30
0.0
  0
VERTEX
  5
212ED
  8
0
 10
417.01580854136569
 20
310.86828056736022
 30
0.0
  0
VERTEX
  5
212EE
  8
0
 10
417.16123642406558
 20
310.8607592061602
 30
0.0
  0
VERTEX
  5
212EF
  8
0
 10
417.66481371596569
 20
310.8515204862602
 30
0.0
  0
VERTEX
  5
212F0
  8
0
 10
418.1134727783658
 20
310.87231878196008
 30
0.0
  0
VERTEX
  5
212F1
  8
0
 10
418.44696821646562
 20
310.92158202096022
 30
0.0
  0
VERTEX
  5
212F2
  8
0
 10
418.65907879546569
 20
311.00525576626012
 30
0.0
  0
VERTEX
  5
212F3
  8
0
 10
418.6918613501656
 20
311.1100034789601
 30
0.0
  0
VERTEX
  5
212F4
  8
0
 10
418.55830969296562
 20
311.22902277866018
 30
0.0
  0
VERTEX
  5
212F5
  8
0
 10
418.26034607366569
 20
311.34600806986009
 30
0.0
  0
VERTEX
  5
212F6
  8
0
 10
417.87769170486581
 20
311.43228579326018
 30
0.0
  0
VERTEX
  5
212F7
  8
0
 10
417.39937933166561
 20
311.49165946996021
 30
0.0
  0
VERTEX
  5
212F8
  8
0
 10
417.2378954477656
 20
311.50158364336011
 30
0.0
  0
SEQEND
  5
212F9
  8
0
  0
POLYLINE
  5
20C25
  8
0
 66
     1
 10
0.0
 20
0.0
 30
0.0
 70
   128
  0
VERTEX
  5
212FA
  8
0
 10
390.18930764876558
 20
312.6594522968602
 30
0.0
  0
VERTEX
  5
212FB
  8
0
 10
389.69351621346573
 20
312.65295539056012
 30
0.0
  0
VERTEX
  5
212FC
  8
0
 10
389.2526206560658
 20
312.59403619926019
 30
0.0
  0
VERTEX
  5
212FD
  8
0
 10
388.90816541396572
 20
312.48947847646019
 30
0.0
  0
VERTEX
  5
212FE
  8
0
 10
388.72374864296557
 20
312.36759815376013
 30
0.0
  0
VERTEX
  5
212FF
  8
0
 10
388.69322361426572
 20
312.23239991826023
 30
0.0
  0
VERTEX
  5
21300
  8
0
 10
388.83951576426563
 20
312.11173031486021
 30
0.0
  0
VERTEX
  5
21301
  8
0
 10
389.12489535296572
 20
312.0150813833601
 30
0.0
  0
VERTEX
  5
21302
  8
0
 10
389.5472538657657
 20
311.93911153836012
 30
0.0
  0
VERTEX
  5
21303
  8
0
 10
390.02145351846571
 20
311.8960658089602
 30
0.0
  0
VERTEX
  5
21304
  8
0
 10
390.1758295484658
 20
311.88848111786018
 30
0.0
  0
VERTEX
  5
21305
  8
0
 10
390.67399771886562
 20
311.88377980156008
 30
0.0
  0
VERTEX
  5
21306
  8
0
 10
391.11580969766578
 20
311.91366408026022
 30
0.0
  0
VERTEX
  5
21307
  8
0
 10
391.44134791576562
 20
311.97571251546009
 30
0.0
  0
VERTEX
  5
21308
  8
0
 10
391.64480092006562
 20
312.07748744646022
 30
0.0
  0
VERTEX
  5
21309
  8
0
 10
391.66837455706559
 20
312.20044810336009
 30
0.0
  0
VERTEX
  5
2130A
  8
0
 10
391.5326175280656
 20
312.33766917146011
 30
0.0
  0
VERTEX
  5
2130B
  8
0
 10
391.23329045256583
 20
312.47613821186019
 30
0.0
  0
VERTEX
  5
2130C
  8
0
 10
390.83949001506562
 20
312.58039791146018
 30
0.0
  0
VERTEX
  5
2130D
  8
0
 10
390.35383882006568
 20
312.6489246264602
 30
0.0
  0
VERTEX
  5
2130E
  8
0
 10
390.18930764876558
 20
312.6594522968602
 30
0.0
  0
SEQEND
  5
2130F
  8
0
  0
POLYLINE
  5
20C26
  8
0
 66
     1
 10
0.0
 20
0.0
 30
0.0
 70
   128
  0
VERTEX
  5
21310
  8
0
 10
394.74102379756579
 20
314.43181131046009
 30
0.0
  0
VERTEX
  5
21311
  8
0
 10
394.24541117626569
 20
314.41204864536019
 30
0.0
  0
VERTEX
  5
21312
  8
0
 10
393.80251141266558
 20
314.3041754142601
 30
0.0
  0
VERTEX
  5
21313
  8
0
 10
393.45386894426571
 20
314.11672625696019
 30
0.0
  0
VERTEX
  5
21314
  8
0
 10
393.26507868246563
 20
313.89698628346008
 30
0.0
  0
VERTEX
  5
21315
  8
0
 10
393.22791518646568
 20
313.64714223896021
 30
0.0
  0
VERTEX
  5
21316
  8
0
 10
393.36820216856557
 20
313.41813374316018
 30
0.0
  0
VERTEX
  5
21317
  8
0
 10
393.64827694376572
 20
313.23267389096009
 30
0.0
  0
VERTEX
  5
21318
  8
0
 10
394.0667090006657
 20
313.08797989046008
 30
0.0
  0
VERTEX
  5
21319
  8
0
 10
394.54148234806581
 20
313.01234904686009
 30
0.0
  0
VERTEX
  5
2131A
  8
0
 10
394.70067145306581
 20
313.00146002336021
 30
0.0
  0
VERTEX
  5
2131B
  8
0
 10
395.19920470196581
 20
313.01035229126012
 30
0.0
  0
VERTEX
  5
2131C
  8
0
 10
395.64302088696581
 20
313.08933217086019
 30
0.0
  0
VERTEX
  5
2131D
  8
0
 10
395.97254516556569
 20
313.22649363436022
 30
0.0
  0
VERTEX
  5
2131E
  8
0
 10
396.17965640506583
 20
313.42986840766008
 30
0.0
  0
VERTEX
  5
2131F
  8
0
 10
396.20787175376591
 20
313.6583516375602
 30
0.0
  0
VERTEX
  5
21320
  8
0
 10
396.07819439846571
 20
313.90081588186013
 30
0.0
  0
VERTEX
  5
21321
  8
0
 10
395.78449251136573
 20
314.13688380276022
 30
0.0
  0
VERTEX
  5
21322
  8
0
 10
395.3930390067656
 20
314.30895496166022
 30
0.0
  0
VERTEX
  5
21323
  8
0
 10
394.90740271286569
 20
314.41682446756022
 30
0.0
  0
VERTEX
  5
21324
  8
0
 10
394.74102379756579
 20
314.43181131046009
 30
0.0
  0
SEQEND
  5
21325
  8
0
  0
ARC
  5
20C27
  8
0
 10
403.11962538905868
 20
306.96673011010432
 30
0.0
 40
4.2344800977816393
 50
82.609846027664943
 51
102.8978680049354
  0
POLYLINE
  5
20C28
  8
0
 66
     1
 10
0.0
 20
0.0
 30
0.0
 70
   128
  0
VERTEX
  5
21326
  8
0
 10
402.17443080626572
 20
311.09437216086008
 30
0.0
  0
VERTEX
  5
21327
  8
0
 10
402.32203762769763
 20
311.07529117225408
 30
0.0
  0
SEQEND
  5
21328
  8
0
  0
POLYLINE
  5
20C29
  8
0
 66
     1
 10
0.0
 20
0.0
 30
0.0
 70
   128
  0
VERTEX
  5
21329
  8
0
 10
404.77259074280272
 20
310.97641977043531
 30
0.0
  0
VERTEX
  5
2132A
  8
0
 10
404.91795809946569
 20
310.97299102706017
 30
0.0
  0
VERTEX
  5
2132B
  8
0
 10
405.11980922896572
 20
310.98010633146021
 30
0.0
  0
VERTEX
  5
2132C
  8
0
 10
405.14266015966558
 20
311.00389231006022
 30
0.0
  0
VERTEX
  5
2132D
  8
0
 10
405.00150145966558
 20
311.0418716446602
 30
0.0
  0
VERTEX
  5
2132E
  8
0
 10
404.69669820746572
 20
311.08806524436022
 30
0.0
  0
VERTEX
  5
2132F
  8
0
 10
404.30560978136572
 20
311.12784389416021
 30
0.0
  0
VERTEX
  5
21330
  8
0
 10
403.82360937076578
 20
311.15945298236022
 30
0.0
  0
VERTEX
  5
21331
  8
0
 10
403.6642861552657
 20
311.16603557026008
 30
0.0
  0
VERTEX
  5
21332
  8
0
 10
403.6642861552657
 20
311.16603557026008
 30
0.0
  0
SEQEND
  5
21333
  8
0
  0
POLYLINE
  5
20C2A
  8
0
 66
     1
 10
0.0
 20
0.0
 30
0.0
 70
   128
  0
VERTEX
  5
21334
  8
0
 10
399.18776126586567
 20
312.26190794266012
 30
0.0
  0
VERTEX
  5
21335
  8
0
 10
398.69009973486573
 20
312.2566776350601
 30
0.0
  0
VERTEX
  5
21336
  8
0
 10
398.24784817176561
 20
312.20183018606019
 30
0.0
  0
VERTEX
  5
21337
  8
0
 10
397.90430190046573
 20
312.10394445816007
 30
0.0
  0
VERTEX
  5
21338
  8
0
 10
397.72093566136567
 20
311.98949608956008
 30
0.0
  0
VERTEX
  5
21339
  8
0
 10
397.6916772313657
 20
311.86206508436021
 30
0.0
  0
VERTEX
  5
2133A
  8
0
 10
397.83932538706563
 20
311.74822021286019
 30
0.0
  0
VERTEX
  5
2133B
  8
0
 10
398.12602372846578
 20
311.65688727056022
 30
0.0
  0
VERTEX
  5
2133C
  8
0
 10
398.54912729936558
 20
311.5852983669601
 30
0.0
  0
VERTEX
  5
2133D
  8
0
 10
399.02131529526559
 20
311.54514346276022
 30
0.0
  0
VERTEX
  5
2133E
  8
0
 10
399.1718915291658
 20
311.5382442251601
 30
0.0
  0
VERTEX
  5
2133F
  8
0
 10
399.6706408448656
 20
311.53412777936018
 30
0.0
  0
VERTEX
  5
21340
  8
0
 10
400.11275084696558
 20
311.56273800886009
 30
0.0
  0
VERTEX
  5
21341
  8
0
 10
400.43850513176551
 20
311.62153799096012
 30
0.0
  0
VERTEX
  5
21342
  8
0
 10
400.64177932226562
 20
311.71728167696011
 30
0.0
  0
VERTEX
  5
21343
  8
0
 10
400.66532315686572
 20
311.83298919356008
 30
0.0
  0
VERTEX
  5
21344
  8
0
 10
400.52785994486561
 20
311.96212638176019
 30
0.0
  0
VERTEX
  5
21345
  8
0
 10
400.22708000616581
 20
312.0911965147601
 30
0.0
  0
VERTEX
  5
21346
  8
0
 10
399.8357904143657
 20
312.18762937946008
 30
0.0
  0
VERTEX
  5
21347
  8
0
 10
399.35245634996568
 20
312.25178632896018
 30
0.0
  0
VERTEX
  5
21348
  8
0
 10
399.18776126586567
 20
312.26190794266012
 30
0.0
  0
SEQEND
  5
21349
  8
0
  0
POLYLINE
  5
20C2B
  8
0
 66
     1
 10
0.0
 20
0.0
 30
0.0
 70
   128
  0
VERTEX
  5
2134A
  8
0
 10
381.39961929996571
 20
318.41596458116021
 30
0.0
  0
VERTEX
  5
2134B
  8
0
 10
380.90831683956571
 20
318.3767782525602
 30
0.0
  0
VERTEX
  5
2134C
  8
0
 10
380.46517493206579
 20
318.20747125906018
 30
0.0
  0
VERTEX
  5
2134D
  8
0
 10
380.1063735969658
 20
317.91562084116021
 30
0.0
  0
VERTEX
  5
2134E
  8
0
 10
379.9035762436659
 20
317.56854671996018
 30
0.0
  0
VERTEX
  5
2134F
  8
0
 10
379.8520890064658
 20
317.17301774776013
 30
0.0
  0
VERTEX
  5
21350
  8
0
 10
379.97823478656579
 20
316.80539492526009
 30
0.0
  0
VERTEX
  5
21351
  8
0
 10
380.24610178546573
 20
316.50486458106019
 30
0.0
  0
VERTEX
  5
21352
  8
0
 10
380.65587626776568
 20
316.26948211356017
 30
0.0
  0
VERTEX
  5
21353
  8
0
 10
381.12679766496581
 20
316.14997480076022
 30
0.0
  0
VERTEX
  5
21354
  8
0
 10
381.29511000596563
 20
316.13385919486012
 30
0.0
  0
VERTEX
  5
21355
  8
0
 10
381.79170610386558
 20
316.1599995569602
 30
0.0
  0
VERTEX
  5
21356
  8
0
 10
382.23708318546568
 20
316.30246583386008
 30
0.0
  0
VERTEX
  5
21357
  8
0
 10
382.57004963236568
 20
316.53540078556011
 30
0.0
  0
VERTEX
  5
21358
  8
0
 10
382.78936864816569
 20
316.87174607076008
 30
0.0
  0
VERTEX
  5
21359
  8
0
 10
382.83175872646581
 20
317.24305320536018
 30
0.0
  0
VERTEX
  5
2135A
  8
0
 10
382.71520556886571
 20
317.6228763536601
 30
0.0
  0
VERTEX
  5
2135B
  8
0
 10
382.43519039826589
 20
317.98210982246019
 30
0.0
  0
VERTEX
  5
2135C
  8
0
 10
382.05287130556582
 20
318.23907289666022
 30
0.0
  0
VERTEX
  5
2135D
  8
0
 10
381.57165320596567
 20
318.39555744086022
 30
0.0
  0
VERTEX
  5
2135E
  8
0
 10
381.39961929996571
 20
318.41596458116021
 30
0.0
  0
SEQEND
  5
2135F
  8
0
  0
POLYLINE
  5
20C2C
  8
0
 66
     1
 10
0.0
 20
0.0
 30
0.0
 70
   128
  0
VERTEX
  5
21360
  8
0
 10
408.3281409927655
 20
316.5655234829602
 30
0.0
  0
VERTEX
  5
21361
  8
0
 10
407.83144803726572
 20
316.53031203906022
 30
0.0
  0
VERTEX
  5
21362
  8
0
 10
407.38499434666568
 20
316.37242306036018
 30
0.0
  0
VERTEX
  5
21363
  8
0
 10
407.03332694256568
 20
316.10277909796019
 30
0.0
  0
VERTEX
  5
21364
  8
0
 10
406.84329988436571
 20
315.79134110366022
 30
0.0
  0
VERTEX
  5
21365
  8
0
 10
406.7995575256657
 20
315.43348971766022
 30
0.0
  0
VERTEX
  5
21366
  8
0
 10
406.9323715754656
 20
315.10018799466008
 30
0.0
  0
VERTEX
  5
21367
  8
0
 10
407.20556201416559
 20
314.82979152356017
 30
0.0
  0
VERTEX
  5
21368
  8
0
 10
407.61875631296579
 20
314.61743880076011
 30
0.0
  0
VERTEX
  5
21369
  8
0
 10
408.09989990666571
 20
314.50587753216013
 30
0.0
  0
VERTEX
  5
2136A
  8
0
 10
408.27256711206559
 20
314.49031699456009
 30
0.0
  0
VERTEX
  5
2136B
  8
0
 10
408.77190502366579
 20
314.51159212746018
 30
0.0
  0
VERTEX
  5
2136C
  8
0
 10
409.21809794386559
 20
314.63778633636008
 30
0.0
  0
VERTEX
  5
2136D
  8
0
 10
409.55035658556579
 20
314.84761703766009
 30
0.0
  0
VERTEX
  5
2136E
  8
0
 10
409.76109625776581
 20
315.15128407636013
 30
0.0
  0
VERTEX
  5
2136F
  8
0
 10
409.79191185906569
 20
315.47956038276021
 30
0.0
  0
VERTEX
  5
21370
  8
0
 10
409.66986389836569
 20
315.82061443486009
 30
0.0
  0
VERTEX
  5
21371
  8
0
 10
409.38505055386548
 20
316.15346912306012
 30
0.0
  0
VERTEX
  5
21372
  8
0
 10
408.99167479956549
 20
316.3980642334601
 30
0.0
  0
VERTEX
  5
21373
  8
0
 10
408.50253673276552
 20
316.5459917859601
 30
0.0
  0
VERTEX
  5
21374
  8
0
 10
408.3281409927655
 20
316.5655234829602
 30
0.0
  0
SEQEND
  5
21375
  8
0
  0
POLYLINE
  5
20C2D
  8
0
 66
     1
 10
0.0
 20
0.0
 30
0.0
 70
   128
  0
VERTEX
  5
21376
  8
0
 10
399.3468535133656
 20
317.19496715826011
 30
0.0
  0
VERTEX
  5
21377
  8
0
 10
398.84808929646562
 20
317.1613762155601
 30
0.0
  0
VERTEX
  5
21378
  8
0
 10
398.39899810036582
 20
317.00052563106021
 30
0.0
  0
VERTEX
  5
21379
  8
0
 10
398.0471593328657
 20
316.72517452396022
 30
0.0
  0
VERTEX
  5
2137A
  8
0
 10
397.85521747546568
 20
316.40401352206021
 30
0.0
  0
VERTEX
  5
2137B
  8
0
 10
397.80913563446569
 20
316.03470686836022
 30
0.0
  0
VERTEX
  5
2137C
  8
0
 10
397.93945373976572
 20
315.68592656416013
 30
0.0
  0
VERTEX
  5
2137D
  8
0
 10
398.21291239936568
 20
315.40053952496021
 30
0.0
  0
VERTEX
  5
2137E
  8
0
 10
398.62735839566562
 20
315.17773736276013
 30
0.0
  0
VERTEX
  5
2137F
  8
0
 10
399.10144628966577
 20
315.06306175156021
 30
0.0
  0
VERTEX
  5
21380
  8
0
 10
399.26532926046571
 20
315.04721064126011
 30
0.0
  0
VERTEX
  5
21381
  8
0
 10
399.76098658526581
 20
315.06685782236008
 30
0.0
  0
VERTEX
  5
21382
  8
0
 10
400.20482512196571
 20
315.19500035806021
 30
0.0
  0
VERTEX
  5
21383
  8
0
 10
400.5353701301658
 20
315.40855262436008
 30
0.0
  0
VERTEX
  5
21384
  8
0
 10
400.7518392987655
 20
315.72035197176018
 30
0.0
  0
VERTEX
  5
21385
  8
0
 10
400.79221399506571
 20
316.06739256536019
 30
0.0
  0
VERTEX
  5
21386
  8
0
 10
400.67453952506571
 20
316.4274455980601
 30
0.0
  0
VERTEX
  5
21387
  8
0
 10
400.39287777626572
 20
316.77195299426018
 30
0.0
  0
VERTEX
  5
21388
  8
0
 10
400.00956030566567
 20
317.01946500696022
 30
0.0
  0
VERTEX
  5
21389
  8
0
 10
399.52962370596578
 20
317.17250365776022
 30
0.0
  0
VERTEX
  5
2138A
  8
0
 10
399.3468535133656
 20
317.19496715826011
 30
0.0
  0
SEQEND
  5
2138B
  8
0
  0
POLYLINE
  5
20C2E
  8
0
 66
     1
 10
0.0
 20
0.0
 30
0.0
 70
   128
  0
VERTEX
  5
2138C
  8
0
 10
390.37193628036562
 20
317.81425941746022
 30
0.0
  0
VERTEX
  5
2138D
  8
0
 10
389.87256111586572
 20
317.77679417296019
 30
0.0
  0
VERTEX
  5
2138E
  8
0
 10
389.42291112616567
 20
317.60908532896008
 30
0.0
  0
VERTEX
  5
2138F
  8
0
 10
389.06991751866582
 20
317.3240894452602
 30
0.0
  0
VERTEX
  5
21390
  8
0
 10
388.87632163246582
 20
316.99176374836009
 30
0.0
  0
VERTEX
  5
21391
  8
0
 10
388.82995666936557
 20
316.60941112796007
 30
0.0
  0
VERTEX
  5
21392
  8
0
 10
388.96022262056567
 20
316.25208873306008
 30
0.0
  0
VERTEX
  5
21393
  8
0
 10
389.23310758546558
 20
315.95929581686022
 30
0.0
  0
VERTEX
  5
21394
  8
0
 10
389.64727791026581
 20
315.73151294156008
 30
0.0
  0
VERTEX
  5
21395
  8
0
 10
390.11852713306581
 20
315.61678517616019
 30
0.0
  0
VERTEX
  5
21396
  8
0
 10
390.27909459546572
 20
315.60173127806007
 30
0.0
  0
VERTEX
  5
21397
  8
0
 10
390.77543737366568
 20
315.62542039906009
 30
0.0
  0
VERTEX
  5
21398
  8
0
 10
391.22001351796581
 20
315.76178092516022
 30
0.0
  0
VERTEX
  5
21399
  8
0
 10
391.55034245926572
 20
315.9852797166601
 30
0.0
  0
VERTEX
  5
2139A
  8
0
 10
391.7686966248657
 20
316.31075460476018
 30
0.0
  0
VERTEX
  5
2139B
  8
0
 10
391.81064339356573
 20
316.67238716046018
 30
0.0
  0
VERTEX
  5
2139C
  8
0
 10
391.6923505254656
 20
317.04486031096008
 30
0.0
  0
VERTEX
  5
2139D
  8
0
 10
391.41023429116581
 20
317.39447135486012
 30
0.0
  0
VERTEX
  5
2139E
  8
0
 10
391.03076877076569
 20
317.64088068166012
 30
0.0
  0
VERTEX
  5
2139F
  8
0
 10
390.55396141486591
 20
317.79255215086022
 30
0.0
  0
VERTEX
  5
213A0
  8
0
 10
390.37193628036562
 20
317.81425941746022
 30
0.0
  0
SEQEND
  5
213A1
  8
0
  0
ARC
  5
20C2F
  8
0
 10
394.10426498896572
 20
306.44572775276021
 30
0.0
 40
5.08082543523326
 50
83.567317791299587
 51
100.3603687499109
  0
POLYLINE
  5
20C30
  8
0
 66
     1
 10
0.0
 20
0.0
 30
0.0
 70
   128
  0
VERTEX
  5
213A2
  8
0
 10
396.14464510588778
 20
311.32452774437769
 30
0.0
  0
VERTEX
  5
213A3
  8
0
 10
396.15974845366583
 20
311.33653093136007
 30
0.0
  0
VERTEX
  5
213A4
  8
0
 10
396.01929010826581
 20
311.36916819966018
 30
0.0
  0
VERTEX
  5
213A5
  8
0
 10
395.71563424546571
 20
311.41345072546011
 30
0.0
  0
VERTEX
  5
213A6
  8
0
 10
395.32049270346579
 20
311.4541457966601
 30
0.0
  0
VERTEX
  5
213A7
  8
0
 10
394.83475955206558
 20
311.48740891376008
 30
0.0
  0
VERTEX
  5
213A8
  8
0
 10
394.67349918566561
 20
311.4945651964602
 30
0.0
  0
SEQEND
  5
213A9
  8
0
  0
POLYLINE
  5
20C31
  8
0
 66
     1
 10
0.0
 20
0.0
 30
0.0
 70
   128
  0
VERTEX
  5
213AA
  8
0
 10
385.75214417656571
 20
314.9327585474602
 30
0.0
  0
VERTEX
  5
213AB
  8
0
 10
385.25519045076572
 20
314.9098927155602
 30
0.0
  0
VERTEX
  5
213AC
  8
0
 10
384.81075959286568
 20
314.79511279626013
 30
0.0
  0
VERTEX
  5
213AD
  8
0
 10
384.46167008956559
 20
314.59778789436012
 30
0.0
  0
VERTEX
  5
213AE
  8
0
 10
384.27265631036562
 20
314.36771769086022
 30
0.0
  0
VERTEX
  5
213AF
  8
0
 10
384.23435660086579
 20
314.10605702556012
 30
0.0
  0
VERTEX
  5
213B0
  8
0
 10
384.37356697396558
 20
313.86574227376019
 30
0.0
  0
VERTEX
  5
213B1
  8
0
 10
384.65381683786569
 20
313.67101389926017
 30
0.0
  0
VERTEX
  5
213B2
  8
0
 10
385.07230849936582
 20
313.52014709276023
 30
0.0
  0
VERTEX
  5
213B3
  8
0
 10
385.54554702716558
 20
313.44242263596021
 30
0.0
  0
VERTEX
  5
213B4
  8
0
 10
385.70294054226571
 20
313.43157086526008
 30
0.0
  0
VERTEX
  5
213B5
  8
0
 10
386.20125027376571
 20
313.44238538306013
 30
0.0
  0
VERTEX
  5
213B6
  8
0
 10
386.64522292096581
 20
313.52704260506022
 30
0.0
  0
VERTEX
  5
213B7
  8
0
 10
386.9738456793657
 20
313.67197502416008
 30
0.0
  0
VERTEX
  5
213B8
  8
0
 10
387.18363912776567
 20
313.88718131936008
 30
0.0
  0
VERTEX
  5
213B9
  8
0
 10
387.21475275236571
 20
314.12941087046022
 30
0.0
  0
VERTEX
  5
213BA
  8
0
 10
387.08629729226573
 20
314.38498441136022
 30
0.0
  0
VERTEX
  5
213BB
  8
0
 10
386.79344477136578
 20
314.63084239526017
 30
0.0
  0
VERTEX
  5
213BC
  8
0
 10
386.40424134216568
 20
314.8077303544602
 30
0.0
  0
VERTEX
  5
213BD
  8
0
 10
385.92133941136558
 20
314.91757426416012
 30
0.0
  0
VERTEX
  5
213BE
  8
0
 10
385.75214417656571
 20
314.9327585474602
 30
0.0
  0
SEQEND
  5
213BF
  8
0
  0
POLYLINE
  5
20C32
  8
0
 66
     1
 10
0.0
 20
0.0
 30
0.0
 70
   128
  0
VERTEX
  5
213C0
  8
0
 10
381.19326801976581
 20
313.05903438486013
 30
0.0
  0
VERTEX
  5
213C1
  8
0
 10
380.69688798866559
 20
313.05107343956013
 30
0.0
  0
VERTEX
  5
213C2
  8
0
 10
380.25540383536583
 20
312.98841033136023
 30
0.0
  0
VERTEX
  5
213C3
  8
0
 10
379.9117718823656
 20
312.8785366193602
 30
0.0
  0
VERTEX
  5
213C4
  8
0
 10
379.72879679876559
 20
312.75166440766009
 30
0.0
  0
VERTEX
  5
213C5
  8
0
 10
379.69766454776573
 20
312.61085215966023
 30
0.0
  0
VERTEX
  5
213C6
  8
0
 10
379.84355809176549
 20
312.48444188396019
 30
0.0
  0
VERTEX
  5
213C7
  8
0
 10
380.12973861776572
 20
312.38353494566019
 30
0.0
  0
VERTEX
  5
213C8
  8
0
 10
380.5538740940658
 20
312.30464447296009
 30
0.0
  0
VERTEX
  5
213C9
  8
0
 10
381.0271386988656
 20
312.2604439035602
 30
0.0
  0
VERTEX
  5
213CA
  8
0
 10
381.18064673626583
 20
312.25271392626013
 30
0.0
  0
VERTEX
  5
213CB
  8
0
 10
381.67697833856568
 20
312.2480759397601
 30
0.0
  0
VERTEX
  5
213CC
  8
0
 10
382.11727039896579
 20
312.2792566195601
 30
0.0
  0
VERTEX
  5
213CD
  8
0
 10
382.44112106046578
 20
312.34366316356022
 30
0.0
  0
VERTEX
  5
213CE
  8
0
 10
382.64634357766568
 20
312.4498153106602
 30
0.0
  0
VERTEX
  5
213CF
  8
0
 10
382.67267765486582
 20
312.57937718196013
 30
0.0
  0
VERTEX
  5
213D0
  8
0
 10
382.53819094976581
 20
312.72372845566008
 30
0.0
  0
VERTEX
  5
213D1
  8
0
 10
382.23968343816568
 20
312.86867577596013
 30
0.0
  0
VERTEX
  5
213D2
  8
0
 10
381.84708254416569
 20
312.9771152512601
 30
0.0
  0
VERTEX
  5
213D3
  8
0
 10
381.36221738536568
 20
313.04804850376019
 30
0.0
  0
VERTEX
  5
213D4
  8
0
 10
381.19326801976581
 20
313.05903438486013
 30
0.0
  0
SEQEND
  5
213D5
  8
0
  0
POLYLINE
  5
20C33
  8
0
 66
     1
 10
0.0
 20
0.0
 30
0.0
 70
   128
  0
VERTEX
  5
213D6
  8
0
 10
376.77156450236572
 20
315.41823837916007
 30
0.0
  0
VERTEX
  5
213D7
  8
0
 10
376.2806308456656
 20
315.39298463626011
 30
0.0
  0
VERTEX
  5
213D8
  8
0
 10
375.84121795376569
 20
315.27431551376009
 30
0.0
  0
VERTEX
  5
213D9
  8
0
 10
375.48970328646578
 20
315.06988648336022
 30
0.0
  0
VERTEX
  5
213DA
  8
0
 10
375.29533999046572
 20
314.82863295836017
 30
0.0
  0
VERTEX
  5
213DB
  8
0
 10
375.25352360686571
 20
314.55672774476022
 30
0.0
  0
VERTEX
  5
213DC
  8
0
 10
375.38939239466572
 20
314.3061088398602
 30
0.0
  0
VERTEX
  5
213DD
  8
0
 10
375.66769020636571
 20
314.10274524246017
 30
0.0
  0
VERTEX
  5
213DE
  8
0
 10
376.08591737226578
 20
313.9456385747601
 30
0.0
  0
VERTEX
  5
213DF
  8
0
 10
376.5564811416657
 20
313.86590991176018
 30
0.0
  0
VERTEX
  5
213E0
  8
0
 10
376.71568514786549
 20
313.85479737086018
 30
0.0
  0
VERTEX
  5
213E1
  8
0
 10
377.21112268046568
 20
313.86707220236008
 30
0.0
  0
VERTEX
  5
213E2
  8
0
 10
377.65303151686572
 20
313.95565215506019
 30
0.0
  0
VERTEX
  5
213E3
  8
0
 10
377.98026101666568
 20
314.10593036576012
 30
0.0
  0
VERTEX
  5
213E4
  8
0
 10
378.19290431216558
 20
314.32970110336021
 30
0.0
  0
VERTEX
  5
213E5
  8
0
 10
378.22763146836559
 20
314.58312142646008
 30
0.0
  0
VERTEX
  5
213E6
  8
0
 10
378.10188429436562
 20
314.84870482246009
 30
0.0
  0
VERTEX
  5
213E7
  8
0
 10
377.81141223386572
 20
315.10435286916021
 30
0.0
  0
VERTEX
  5
213E8
  8
0
 10
377.42131100976582
 20
315.28952214876011
 30
0.0
  0
VERTEX
  5
213E9
  8
0
 10
376.9357976503656
 20
315.40350858136009
 30
0.0
  0
VERTEX
  5
213EA
  8
0
 10
376.77156450236572
 20
315.41823837916007
 30
0.0
  0
SEQEND
  5
213EB
  8
0
  0
POLYLINE
  5
20C34
  8
0
 66
     1
 10
0.0
 20
0.0
 30
0.0
 70
   128
  0
VERTEX
  5
213EC
  8
0
 10
412.6461696811657
 20
310.84511298696009
 30
0.0
  0
VERTEX
  5
213ED
  8
0
 10
412.1553999372656
 20
310.8547354117602
 30
0.0
  0
VERTEX
  5
213EE
  8
0
 10
411.71902688226578
 20
310.84667388356019
 30
0.0
  0
VERTEX
  5
213EF
  8
0
 10
411.36859627446569
 20
310.82383412876021
 30
0.0
  0
VERTEX
  5
213F0
  8
0
 10
411.1733389087658
 20
310.79443786306012
 30
0.0
  0
VERTEX
  5
213F1
  8
0
 10
411.13954307516559
 20
310.76237801476009
 30
0.0
  0
VERTEX
  5
213F2
  8
0
 10
411.28502311186571
 20
310.73372680706018
 30
0.0
  0
VERTEX
  5
213F3
  8
0
 10
411.56999291856567
 20
310.70896852766009
 30
0.0
  0
VERTEX
  5
213F4
  8
0
 10
411.97926370997442
 20
310.68565526738439
 30
0.0
  0
SEQEND
  5
213F5
  8
0
  0
POLYLINE
  5
20C35
  8
0
 66
     1
 10
0.0
 20
0.0
 30
0.0
 70
   128
  0
VERTEX
  5
213F6
  8
0
 10
413.14123258277272
 20
310.6387738141259
 30
0.0
  0
VERTEX
  5
213F7
  8
0
 10
413.53450240576581
 20
310.62852833426018
 30
0.0
  0
VERTEX
  5
213F8
  8
0
 10
413.86135192596561
 20
310.62779072686021
 30
0.0
  0
VERTEX
  5
213F9
  8
0
 10
414.06912626706571
 20
310.64187604946011
 30
0.0
  0
VERTEX
  5
213FA
  8
0
 10
414.06912626706571
 20
310.64187604946011
 30
0.0
  0
SEQEND
  5
213FB
  8
0
  0
POLYLINE
  5
20C36
  8
0
 66
     1
 10
0.0
 20
0.0
 30
0.0
 70
   128
  0
VERTEX
  5
213FC
  8
0
 10
414.06912626706571
 20
310.64187604946011
 30
0.0
  0
VERTEX
  5
213FD
  8
0
 10
414.09918190916568
 20
310.67141015096013
 30
0.0
  0
VERTEX
  5
213FE
  8
0
 10
413.96218063316559
 20
310.71399021906012
 30
0.0
  0
VERTEX
  5
213FF
  8
0
 10
413.66100581366572
 20
310.76328326026021
 30
0.0
  0
VERTEX
  5
21400
  8
0
 10
413.27479006726571
 20
310.80498788516007
 30
0.0
  0
VERTEX
  5
21401
  8
0
 10
412.79661180456549
 20
310.83836276096008
 30
0.0
  0
VERTEX
  5
21402
  8
0
 10
412.6461696811657
 20
310.84511298696009
 30
0.0
  0
SEQEND
  5
21403
  8
0
  0
POLYLINE
  5
20C37
  8
0
 66
     1
 10
0.0
 20
0.0
 30
0.0
 70
   128
  0
VERTEX
  5
21404
  8
0
 10
408.19834442816563
 20
311.88269574206021
 30
0.0
  0
VERTEX
  5
21405
  8
0
 10
407.6966074295658
 20
311.87864262616017
 30
0.0
  0
VERTEX
  5
21406
  8
0
 10
407.25070508206562
 20
311.82839591066022
 30
0.0
  0
VERTEX
  5
21407
  8
0
 10
406.90649570906561
 20
311.7384077981601
 30
0.0
  0
VERTEX
  5
21408
  8
0
 10
406.72222049906571
 20
311.63257602616022
 30
0.0
  0
VERTEX
  5
21409
  8
0
 10
406.69377418236559
 20
311.51484940206018
 30
0.0
  0
VERTEX
  5
2140A
  8
0
 10
406.8423238583656
 20
311.40947211546012
 30
0.0
  0
VERTEX
  5
2140B
  8
0
 10
407.12967785076552
 20
311.32444608966023
 30
0.0
  0
VERTEX
  5
2140C
  8
0
 10
407.55305709326581
 20
311.25759202996011
 30
0.0
  0
VERTEX
  5
2140D
  8
0
 10
408.02166881046583
 20
311.22027579706008
 30
0.0
  0
VERTEX
  5
2140E
  8
0
 10
408.16771509126579
 20
311.21394652886022
 30
0.0
  0
VERTEX
  5
2140F
  8
0
 10
408.67039086306562
 20
311.2098040060601
 30
0.0
  0
VERTEX
  5
21410
  8
0
 10
409.11597283566562
 20
311.23646590866019
 30
0.0
  0
VERTEX
  5
21411
  8
0
 10
409.4465029426658
 20
311.29192803066007
 30
0.0
  0
VERTEX
  5
21412
  8
0
 10
409.64873405176581
 20
311.3811487332602
 30
0.0
  0
VERTEX
  5
21413
  8
0
 10
409.67104854066559
 20
311.48858610546012
 30
0.0
  0
VERTEX
  5
21414
  8
0
 10
409.53111918646567
 20
311.60893905916009
 30
0.0
  0
VERTEX
  5
21415
  8
0
 10
409.22832759106558
 20
311.72755975286009
 30
0.0
  0
VERTEX
  5
21416
  8
0
 10
408.84007783606569
 20
311.8148954586602
 30
0.0
  0
VERTEX
  5
21417
  8
0
 10
408.35886718706558
 20
311.87347192326018
 30
0.0
  0
VERTEX
  5
21418
  8
0
 10
408.19834442816563
 20
311.88269574206021
 30
0.0
  0
SEQEND
  5
21419
  8
0
  0
POLYLINE
  5
20C38
  8
0
 66
     1
 10
0.0
 20
0.0
 30
0.0
 70
   128
  0
VERTEX
  5
2141A
  8
0
 10
412.76894779876568
 20
313.42295799416007
 30
0.0
  0
VERTEX
  5
2141B
  8
0
 10
412.26344080646572
 20
313.40284887706019
 30
0.0
  0
VERTEX
  5
2141C
  8
0
 10
411.81295635186569
 20
313.30229956666022
 30
0.0
  0
VERTEX
  5
2141D
  8
0
 10
411.46818818526572
 20
313.13289571566008
 30
0.0
  0
VERTEX
  5
2141E
  8
0
 10
411.28555210316563
 20
312.9381300882601
 30
0.0
  0
VERTEX
  5
2141F
  8
0
 10
411.25560821966559
 20
312.71839011466022
 30
0.0
  0
VERTEX
  5
21420
  8
0
 10
411.4016843028657
 20
312.52079326666012
 30
0.0
  0
VERTEX
  5
21421
  8
0
 10
411.68543221436562
 20
312.36083675186018
 30
0.0
  0
VERTEX
  5
21422
  8
0
 10
412.10774602376563
 20
312.23586443816021
 30
0.0
  0
VERTEX
  5
21423
  8
0
 10
412.58422555406582
 20
312.17080596846017
 30
0.0
  0
VERTEX
  5
21424
  8
0
 10
412.7384227700656
 20
312.1617013589601
 30
0.0
  0
VERTEX
  5
21425
  8
0
 10
413.24344547466558
 20
312.16958034796011
 30
0.0
  0
VERTEX
  5
21426
  8
0
 10
413.69188847026561
 20
312.23958972846009
 30
0.0
  0
VERTEX
  5
21427
  8
0
 10
414.02555527166578
 20
312.3628521338602
 30
0.0
  0
VERTEX
  5
21428
  8
0
 10
414.22825576746573
 20
312.54503373066018
 30
0.0
  0
VERTEX
  5
21429
  8
0
 10
414.24903543666568
 20
312.74687740956023
 30
0.0
  0
VERTEX
  5
2142A
  8
0
 10
414.11258550366568
 20
312.96215448536009
 30
0.0
  0
VERTEX
  5
2142B
  8
0
 10
413.81371291356572
 20
313.16932905476023
 30
0.0
  0
VERTEX
  5
2142C
  8
0
 10
413.42246057466559
 20
313.3177930489602
 30
0.0
  0
VERTEX
  5
2142D
  8
0
 10
412.93680937966559
 20
313.41030318296021
 30
0.0
  0
VERTEX
  5
2142E
  8
0
 10
412.76894779876568
 20
313.42295799416007
 30
0.0
  0
SEQEND
  5
2142F
  8
0
  0
POLYLINE
  5
20C39
  8
0
 66
     1
 10
0.0
 20
0.0
 30
0.0
 70
   128
  0
VERTEX
  5
21430
  8
0
 10
421.6053363867656
 20
310.45991797006019
 30
0.0
  0
VERTEX
  5
21431
  8
0
 10
421.1204153485657
 20
310.47452483336008
 30
0.0
  0
VERTEX
  5
21432
  8
0
 10
420.68545790396558
 20
310.47236043966018
 30
0.0
  0
VERTEX
  5
21433
  8
0
 10
420.3241345472656
 20
310.4554811493602
 30
0.0
  0
VERTEX
  5
21434
  8
0
 10
420.11254550896558
 20
310.43023858226007
 30
0.0
  0
VERTEX
  5
21435
  8
0
 10
420.06223918876572
 20
310.40099877876008
 30
0.0
  0
VERTEX
  5
21436
  8
0
 10
420.19344391306572
 20
310.37350986166012
 30
0.0
  0
VERTEX
  5
21437
  8
0
 10
420.47004671776563
 20
310.3493997827602
 30
0.0
  0
VERTEX
  5
21438
  8
0
 10
420.88608713826551
 20
310.32629553236012
 30
0.0
  0
VERTEX
  5
21439
  8
0
 10
421.33999885996559
 20
310.30627954756022
 30
0.0
  0
VERTEX
  5
2143A
  8
0
 10
421.48091169076559
 20
310.30050162236012
 30
0.0
  0
VERTEX
  5
2143B
  8
0
 10
421.97532476866547
 20
310.28120461856008
 30
0.0
  0
VERTEX
  5
2143C
  8
0
 10
422.41850765426562
 20
310.26611719286018
 30
0.0
  0
VERTEX
  5
2143D
  8
0
 10
422.75051297626578
 20
310.25945264856023
 30
0.0
  0
VERTEX
  5
2143E
  8
0
 10
422.97270419076563
 20
310.26537586016008
 30
0.0
  0
VERTEX
  5
2143F
  8
0
 10
422.97270419076563
 20
310.26537586016008
 30
0.0
  0
SEQEND
  5
21440
  8
0
  0
POLYLINE
  5
20C3A
  8
0
 66
     1
 10
0.0
 20
0.0
 30
0.0
 70
   128
  0
VERTEX
  5
21441
  8
0
 10
422.97270419076563
 20
310.26537586016008
 30
0.0
  0
VERTEX
  5
21442
  8
0
 10
423.02051456646558
 20
310.2876046673602
 30
0.0
  0
VERTEX
  5
21443
  8
0
 10
422.89775880056573
 20
310.3251928464602
 30
0.0
  0
VERTEX
  5
21444
  8
0
 10
422.60811002926562
 20
310.37243325276017
 30
0.0
  0
VERTEX
  5
21445
  8
0
 10
422.22655089576568
 20
310.41538957516008
 30
0.0
  0
VERTEX
  5
21446
  8
0
 10
421.74983294686552
 20
310.45215073986009
 30
0.0
  0
VERTEX
  5
21447
  8
0
 10
421.6053363867656
 20
310.45991797006019
 30
0.0
  0
SEQEND
  5
21448
  8
0
  0
POLYLINE
  5
20C3B
  8
0
 66
     1
 10
0.0
 20
0.0
 30
0.0
 70
   128
  0
VERTEX
  5
21449
  8
0
 10
360.97374828536567
 20
312.73611132066009
 30
0.0
  0
VERTEX
  5
2144A
  8
0
 10
361.34482445196568
 20
312.75389585656012
 30
0.0
  0
VERTEX
  5
2144B
  8
0
 10
362.0635372586658
 20
312.8975169733601
 30
0.0
  0
VERTEX
  5
2144C
  8
0
 10
362.94543640696571
 20
313.16562611616013
 30
0.0
  0
VERTEX
  5
2144D
  8
0
 10
364.08941717826559
 20
313.49500510846008
 30
0.0
  0
VERTEX
  5
2144E
  8
0
 10
364.82326956466568
 20
313.62411249436008
 30
0.0
  0
VERTEX
  5
2144F
  8
0
 10
365.23621426896563
 20
313.65513298666008
 30
0.0
  0
VERTEX
  5
21450
  8
0
 10
365.66565828406578
 20
313.65055087966022
 30
0.0
  0
VERTEX
  5
21451
  8
0
 10
366.08642982326569
 20
313.60896546406008
 30
0.0
  0
VERTEX
  5
21452
  8
0
 10
366.47796528416569
 20
313.53331599396012
 30
0.0
  0
VERTEX
  5
21453
  8
0
 10
367.13145943366573
 20
313.32518775026023
 30
0.0
  0
VERTEX
  5
21454
  8
0
 10
368.02738057456583
 20
312.89006639286021
 30
0.0
  0
VERTEX
  5
21455
  8
0
 10
368.6224509962658
 20
312.57226932806009
 30
0.0
  0
VERTEX
  5
21456
  8
0
 10
369.0536086447658
 20
312.41755802196008
 30
0.0
  0
SEQEND
  5
21457
  8
0
  0
ARC
  5
20C3C
  8
0
 10
628.96846830405468
 20
594.62018472389911
 30
0.0
 40
392.20748242663473
 50
224.9303944361948
 51
225.9064923717678
  0
LINE
  5
20C3D
  8
0
 10
369.93926661096572
 20
316.25432018196022
 30
0.0
 11
369.64764716106561
 21
314.57293648286009
 31
0.0
  0
ARC
  5
20C3E
  8
0
 10
368.87628101310003
 20
314.68996505030032
 30
0.0
 40
0.7801931939107254
 50
276.77837280657337
 51
351.37310401772919
  0
ARC
  5
20C3F
  8
0
 10
361.35154102787737
 20
316.19236256168301
 30
0.0
 40
1.9667668798078011
 50
234.78903627161179
 51
266.03197937124412
  0
ARC
  5
20C40
  8
0
 10
363.70970910416031
 20
318.16875929791541
 30
0.0
 40
5.0035467667550888
 50
199.95465766249751
 51
225.73790711437971
  0
ARC
  5
20C41
  8
0
 10
371.94966027361602
 20
320.74831661850249
 30
0.0
 40
13.634642974411831
 50
188.59892964650911
 51
198.3264462597042
  0
ARC
  5
20C42
  8
0
 10
392.85485074655872
 20
323.88267585330823
 30
0.0
 40
34.773491573251199
 50
180.42700832087471
 51
188.55517989271041
  0
ARC
  5
20C43
  8
0
 10
235.3389004084477
 20
321.00072161088241
 30
0.0
 40
134.6840261811935
 50
357.98042055081402
 51
1.1158330055051491
  0
LINE
  5
20C44
  8
0
 10
351.28618945139277
 20
319.62352115666022
 30
0.0
 11
351.29918614406569
 21
317.62473527356019
 31
0.0
  0
ARC
  5
20C45
  8
0
 10
402.33621521495411
 20
323.71457769758263
 30
0.0
 40
44.636163531725792
 50
180.11688104737499
 51
188.25192903483139
  0
ARC
  5
20C46
  8
0
 10
373.68127281479002
 20
320.30422925242698
 30
0.0
 40
15.805649255290209
 50
190.92703387096509
 51
204.72475374588339
  0
ARC
  5
20C47
  8
0
 10
361.1104808607497
 20
314.87093163713098
 30
0.0
 40
2.1391946103120292
 50
213.3993764449703
 51
266.3352825874781
  0
ARC
  5
20C48
  8
0
 10
368.8374400869173
 20
313.54185491377513
 30
0.0
 40
1.144889665577935
 50
280.88344417655628
 51
357.25875749479809
  0
ARC
  5
20C49
  8
0
 10
348.41462550372012
 20
317.0850312575177
 30
0.0
 40
21.864456684977071
 50
350.5285476364765
 51
0.4653134902973528
  0
ARC
  5
20C4A
  8
0
 10
169.79099821980321
 20
320.5070626045956
 30
0.0
 40
200.51361365728081
 50
359.0728691781764
 51
0.8905487569806883
  0
ARC
  5
20C4B
  8
0
 10
426.58280974528441
 20
178.35343662710321
 30
0.0
 40
0.3135700949738569
 50
201.52230504044741
 51
289.67342335470329
  0
CIRCLE
  5
20C4C
  8
0
 10
421.61657240981862
 20
198.65334765448279
 30
0.0
 40
1.4916505434189149
  0
POLYLINE
  5
20C4D
  8
0
 66
     1
 10
0.0
 20
0.0
 30
0.0
 70
   128
  0
VERTEX
  5
21458
  8
0
 10
412.77756812051842
 20
208.7222960777828
 30
0.0
  0
VERTEX
  5
21459
  8
0
 10
412.19856115061827
 20
208.62216772508279
 30
0.0
  0
VERTEX
  5
2145A
  8
0
 10
411.76024349401848
 20
208.37852256368279
 30
0.0
  0
VERTEX
  5
2145B
  8
0
 10
411.45000876861872
 20
208.0404561943829
 30
0.0
  0
VERTEX
  5
2145C
  8
0
 10
411.26922788101859
 20
207.59916948158289
 30
0.0
  0
VERTEX
  5
2145D
  8
0
 10
411.26838596541842
 20
207.15585621068291
 30
0.0
  0
VERTEX
  5
2145E
  8
0
 10
411.42633082341848
 20
206.72701196748281
 30
0.0
  0
VERTEX
  5
2145F
  8
0
 10
411.7460724897187
 20
206.35568248108291
 30
0.0
  0
VERTEX
  5
21460
  8
0
 10
412.15466232971852
 20
206.12256126478289
 30
0.0
  0
VERTEX
  5
21461
  8
0
 10
412.64927657321857
 20
206.0177986509828
 30
0.0
  0
VERTEX
  5
21462
  8
0
 10
412.73505510761828
 20
206.0161483473828
 30
0.0
  0
VERTEX
  5
21463
  8
0
 10
413.31292213871842
 20
206.12974362448281
 30
0.0
  0
VERTEX
  5
21464
  8
0
 10
413.7476262636186
 20
206.38306336478291
 30
0.0
  0
VERTEX
  5
21465
  8
0
 10
414.0751388855187
 20
206.76373960448279
 30
0.0
  0
VERTEX
  5
21466
  8
0
 10
414.24074294041827
 20
207.1914923376828
 30
0.0
  0
VERTEX
  5
21467
  8
0
 10
414.24651714041869
 20
207.66231687738289
 30
0.0
  0
VERTEX
  5
21468
  8
0
 10
414.07919200141839
 20
208.0722850747828
 30
0.0
  0
VERTEX
  5
21469
  8
0
 10
413.78543050961838
 20
208.39158343148279
 30
0.0
  0
VERTEX
  5
2146A
  8
0
 10
413.35048796611858
 20
208.6298828012828
 30
0.0
  0
VERTEX
  5
2146B
  8
0
 10
412.85873474551852
 20
208.72100712728289
 30
0.0
  0
VERTEX
  5
2146C
  8
0
 10
412.77756812051842
 20
208.7222960777828
 30
0.0
  0
SEQEND
  5
2146D
  8
0
  0
POLYLINE
  5
20C4E
  8
0
 66
     1
 10
0.0
 20
0.0
 30
0.0
 70
   128
  0
VERTEX
  5
2146E
  8
0
 10
408.20285202931831
 20
204.55864341928279
 30
0.0
  0
VERTEX
  5
2146F
  8
0
 10
407.69601883361833
 20
204.47371425108281
 30
0.0
  0
VERTEX
  5
21470
  8
0
 10
407.24648060281828
 20
204.2281878180828
 30
0.0
  0
VERTEX
  5
21471
  8
0
 10
406.91866250711831
 20
203.87070523578279
 30
0.0
  0
VERTEX
  5
21472
  8
0
 10
406.71772034841842
 20
203.39936660598289
 30
0.0
  0
VERTEX
  5
21473
  8
0
 10
406.6981849260186
 20
202.91606234388291
 30
0.0
  0
VERTEX
  5
21474
  8
0
 10
406.83913500981862
 20
202.4534483439829
 30
0.0
  0
VERTEX
  5
21475
  8
0
 10
407.14436294511859
 20
202.04467223958289
 30
0.0
  0
VERTEX
  5
21476
  8
0
 10
407.54197807981831
 20
201.7829035408829
 30
0.0
  0
VERTEX
  5
21477
  8
0
 10
408.02393378691829
 20
201.65358753878289
 30
0.0
  0
VERTEX
  5
21478
  8
0
 10
408.1708517857187
 20
201.64713161068289
 30
0.0
  0
VERTEX
  5
21479
  8
0
 10
408.66916151721853
 20
201.73644544558289
 30
0.0
  0
VERTEX
  5
2147A
  8
0
 10
409.11139817911862
 20
201.97895066808289
 30
0.0
  0
VERTEX
  5
2147B
  8
0
 10
409.46208210661871
 20
202.36860485748281
 30
0.0
  0
VERTEX
  5
2147C
  8
0
 10
409.64924814181848
 20
202.8222222812829
 30
0.0
  0
VERTEX
  5
2147D
  8
0
 10
409.67676313591841
 20
203.32908527928279
 30
0.0
  0
VERTEX
  5
2147E
  8
0
 10
409.5261645503187
 20
203.79277961328279
 30
0.0
  0
VERTEX
  5
2147F
  8
0
 10
409.24505414441859
 20
204.15739240128281
 30
0.0
  0
VERTEX
  5
21480
  8
0
 10
408.8249829598185
 20
204.43571256468289
 30
0.0
  0
VERTEX
  5
21481
  8
0
 10
408.3468643017186
 20
204.5534652657829
 30
0.0
  0
VERTEX
  5
21482
  8
0
 10
408.20285202931831
 20
204.55864341928279
 30
0.0
  0
SEQEND
  5
21483
  8
0
  0
CIRCLE
  5
20C4F
  8
0
 10
412.66859300461869
 20
198.6963394100828
 30
0.0
 40
1.4905628487905509
  0
CIRCLE
  5
20C50
  8
0
 10
426.22939709401862
 20
202.9810822056829
 30
0.0
 40
1.496158282769795
  0
POLYLINE
  5
20C51
  8
0
 66
     1
 10
0.0
 20
0.0
 30
0.0
 70
   128
  0
VERTEX
  5
21484
  8
0
 10
417.34508695081871
 20
212.2449119574828
 30
0.0
  0
VERTEX
  5
21485
  8
0
 10
416.8038767762186
 20
212.1734608895828
 30
0.0
  0
VERTEX
  5
21486
  8
0
 10
416.36032136161828
 20
211.9916071183828
 30
0.0
  0
VERTEX
  5
21487
  8
0
 10
416.04447634891852
 20
211.7353071458829
 30
0.0
  0
VERTEX
  5
21488
  8
0
 10
415.85018010811831
 20
211.3893096334829
 30
0.0
  0
VERTEX
  5
21489
  8
0
 10
415.83635183051859
 20
211.0311080701828
 30
0.0
  0
VERTEX
  5
2148A
  8
0
 10
415.97772659731839
 20
210.68139271808289
 30
0.0
  0
VERTEX
  5
2148B
  8
0
 10
416.28308119251869
 20
210.35826103758279
 30
0.0
  0
VERTEX
  5
2148C
  8
0
 10
416.69337721541842
 20
210.14274554328281
 30
0.0
  0
VERTEX
  5
2148D
  8
0
 10
417.1882596798186
 20
210.0412611849828
 30
0.0
  0
VERTEX
  5
2148E
  8
0
 10
417.32304813341852
 20
210.03790842368289
 30
0.0
  0
VERTEX
  5
2148F
  8
0
 10
417.8634014912185
 20
210.1247970945829
 30
0.0
  0
VERTEX
  5
21490
  8
0
 10
418.3100712485184
 20
210.3356410748828
 30
0.0
  0
VERTEX
  5
21491
  8
0
 10
418.6435517855183
 20
210.65302090718279
 30
0.0
  0
VERTEX
  5
21492
  8
0
 10
418.80638422441859
 20
210.99030124018279
 30
0.0
  0
VERTEX
  5
21493
  8
0
 10
418.82827403021838
 20
211.36342259118291
 30
0.0
  0
VERTEX
  5
21494
  8
0
 10
418.67838324981858
 20
211.71083943918279
 30
0.0
  0
VERTEX
  5
21495
  8
0
 10
418.39006813241849
 20
211.97755904868279
 30
0.0
  0
VERTEX
  5
21496
  8
0
 10
417.96398432921842
 20
212.16833861548281
 30
0.0
  0
VERTEX
  5
21497
  8
0
 10
417.47361691671858
 20
212.2434367425829
 30
0.0
  0
VERTEX
  5
21498
  8
0
 10
417.34508695081871
 20
212.2449119574828
 30
0.0
  0
SEQEND
  5
21499
  8
0
  0
POLYLINE
  5
20C52
  8
0
 66
     1
 10
0.0
 20
0.0
 30
0.0
 70
   128
  0
VERTEX
  5
2149A
  8
0
 10
421.89544709401838
 20
208.80993353198281
 30
0.0
  0
VERTEX
  5
2149B
  8
0
 10
421.38355495411861
 20
208.73705567788281
 30
0.0
  0
VERTEX
  5
2149C
  8
0
 10
420.92647673561839
 20
208.51520719008289
 30
0.0
  0
VERTEX
  5
2149D
  8
0
 10
420.59431495141871
 20
208.1914645619828
 30
0.0
  0
VERTEX
  5
2149E
  8
0
 10
420.3803342767186
 20
207.7548121101828
 30
0.0
  0
VERTEX
  5
2149F
  8
0
 10
420.34649373961838
 20
207.29112522678281
 30
0.0
  0
VERTEX
  5
214A0
  8
0
 10
420.47941954801848
 20
206.8433565087829
 30
0.0
  0
VERTEX
  5
214A1
  8
0
 10
420.78014733271851
 20
206.44999193028289
 30
0.0
  0
VERTEX
  5
214A2
  8
0
 10
421.17207022381848
 20
206.19983123618289
 30
0.0
  0
VERTEX
  5
214A3
  8
0
 10
421.6526922770185
 20
206.07087658718291
 30
0.0
  0
VERTEX
  5
214A4
  8
0
 10
421.8257767148184
 20
206.06200294568291
 30
0.0
  0
VERTEX
  5
214A5
  8
0
 10
422.33865233141842
 20
206.14705132318281
 30
0.0
  0
VERTEX
  5
214A6
  8
0
 10
422.7960509248187
 20
206.38212459158279
 30
0.0
  0
VERTEX
  5
214A7
  8
0
 10
423.1531423516185
 20
206.75374837588279
 30
0.0
  0
VERTEX
  5
214A8
  8
0
 10
423.34522577001871
 20
207.1802456862828
 30
0.0
  0
VERTEX
  5
214A9
  8
0
 10
423.3791557140184
 20
207.65776457268279
 30
0.0
  0
VERTEX
  5
214AA
  8
0
 10
423.23203654961839
 20
208.0912505276828
 30
0.0
  0
VERTEX
  5
214AB
  8
0
 10
422.95255782081853
 20
208.42930199578279
 30
0.0
  0
VERTEX
  5
214AC
  8
0
 10
422.53081770611828
 20
208.68937568738289
 30
0.0
  0
VERTEX
  5
214AD
  8
0
 10
422.03934760761871
 20
208.80406619978291
 30
0.0
  0
VERTEX
  5
214AE
  8
0
 10
421.89544709401838
 20
208.80993353198281
 30
0.0
  0
SEQEND
  5
214AF
  8
0
  0
POLYLINE
  5
20C53
  8
0
 66
     1
 10
0.0
 20
0.0
 30
0.0
 70
   128
  0
VERTEX
  5
214B0
  8
0
 10
417.24931718781858
 20
204.61836354808281
 30
0.0
  0
VERTEX
  5
214B1
  8
0
 10
416.73347624021829
 20
204.5310203916828
 30
0.0
  0
VERTEX
  5
214B2
  8
0
 10
416.27586903051861
 20
204.2806659824829
 30
0.0
  0
VERTEX
  5
214B3
  8
0
 10
415.93940081071833
 20
203.91263337808289
 30
0.0
  0
VERTEX
  5
214B4
  8
0
 10
415.73802651841879
 20
203.4328271634829
 30
0.0
  0
VERTEX
  5
214B5
  8
0
 10
415.72091998531869
 20
202.94716106728291
 30
0.0
  0
VERTEX
  5
214B6
  8
0
 10
415.86521537971828
 20
202.48016240078289
 30
0.0
  0
VERTEX
  5
214B7
  8
0
 10
416.17498071861837
 20
202.0719301886829
 30
0.0
  0
VERTEX
  5
214B8
  8
0
 10
416.57262565571858
 20
201.81513475258291
 30
0.0
  0
VERTEX
  5
214B9
  8
0
 10
417.05572130161858
 20
201.68946208428281
 30
0.0
  0
VERTEX
  5
214BA
  8
0
 10
417.1837595291185
 20
201.68388159948279
 30
0.0
  0
VERTEX
  5
214BB
  8
0
 10
417.68832029771818
 20
201.77104594188279
 30
0.0
  0
VERTEX
  5
214BC
  8
0
 10
418.13713582231861
 20
202.01435955238281
 30
0.0
  0
VERTEX
  5
214BD
  8
0
 10
418.48928751421857
 20
202.4041702039828
 30
0.0
  0
VERTEX
  5
214BE
  8
0
 10
418.67684843021829
 20
202.8559957630828
 30
0.0
  0
VERTEX
  5
214BF
  8
0
 10
418.70779069141872
 20
203.36409183218279
 30
0.0
  0
VERTEX
  5
214C0
  8
0
 10
418.56074603271873
 20
203.83923398328281
 30
0.0
  0
VERTEX
  5
214C1
  8
0
 10
418.27551545571851
 20
204.2197202331829
 30
0.0
  0
VERTEX
  5
214C2
  8
0
 10
417.85166682671831
 20
204.5018178410829
 30
0.0
  0
VERTEX
  5
214C3
  8
0
 10
417.38719018171832
 20
204.61364733058281
 30
0.0
  0
VERTEX
  5
214C4
  8
0
 10
417.24931718781858
 20
204.61836354808281
 30
0.0
  0
SEQEND
  5
214C5
  8
0
  0
POLYLINE
  5
20C54
  8
0
 66
     1
 10
0.0
 20
0.0
 30
0.0
 70
   128
  0
VERTEX
  5
214C6
  8
0
 10
381.18895040821872
 20
204.3518078513828
 30
0.0
  0
VERTEX
  5
214C7
  8
0
 10
380.68951936441857
 20
204.27034320308289
 30
0.0
  0
VERTEX
  5
214C8
  8
0
 10
380.24596394971883
 20
204.03301240878281
 30
0.0
  0
VERTEX
  5
214C9
  8
0
 10
379.92460178211832
 20
203.69012923908281
 30
0.0
  0
VERTEX
  5
214CA
  8
0
 10
379.71985237671828
 20
203.22968335818291
 30
0.0
  0
VERTEX
  5
214CB
  8
0
 10
379.69396160911862
 20
202.74719493458289
 30
0.0
  0
VERTEX
  5
214CC
  8
0
 10
379.83020665121882
 20
202.2852216846828
 30
0.0
  0
VERTEX
  5
214CD
  8
0
 10
380.1310424693184
 20
201.87280597168291
 30
0.0
  0
VERTEX
  5
214CE
  8
0
 10
380.53261013701831
 20
201.60135896878279
 30
0.0
  0
VERTEX
  5
214CF
  8
0
 10
381.01932676511842
 20
201.4665481634828
 30
0.0
  0
VERTEX
  5
214D0
  8
0
 10
381.17450373251859
 20
201.4593620784828
 30
0.0
  0
VERTEX
  5
214D1
  8
0
 10
381.6673335619185
 20
201.5482102520829
 30
0.0
  0
VERTEX
  5
214D2
  8
0
 10
382.10492478681857
 20
201.78712056948291
 30
0.0
  0
VERTEX
  5
214D3
  8
0
 10
382.45325060561839
 20
202.17161523178279
 30
0.0
  0
VERTEX
  5
214D4
  8
0
 10
382.6371830888184
 20
202.61433245618289
 30
0.0
  0
VERTEX
  5
214D5
  8
0
 10
382.66767458991848
 20
203.11056347558281
 30
0.0
  0
VERTEX
  5
214D6
  8
0
 10
382.52198593691861
 20
203.57824387028279
 30
0.0
  0
VERTEX
  5
214D7
  8
0
 10
382.23889367651873
 20
203.94997568798291
 30
0.0
  0
VERTEX
  5
214D8
  8
0
 10
381.81729512291849
 20
204.2286683804829
 30
0.0
  0
VERTEX
  5
214D9
  8
0
 10
381.33941488341861
 20
204.34621619058291
 30
0.0
  0
VERTEX
  5
214DA
  8
0
 10
381.18895040821872
 20
204.3518078513828
 30
0.0
  0
SEQEND
  5
214DB
  8
0
  0
POLYLINE
  5
20C55
  8
0
 66
     1
 10
0.0
 20
0.0
 30
0.0
 70
   128
  0
VERTEX
  5
214DC
  8
0
 10
385.75464757161848
 20
208.3612632937828
 30
0.0
  0
VERTEX
  5
214DD
  8
0
 10
385.16464354471867
 20
208.25811373068291
 30
0.0
  0
VERTEX
  5
214DE
  8
0
 10
384.73246144131872
 20
208.0237147397828
 30
0.0
  0
VERTEX
  5
214DF
  8
0
 10
384.4267827458184
 20
207.70146967838281
 30
0.0
  0
VERTEX
  5
214E0
  8
0
 10
384.24932109191877
 20
207.28093655778289
 30
0.0
  0
VERTEX
  5
214E1
  8
0
 10
384.2502971180183
 20
206.8554003722829
 30
0.0
  0
VERTEX
  5
214E2
  8
0
 10
384.41229881721853
 20
206.44072713328279
 30
0.0
  0
VERTEX
  5
214E3
  8
0
 10
384.73611595111839
 20
206.0854387469829
 30
0.0
  0
VERTEX
  5
214E4
  8
0
 10
385.14821501451848
 20
205.8641080744828
 30
0.0
  0
VERTEX
  5
214E5
  8
0
 10
385.7037154026184
 20
205.76940746978281
 30
0.0
  0
VERTEX
  5
214E6
  8
0
 10
386.2016600556185
 20
205.8528167195829
 30
0.0
  0
VERTEX
  5
214E7
  8
0
 10
386.64583386851842
 20
206.07595788318289
 30
0.0
  0
VERTEX
  5
214E8
  8
0
 10
386.99568333101843
 20
206.42959969118289
 30
0.0
  0
VERTEX
  5
214E9
  8
0
 10
387.1804875321186
 20
206.82904021818291
 30
0.0
  0
VERTEX
  5
214EA
  8
0
 10
387.21569897611829
 20
207.2737057692828
 30
0.0
  0
VERTEX
  5
214EB
  8
0
 10
387.07591118291839
 20
207.6904018409829
 30
0.0
  0
VERTEX
  5
214EC
  8
0
 10
386.79749043661877
 20
208.01762761548289
 30
0.0
  0
VERTEX
  5
214ED
  8
0
 10
386.38019086791837
 20
208.2587097771829
 30
0.0
  0
VERTEX
  5
214EE
  8
0
 10
385.90533556411862
 20
208.3574374205829
 30
0.0
  0
VERTEX
  5
214EF
  8
0
 10
385.75464757161848
 20
208.3612632937828
 30
0.0
  0
SEQEND
  5
214F0
  8
0
  0
CIRCLE
  5
20C56
  8
0
 10
394.68270221041848
 20
198.57150033688279
 30
0.0
 40
1.495135344638163
  0
POLYLINE
  5
20C57
  8
0
 66
     1
 10
0.0
 20
0.0
 30
0.0
 70
   128
  0
VERTEX
  5
214F1
  8
0
 10
390.18377186731868
 20
204.4133049435828
 30
0.0
  0
VERTEX
  5
214F2
  8
0
 10
389.68166233971851
 20
204.32966845108291
 30
0.0
  0
VERTEX
  5
214F3
  8
0
 10
389.23617722461859
 20
204.0888545102828
 30
0.0
  0
VERTEX
  5
214F4
  8
0
 10
388.91268791631859
 20
203.7402269430828
 30
0.0
  0
VERTEX
  5
214F5
  8
0
 10
388.7106281705187
 20
203.2761302776828
 30
0.0
  0
VERTEX
  5
214F6
  8
0
 10
388.68893953041839
 20
202.7963575906829
 30
0.0
  0
VERTEX
  5
214F7
  8
0
 10
388.8276842423183
 20
202.33742417768281
 30
0.0
  0
VERTEX
  5
214F8
  8
0
 10
389.13019271571869
 20
201.92871512848279
 30
0.0
  0
VERTEX
  5
214F9
  8
0
 10
389.53025909141837
 20
201.6623941249828
 30
0.0
  0
VERTEX
  5
214FA
  8
0
 10
390.01470329241869
 20
201.53061943128279
 30
0.0
  0
VERTEX
  5
214FB
  8
0
 10
390.16960086301879
 20
201.5237276441828
 30
0.0
  0
VERTEX
  5
214FC
  8
0
 10
390.66695692021858
 20
201.6136710531828
 30
0.0
  0
VERTEX
  5
214FD
  8
0
 10
391.1082622595186
 20
201.85594530778289
 30
0.0
  0
VERTEX
  5
214FE
  8
0
 10
391.4546546526185
 20
202.2427608258829
 30
0.0
  0
VERTEX
  5
214FF
  8
0
 10
391.63533123211852
 20
202.6853700168829
 30
0.0
  0
VERTEX
  5
21500
  8
0
 10
391.66254820301862
 20
203.18188415838279
 30
0.0
  0
VERTEX
  5
21501
  8
0
 10
391.51418479161839
 20
203.6464502103828
 30
0.0
  0
VERTEX
  5
21502
  8
0
 10
391.23061569411863
 20
204.0150788612828
 30
0.0
  0
VERTEX
  5
21503
  8
0
 10
390.80880852411838
 20
204.29219203068291
 30
0.0
  0
VERTEX
  5
21504
  8
0
 10
390.33073456961853
 20
204.40826462578281
 30
0.0
  0
VERTEX
  5
21505
  8
0
 10
390.18377186731868
 20
204.4133049435828
 30
0.0
  0
SEQEND
  5
21506
  8
0
  0
POLYLINE
  5
20C58
  8
0
 66
     1
 10
0.0
 20
0.0
 30
0.0
 70
   128
  0
VERTEX
  5
21507
  8
0
 10
403.73892607171859
 20
208.6081345565828
 30
0.0
  0
VERTEX
  5
21508
  8
0
 10
403.14892204481828
 20
208.50008623678281
 30
0.0
  0
VERTEX
  5
21509
  8
0
 10
402.71703423931871
 20
208.25505526738289
 30
0.0
  0
VERTEX
  5
2150A
  8
0
 10
402.4120745249183
 20
207.91908251118289
 30
0.0
  0
VERTEX
  5
2150B
  8
0
 10
402.23714234311859
 20
207.48326079918289
 30
0.0
  0
VERTEX
  5
2150C
  8
0
 10
402.24133701991832
 20
207.04708145928291
 30
0.0
  0
VERTEX
  5
2150D
  8
0
 10
402.40437062461842
 20
206.6250917501828
 30
0.0
  0
VERTEX
  5
2150E
  8
0
 10
402.72867949681847
 20
206.26176418738291
 30
0.0
  0
VERTEX
  5
2150F
  8
0
 10
403.1416651793183
 20
206.0349796898829
 30
0.0
  0
VERTEX
  5
21510
  8
0
 10
403.63948317241829
 20
205.93815566968291
 30
0.0
  0
VERTEX
  5
21511
  8
0
 10
403.70226921511852
 20
205.93756707388289
 30
0.0
  0
VERTEX
  5
21512
  8
0
 10
404.20218082141849
 20
206.0238671488828
 30
0.0
  0
VERTEX
  5
21513
  8
0
 10
404.6473604627185
 20
206.2544365413828
 30
0.0
  0
VERTEX
  5
21514
  8
0
 10
404.9959060736187
 20
206.61934362728289
 30
0.0
  0
VERTEX
  5
21515
  8
0
 10
405.1787805743183
 20
207.03245969488279
 30
0.0
  0
VERTEX
  5
21516
  8
0
 10
405.20982714371843
 20
207.49208228658279
 30
0.0
  0
VERTEX
  5
21517
  8
0
 10
405.0659564324186
 20
207.91742103178279
 30
0.0
  0
VERTEX
  5
21518
  8
0
 10
404.78813918311829
 20
208.25003357608281
 30
0.0
  0
VERTEX
  5
21519
  8
0
 10
404.37137605621859
 20
208.49938588218291
 30
0.0
  0
VERTEX
  5
2151A
  8
0
 10
403.8900685496186
 20
208.60416712238279
 30
0.0
  0
VERTEX
  5
2151B
  8
0
 10
403.73892607171859
 20
208.6081345565828
 30
0.0
  0
SEQEND
  5
2151C
  8
0
  0
POLYLINE
  5
20C59
  8
0
 66
     1
 10
0.0
 20
0.0
 30
0.0
 70
   128
  0
VERTEX
  5
2151D
  8
0
 10
399.18460967021838
 20
204.4840444810828
 30
0.0
  0
VERTEX
  5
2151E
  8
0
 10
398.68222447111839
 20
204.40019564698281
 30
0.0
  0
VERTEX
  5
2151F
  8
0
 10
398.23652328921838
 20
204.15801079938291
 30
0.0
  0
VERTEX
  5
21520
  8
0
 10
397.91275085881853
 20
203.80725236608291
 30
0.0
  0
VERTEX
  5
21521
  8
0
 10
397.71062405781868
 20
203.34058152508291
 30
0.0
  0
VERTEX
  5
21522
  8
0
 10
397.68902482461863
 20
202.85852523518281
 30
0.0
  0
VERTEX
  5
21523
  8
0
 10
397.82803775741831
 20
202.3979452438829
 30
0.0
  0
VERTEX
  5
21524
  8
0
 10
398.13062818721852
 20
201.9889791495828
 30
0.0
  0
VERTEX
  5
21525
  8
0
 10
398.5295918770185
 20
201.7234181053829
 30
0.0
  0
VERTEX
  5
21526
  8
0
 10
399.01280673221851
 20
201.59171791748281
 30
0.0
  0
VERTEX
  5
21527
  8
0
 10
399.16841955851851
 20
201.58475534988281
 30
0.0
  0
VERTEX
  5
21528
  8
0
 10
399.6657011099187
 20
201.67489247398279
 30
0.0
  0
VERTEX
  5
21529
  8
0
 10
400.10675312951838
 20
201.9175988621829
 30
0.0
  0
VERTEX
  5
2152A
  8
0
 10
400.4544419236185
 20
202.3059342987828
 30
0.0
  0
VERTEX
  5
2152B
  8
0
 10
400.63751013951833
 20
202.7538073248829
 30
0.0
  0
VERTEX
  5
2152C
  8
0
 10
400.66413106391832
 20
203.25514944268289
 30
0.0
  0
VERTEX
  5
2152D
  8
0
 10
400.5140167661184
 20
203.71853085238291
 30
0.0
  0
VERTEX
  5
2152E
  8
0
 10
400.23162486031828
 20
204.0839594788828
 30
0.0
  0
VERTEX
  5
2152F
  8
0
 10
399.81074156241863
 20
204.3613296933828
 30
0.0
  0
VERTEX
  5
21530
  8
0
 10
399.33055164291858
 20
204.47891475628279
 30
0.0
  0
VERTEX
  5
21531
  8
0
 10
399.18460967021838
 20
204.4840444810828
 30
0.0
  0
SEQEND
  5
21532
  8
0
  0
CIRCLE
  5
20C5A
  8
0
 10
403.68284753161879
 20
198.63809888728289
 30
0.0
 40
1.4936633990259409
  0
POLYLINE
  5
20C5B
  8
0
 66
     1
 10
0.0
 20
0.0
 30
0.0
 70
   128
  0
VERTEX
  5
21533
  8
0
 10
394.74082263181839
 20
208.47764508798289
 30
0.0
  0
VERTEX
  5
21534
  8
0
 10
394.23912288621841
 20
208.40106429528279
 30
0.0
  0
VERTEX
  5
21535
  8
0
 10
393.79176767541873
 20
208.18567546088281
 30
0.0
  0
VERTEX
  5
21536
  8
0
 10
393.46669884401848
 20
207.8758803195829
 30
0.0
  0
VERTEX
  5
21537
  8
0
 10
393.25831355531869
 20
207.45923640208289
 30
0.0
  0
VERTEX
  5
21538
  8
0
 10
393.22892101481881
 20
207.0219096727829
 30
0.0
  0
VERTEX
  5
21539
  8
0
 10
393.3612582274186
 20
206.60031484438289
 30
0.0
  0
VERTEX
  5
2153A
  8
0
 10
393.65825327111861
 20
206.22352780778289
 30
0.0
  0
VERTEX
  5
2153B
  8
0
 10
394.05320854861839
 20
205.97834410148289
 30
0.0
  0
VERTEX
  5
2153C
  8
0
 10
394.53341336921858
 20
205.85620673368291
 30
0.0
  0
VERTEX
  5
2153D
  8
0
 10
394.69853313641852
 20
205.8494304306829
 30
0.0
  0
VERTEX
  5
2153E
  8
0
 10
395.2002626844187
 20
205.9349779970828
 30
0.0
  0
VERTEX
  5
2153F
  8
0
 10
395.64723791551842
 20
206.16368846968291
 30
0.0
  0
VERTEX
  5
21540
  8
0
 10
395.99405499171871
 20
206.52324231338281
 30
0.0
  0
VERTEX
  5
21541
  8
0
 10
396.17431433871849
 20
206.92614736038291
 30
0.0
  0
VERTEX
  5
21542
  8
0
 10
396.2061879225185
 20
207.37652378158279
 30
0.0
  0
VERTEX
  5
21543
  8
0
 10
396.06426181271848
 20
207.79784666378291
 30
0.0
  0
VERTEX
  5
21544
  8
0
 10
395.78364314511879
 20
208.13013883308281
 30
0.0
  0
VERTEX
  5
21545
  8
0
 10
395.36504717541851
 20
208.37438004088281
 30
0.0
  0
VERTEX
  5
21546
  8
0
 10
394.88812061021872
 20
208.47410233688279
 30
0.0
  0
VERTEX
  5
21547
  8
0
 10
394.74082263181839
 20
208.47764508798289
 30
0.0
  0
SEQEND
  5
21548
  8
0
  0
POLYLINE
  5
20C5C
  8
0
 66
     1
 10
0.0
 20
0.0
 30
0.0
 70
   128
  0
VERTEX
  5
21549
  8
0
 10
430.76425315811861
 20
205.2023139781829
 30
0.0
  0
VERTEX
  5
2154A
  8
0
 10
431.23117359351858
 20
205.15770735218291
 30
0.0
  0
VERTEX
  5
2154B
  8
0
 10
431.64621563631852
 20
205.26987584308279
 30
0.0
  0
VERTEX
  5
2154C
  8
0
 10
431.9474575110184
 20
205.5086893029829
 30
0.0
  0
VERTEX
  5
2154D
  8
0
 10
432.1331706829186
 20
205.87595449758291
 30
0.0
  0
VERTEX
  5
2154E
  8
0
 10
432.15323509651847
 20
206.29294114188289
 30
0.0
  0
VERTEX
  5
2154F
  8
0
 10
432.03220041471872
 20
206.72612162308289
 30
0.0
  0
VERTEX
  5
21550
  8
0
 10
431.76036598161858
 20
207.1697925217828
 30
0.0
  0
VERTEX
  5
21551
  8
0
 10
431.38926746321829
 20
207.5201225466829
 30
0.0
  0
VERTEX
  5
21552
  8
0
 10
430.94062330201859
 20
207.7639800496828
 30
0.0
  0
VERTEX
  5
21553
  8
0
 10
430.81402303651828
 20
207.80444415288281
 30
0.0
  0
VERTEX
  5
21554
  8
0
 10
430.36122145131861
 20
207.85154299808281
 30
0.0
  0
VERTEX
  5
21555
  8
0
 10
429.95433779431858
 20
207.74871753528279
 30
0.0
  0
VERTEX
  5
21556
  8
0
 10
429.62896348911858
 20
207.49156074598281
 30
0.0
  0
VERTEX
  5
21557
  8
0
 10
429.45344271141852
 20
207.14173363518279
 30
0.0
  0
VERTEX
  5
21558
  8
0
 10
429.4145134277187
 20
206.70166136698279
 30
0.0
  0
VERTEX
  5
21559
  8
0
 10
429.53861029821837
 20
206.23851465058291
 30
0.0
  0
VERTEX
  5
2155A
  8
0
 10
429.7926303930185
 20
205.82921328018281
 30
0.0
  0
VERTEX
  5
2155B
  8
0
 10
430.17803402621843
 20
205.46983825038291
 30
0.0
  0
VERTEX
  5
2155C
  8
0
 10
430.62233449891841
 20
205.2442085928829
 30
0.0
  0
VERTEX
  5
2155D
  8
0
 10
430.76425315811861
 20
205.2023139781829
 30
0.0
  0
SEQEND
  5
2155E
  8
0
  0
POLYLINE
  5
20C5D
  8
0
 66
     1
 10
0.0
 20
0.0
 30
0.0
 70
   128
  0
VERTEX
  5
2155F
  8
0
 10
381.40817256641873
 20
211.40752630308279
 30
0.0
  0
VERTEX
  5
21560
  8
0
 10
380.8566954918187
 20
211.3400016910829
 30
0.0
  0
VERTEX
  5
21561
  8
0
 10
380.4148984141184
 20
211.1829248256829
 30
0.0
  0
VERTEX
  5
21562
  8
0
 10
380.09631158781849
 20
210.9632332808828
 30
0.0
  0
VERTEX
  5
21563
  8
0
 10
379.89290701221847
 20
210.6625874526828
 30
0.0
  0
VERTEX
  5
21564
  8
0
 10
379.86838715151862
 20
210.3426148183828
 30
0.0
  0
VERTEX
  5
21565
  8
0
 10
380.0055784173187
 20
210.02620728688291
 30
0.0
  0
VERTEX
  5
21566
  8
0
 10
380.30717791991862
 20
209.7424631006829
 30
0.0
  0
VERTEX
  5
21567
  8
0
 10
380.70578770711842
 20
209.55830337478281
 30
0.0
  0
VERTEX
  5
21568
  8
0
 10
381.19376348331849
 20
209.47360889988281
 30
0.0
  0
VERTEX
  5
21569
  8
0
 10
381.30243765191841
 20
209.4722007400828
 30
0.0
  0
VERTEX
  5
2156A
  8
0
 10
381.85285674411853
 20
209.55936135728291
 30
0.0
  0
VERTEX
  5
2156B
  8
0
 10
382.28478552771873
 20
209.7502936608829
 30
0.0
  0
VERTEX
  5
2156C
  8
0
 10
382.6262940652187
 20
210.03870563578289
 30
0.0
  0
VERTEX
  5
2156D
  8
0
 10
382.80736925081868
 20
210.35411478948291
 30
0.0
  0
VERTEX
  5
2156E
  8
0
 10
382.83685864881858
 20
210.6905643827829
 30
0.0
  0
VERTEX
  5
2156F
  8
0
 10
382.69257815551867
 20
210.9844823367828
 30
0.0
  0
VERTEX
  5
21570
  8
0
 10
382.41186635571881
 20
211.2047103233829
 30
0.0
  0
VERTEX
  5
21571
  8
0
 10
381.99116559701861
 20
211.35635571558291
 30
0.0
  0
VERTEX
  5
21572
  8
0
 10
381.51752473781841
 20
211.40798823908281
 30
0.0
  0
VERTEX
  5
21573
  8
0
 10
381.40817256641873
 20
211.40752630308279
 30
0.0
  0
SEQEND
  5
21574
  8
0
  0
POLYLINE
  5
20C5E
  8
0
 66
     1
 10
0.0
 20
0.0
 30
0.0
 70
   128
  0
VERTEX
  5
21575
  8
0
 10
376.77242876961873
 20
208.26147766778291
 30
0.0
  0
VERTEX
  5
21576
  8
0
 10
376.18353115391852
 20
208.16156538198291
 30
0.0
  0
VERTEX
  5
21577
  8
0
 10
375.75271995741832
 20
207.9329405910828
 30
0.0
  0
VERTEX
  5
21578
  8
0
 10
375.44813277201871
 20
207.61875333268279
 30
0.0
  0
VERTEX
  5
21579
  8
0
 10
375.2682012506184
 20
207.2050821967828
 30
0.0
  0
VERTEX
  5
2157A
  8
0
 10
375.26654722171861
 20
206.7821537144828
 30
0.0
  0
VERTEX
  5
2157B
  8
0
 10
375.42722271751842
 20
206.37050541118279
 30
0.0
  0
VERTEX
  5
2157C
  8
0
 10
375.7495534606187
 20
206.0183313674828
 30
0.0
  0
VERTEX
  5
2157D
  8
0
 10
376.1606913991186
 20
205.7980624027829
 30
0.0
  0
VERTEX
  5
2157E
  8
0
 10
376.71581925821869
 20
205.70306377488279
 30
0.0
  0
VERTEX
  5
2157F
  8
0
 10
377.21148403361849
 20
205.78475939108279
 30
0.0
  0
VERTEX
  5
21580
  8
0
 10
377.65399264171862
 20
206.0038139111829
 30
0.0
  0
VERTEX
  5
21581
  8
0
 10
378.0052726157187
 20
206.35244892908281
 30
0.0
  0
VERTEX
  5
21582
  8
0
 10
378.19232316691841
 20
206.7475271410828
 30
0.0
  0
VERTEX
  5
21583
  8
0
 10
378.22949783871849
 20
207.18608321618279
 30
0.0
  0
VERTEX
  5
21584
  8
0
 10
378.09179248291872
 20
207.59756760668279
 30
0.0
  0
VERTEX
  5
21585
  8
0
 10
377.81424345451842
 20
207.9215076751828
 30
0.0
  0
VERTEX
  5
21586
  8
0
 10
377.39736111831871
 20
208.1597250885828
 30
0.0
  0
VERTEX
  5
21587
  8
0
 10
376.92383946851851
 20
208.2574543542828
 30
0.0
  0
VERTEX
  5
21588
  8
0
 10
376.77242876961873
 20
208.26147766778291
 30
0.0
  0
SEQEND
  5
21589
  8
0
  0
POLYLINE
  5
20C5F
  8
0
 66
     1
 10
0.0
 20
0.0
 30
0.0
 70
   128
  0
VERTEX
  5
2158A
  8
0
 10
408.32716496661851
 20
212.07803385328279
 30
0.0
  0
VERTEX
  5
2158B
  8
0
 10
407.77824344111832
 20
212.00270475818289
 30
0.0
  0
VERTEX
  5
2158C
  8
0
 10
407.33822705221831
 20
211.8228626437828
 30
0.0
  0
VERTEX
  5
2158D
  8
0
 10
407.02475877481851
 20
211.5737673826828
 30
0.0
  0
VERTEX
  5
2158E
  8
0
 10
406.8264094181186
 20
211.2356786615828
 30
0.0
  0
VERTEX
  5
2158F
  8
0
 10
406.80618854241851
 20
210.88024871418281
 30
0.0
  0
VERTEX
  5
21590
  8
0
 10
406.94575281811831
 20
210.5319303460829
 30
0.0
  0
VERTEX
  5
21591
  8
0
 10
407.2493788786187
 20
210.2190692908828
 30
0.0
  0
VERTEX
  5
21592
  8
0
 10
407.65151651571841
 20
210.0163166410828
 30
0.0
  0
VERTEX
  5
21593
  8
0
 10
408.14005853611837
 20
209.92242814968279
 30
0.0
  0
VERTEX
  5
21594
  8
0
 10
408.26868535951871
 20
209.92027120668291
 30
0.0
  0
VERTEX
  5
21595
  8
0
 10
408.81618382411853
 20
210.0123864598828
 30
0.0
  0
VERTEX
  5
21596
  8
0
 10
409.25954552371871
 20
210.2245827205829
 30
0.0
  0
VERTEX
  5
21597
  8
0
 10
409.59282489491852
 20
210.5399136431829
 30
0.0
  0
VERTEX
  5
21598
  8
0
 10
409.75990416481858
 20
210.8761993236829
 30
0.0
  0
VERTEX
  5
21599
  8
0
 10
409.78417815641831
 20
211.24527500938291
 30
0.0
  0
VERTEX
  5
2159A
  8
0
 10
409.6369546838186
 20
211.57940747218279
 30
0.0
  0
VERTEX
  5
2159B
  8
0
 10
409.35173155741847
 20
211.83413164688281
 30
0.0
  0
VERTEX
  5
2159C
  8
0
 10
408.92803194001863
 20
212.01263265688289
 30
0.0
  0
VERTEX
  5
2159D
  8
0
 10
408.44459356741839
 20
212.07788111638291
 30
0.0
  0
VERTEX
  5
2159E
  8
0
 10
408.32716496661851
 20
212.07803385328279
 30
0.0
  0
SEQEND
  5
2159F
  8
0
  0
POLYLINE
  5
20C60
  8
0
 66
     1
 10
0.0
 20
0.0
 30
0.0
 70
   128
  0
VERTEX
  5
215A0
  8
0
 10
399.35045214371848
 20
211.8469727225829
 30
0.0
  0
VERTEX
  5
215A1
  8
0
 10
398.79832686851842
 20
211.7705930955828
 30
0.0
  0
VERTEX
  5
215A2
  8
0
 10
398.35662664841863
 20
211.59515427428281
 30
0.0
  0
VERTEX
  5
215A3
  8
0
 10
398.03935857491842
 20
211.3518592901828
 30
0.0
  0
VERTEX
  5
215A4
  8
0
 10
397.84014495091878
 20
211.02370964358281
 30
0.0
  0
VERTEX
  5
215A5
  8
0
 10
397.81959624961843
 20
210.68035336208291
 30
0.0
  0
VERTEX
  5
215A6
  8
0
 10
397.95945109801869
 20
210.34163879228291
 30
0.0
  0
VERTEX
  5
215A7
  8
0
 10
398.26380731541849
 20
210.03913776948281
 30
0.0
  0
VERTEX
  5
215A8
  8
0
 10
398.66641433911849
 20
209.8441747016829
 30
0.0
  0
VERTEX
  5
215A9
  8
0
 10
399.1557237692187
 20
209.7566303796828
 30
0.0
  0
VERTEX
  5
215AA
  8
0
 10
399.26703544331849
 20
209.7555425949829
 30
0.0
  0
VERTEX
  5
215AB
  8
0
 10
399.81799097731852
 20
209.84937148168279
 30
0.0
  0
VERTEX
  5
215AC
  8
0
 10
400.25431932881833
 20
210.05613254378289
 30
0.0
  0
VERTEX
  5
215AD
  8
0
 10
400.58987112711839
 20
210.3644710965828
 30
0.0
  0
VERTEX
  5
215AE
  8
0
 10
400.76240422201857
 20
210.69641681388291
 30
0.0
  0
VERTEX
  5
215AF
  8
0
 10
400.78922631221849
 20
211.05702864008279
 30
0.0
  0
VERTEX
  5
215B0
  8
0
 10
400.64380588011858
 20
211.3796536810828
 30
0.0
  0
VERTEX
  5
215B1
  8
0
 10
400.3591266461184
 20
211.6239395923829
 30
0.0
  0
VERTEX
  5
215B2
  8
0
 10
399.93620933961847
 20
211.79114924738289
 30
0.0
  0
VERTEX
  5
215B3
  8
0
 10
399.46146579461862
 20
211.8477103299829
 30
0.0
  0
VERTEX
  5
215B4
  8
0
 10
399.35045214371848
 20
211.8469727225829
 30
0.0
  0
SEQEND
  5
215B5
  8
0
  0
POLYLINE
  5
20C61
  8
0
 66
     1
 10
0.0
 20
0.0
 30
0.0
 70
   128
  0
VERTEX
  5
215B6
  8
0
 10
390.38064600901862
 20
211.61674978208279
 30
0.0
  0
VERTEX
  5
215B7
  8
0
 10
389.83319969851851
 20
211.54587613418281
 30
0.0
  0
VERTEX
  5
215B8
  8
0
 10
389.38787849621849
 20
211.37972818688289
 30
0.0
  0
VERTEX
  5
215B9
  8
0
 10
389.06523110341868
 20
211.14610778168279
 30
0.0
  0
VERTEX
  5
215BA
  8
0
 10
388.8639611192184
 20
210.83106743168281
 30
0.0
  0
VERTEX
  5
215BB
  8
0
 10
388.84254815061831
 20
210.50284327938289
 30
0.0
  0
VERTEX
  5
215BC
  8
0
 10
388.97997410971863
 20
210.17710762098281
 30
0.0
  0
VERTEX
  5
215BD
  8
0
 10
389.28184928371871
 20
209.8828171379829
 30
0.0
  0
VERTEX
  5
215BE
  8
0
 10
389.68445630741871
 20
209.69057725738281
 30
0.0
  0
VERTEX
  5
215BF
  8
0
 10
390.1742351241187
 20
209.60341664028289
 30
0.0
  0
VERTEX
  5
215C0
  8
0
 10
390.28369160371858
 20
209.60210533808291
 30
0.0
  0
VERTEX
  5
215C1
  8
0
 10
390.83022149281851
 20
209.6914638764828
 30
0.0
  0
VERTEX
  5
215C2
  8
0
 10
391.26256378371858
 20
209.8882299847829
 30
0.0
  0
VERTEX
  5
215C3
  8
0
 10
391.6039642878186
 20
210.1861414499829
 30
0.0
  0
VERTEX
  5
215C4
  8
0
 10
391.7844546027186
 20
210.5120857245829
 30
0.0
  0
VERTEX
  5
215C5
  8
0
 10
391.81440593671869
 20
210.86205439638289
 30
0.0
  0
VERTEX
  5
215C6
  8
0
 10
391.67019249871868
 20
211.17040412498281
 30
0.0
  0
VERTEX
  5
215C7
  8
0
 10
391.38997616241841
 20
211.4015434868829
 30
0.0
  0
VERTEX
  5
215C8
  8
0
 10
390.97015829751859
 20
211.5618725306829
 30
0.0
  0
VERTEX
  5
215C9
  8
0
 10
390.49625666811841
 20
211.61725642158279
 30
0.0
  0
VERTEX
  5
215CA
  8
0
 10
390.38064600901862
 20
211.61674978208279
 30
0.0
  0
SEQEND
  5
215CB
  8
0
  0
POLYLINE
  5
20C62
  8
0
 66
     1
 10
0.0
 20
0.0
 30
0.0
 70
   128
  0
VERTEX
  5
215CC
  8
0
 10
426.38470502571857
 20
212.0796804315828
 30
0.0
  0
VERTEX
  5
215CD
  8
0
 10
425.8937490172184
 20
212.09422023968281
 30
0.0
  0
VERTEX
  5
215CE
  8
0
 10
425.4640591331185
 20
211.9816047139829
 30
0.0
  0
VERTEX
  5
215CF
  8
0
 10
425.15874179081862
 20
211.76929669458289
 30
0.0
  0
VERTEX
  5
215D0
  8
0
 10
424.96960880231831
 20
211.44868331028289
 30
0.0
  0
VERTEX
  5
215D1
  8
0
 10
424.95562406251832
 20
211.08001368118289
 30
0.0
  0
VERTEX
  5
215D2
  8
0
 10
425.1034361310185
 20
210.70486949758291
 30
0.0
  0
VERTEX
  5
215D3
  8
0
 10
425.41511626911858
 20
210.3479308075828
 30
0.0
  0
VERTEX
  5
215D4
  8
0
 10
425.82310261201832
 20
210.08892627428281
 30
0.0
  0
VERTEX
  5
215D5
  8
0
 10
426.31304534151872
 20
209.9228714592829
 30
0.0
  0
VERTEX
  5
215D6
  8
0
 10
426.47362025451861
 20
209.8962691612829
 30
0.0
  0
VERTEX
  5
215D7
  8
0
 10
426.96740748361839
 20
209.89839630198281
 30
0.0
  0
VERTEX
  5
215D8
  8
0
 10
427.40091951561863
 20
210.01994507388289
 30
0.0
  0
VERTEX
  5
215D9
  8
0
 10
427.73466082291861
 20
210.26009963828281
 30
0.0
  0
VERTEX
  5
215DA
  8
0
 10
427.89950491861867
 20
210.5616916901829
 30
0.0
  0
VERTEX
  5
215DB
  8
0
 10
427.91130663831842
 20
210.9242220408828
 30
0.0
  0
VERTEX
  5
215DC
  8
0
 10
427.74641038851848
 20
211.29846097898289
 30
0.0
  0
VERTEX
  5
215DD
  8
0
 10
427.44369329881829
 20
211.62260593848279
 30
0.0
  0
VERTEX
  5
215DE
  8
0
 10
427.01003225521839
 20
211.89370648938279
 30
0.0
  0
VERTEX
  5
215DF
  8
0
 10
426.52908237651849
 20
212.05365927888289
 30
0.0
  0
VERTEX
  5
215E0
  8
0
 10
426.38470502571857
 20
212.0796804315828
 30
0.0
  0
SEQEND
  5
215E1
  8
0
  0
ARC
  5
20C63
  8
0
 10
340.80759952641853
 20
197.9189579368828
 30
0.0
 40
15.35231320785396
 50
314.6338238299964
 51
44.313349827997577
  0
LINE
  5
20C64
  8
0
 10
351.81533070281881
 20
211.32281692698291
 30
0.0
 11
357.70014198501849
 21
211.6474797017828
 31
0.0
  0
LINE
  5
20C65
  8
0
 10
370.28038399291842
 20
212.3415273613829
 30
0.0
 11
421.09798910091871
 21
215.14363111928279
 31
0.0
  0
ARC
  5
20C66
  8
0
 10
421.85813946203911
 20
197.09121405002361
 30
0.0
 40
18.068414169870991
 50
71.69667114286645
 51
92.411183690667357
  0
ARC
  5
20C67
  8
0
 10
421.86116861460681
 20
197.12152356207059
 30
0.0
 40
18.038688024843498
 50
48.897900099638491
 51
71.675572023054897
  0
ARC
  5
20C68
  8
0
 10
421.86425502063361
 20
197.12295455187831
 30
0.0
 40
18.03558075880515
 50
359.43873673719509
 51
48.902299967054283
  0
ARC
  5
20C69
  8
0
 10
420.02007326886491
 20
196.59656776891831
 30
0.0
 40
19.881973078039739
 50
317.1692467301018
 51
1.0078590961295639
  0
ARC
  5
20C6A
  8
0
 10
418.13112873700811
 20
200.3849312356449
 30
0.0
 40
23.889488035324199
 50
294.08401572336231
 51
313.58354653434469
  0
LINE
  5
20C6B
  8
0
 10
427.8798502870186
 20
178.57506955038281
 30
0.0
 11
426.68837578971841
 21
178.05817062038281
 31
0.0
  0
ARC
  5
20C6C
  8
0
 10
418.14076682255239
 20
195.6787357492876
 30
0.0
 40
19.528042072212749
 50
249.39647212025039
 51
267.9320499222016
  0
LINE
  5
20C6D
  8
0
 10
401.8947583623185
 20
181.13038307058281
 30
0.0
 11
397.3293703981185
 21
182.3626392520828
 31
0.0
  0
LINE
  5
20C6E
  8
0
 10
386.44383372741868
 20
183.89236452058279
 30
0.0
 11
382.99381257961841
 21
184.1167164034828
 31
0.0
  0
LINE
  5
20C6F
  8
0
 10
371.2953803129185
 20
184.37939966098281
 30
0.0
 11
351.5719854273184
 21
184.30582517758279
 31
0.0
  0
POLYLINE
  5
20C70
  8
0
 66
     1
 10
0.0
 20
0.0
 30
0.0
 70
   128
  0
VERTEX
  5
215E2
  8
0
 10
371.59575419497151
 20
184.67884222049699
 30
0.0
  0
VERTEX
  5
215E3
  8
0
 10
371.67945401741872
 20
185.05439246068281
 30
0.0
  0
VERTEX
  5
215E4
  8
0
 10
371.91528351981879
 20
186.1569796688828
 30
0.0
  0
VERTEX
  5
215E5
  8
0
 10
372.31490286071858
 20
187.8406432456828
 30
0.0
  0
VERTEX
  5
215E6
  8
0
 10
372.88685413081839
 20
189.9171554483828
 30
0.0
  0
VERTEX
  5
215E7
  8
0
 10
373.66437064481852
 20
192.23024407398279
 30
0.0
  0
VERTEX
  5
215E8
  8
0
 10
374.70524283121858
 20
194.61469808588279
 30
0.0
  0
VERTEX
  5
215E9
  8
0
 10
376.12964482981852
 20
196.84997098518281
 30
0.0
  0
VERTEX
  5
215EA
  8
0
 10
376.63025679061872
 20
197.3278400487828
 30
0.0
  0
SEQEND
  5
215EB
  8
0
  0
POLYLINE
  5
20C71
  8
0
 66
     1
 10
0.0
 20
0.0
 30
0.0
 70
   128
  0
VERTEX
  5
215EC
  8
0
 10
378.76723604271859
 20
198.1483706272829
 30
0.0
  0
VERTEX
  5
215ED
  8
0
 10
379.30788742381861
 20
197.8920445777828
 30
0.0
  0
VERTEX
  5
215EE
  8
0
 10
379.7692981548185
 20
197.48225333168281
 30
0.0
  0
VERTEX
  5
215EF
  8
0
 10
380.15962289641863
 20
196.96766035628281
 30
0.0
  0
VERTEX
  5
215F0
  8
0
 10
380.76342912391868
 20
195.79408587888281
 30
0.0
  0
VERTEX
  5
215F1
  8
0
 10
381.20838524771852
 20
194.5442658848828
 30
0.0
  0
VERTEX
  5
215F2
  8
0
 10
381.81980596851872
 20
192.0133204198828
 30
0.0
  0
VERTEX
  5
215F3
  8
0
 10
382.20273600891869
 20
189.6217417902829
 30
0.0
  0
VERTEX
  5
215F4
  8
0
 10
382.4525278993188
 20
187.52150135118279
 30
0.0
  0
VERTEX
  5
215F5
  8
0
 10
382.6059726067183
 20
185.86030872538279
 30
0.0
  0
VERTEX
  5
215F6
  8
0
 10
382.68678532911872
 20
184.79799004268281
 30
0.0
  0
VERTEX
  5
215F7
  8
0
 10
382.70988212895691
 20
184.43138049909791
 30
0.0
  0
SEQEND
  5
215F8
  8
0
  0
ARC
  5
20C72
  8
0
 10
371.29571416941872
 20
184.67977809918281
 30
0.0
 40
0.3000414851359142
 50
269.93624690769798
 51
359.82128476080078
  0
ARC
  5
20C73
  8
0
 10
383.01008306406402
 20
184.41682907676869
 30
0.0
 40
0.3005533984684207
 50
177.2249152607065
 51
266.89677099282147
  0
POLYLINE
  5
20C74
  8
0
 66
     1
 10
0.0
 20
0.0
 30
0.0
 70
   128
  0
VERTEX
  5
215F9
  8
0
 10
351.59372435881869
 20
186.9940766132828
 30
0.0
  0
VERTEX
  5
215FA
  8
0
 10
351.47377187381829
 20
186.9183563626828
 30
0.0
  0
VERTEX
  5
215FB
  8
0
 10
351.42336310821838
 20
186.91125037148279
 30
0.0
  0
VERTEX
  5
215FC
  8
0
 10
351.37349078431862
 20
186.92628191788279
 30
0.0
  0
VERTEX
  5
215FD
  8
0
 10
351.3420828618186
 20
186.9551603681829
 30
0.0
  0
VERTEX
  5
215FE
  8
0
 10
351.31918536501871
 20
186.99704194438289
 30
0.0
  0
VERTEX
  5
215FF
  8
0
 10
351.30266929041858
 20
187.06531906498279
 30
0.0
  0
VERTEX
  5
21600
  8
0
 10
351.29918614401868
 20
187.1293642557828
 30
0.0
  0
SEQEND
  5
21601
  8
0
  0
LINE
  5
20C75
  8
0
 10
351.27464206886498
 20
184.6087341197244
 30
0.0
 11
351.53187031056632
 21
211.02619359858369
 31
0.0
  0
POLYLINE
  5
20C76
  8
0
 66
     1
 10
0.0
 20
0.0
 30
0.0
 70
   128
  0
VERTEX
  5
21602
  8
0
 10
351.50730507451863
 20
208.50335331628281
 30
0.0
  0
VERTEX
  5
21603
  8
0
 10
351.51548953731839
 20
208.58696000648291
 30
0.0
  0
VERTEX
  5
21604
  8
0
 10
351.53501378371863
 20
208.6467211134829
 30
0.0
  0
VERTEX
  5
21605
  8
0
 10
351.5615080483185
 20
208.6857658810828
 30
0.0
  0
VERTEX
  5
21606
  8
0
 10
351.59569317471869
 20
208.7101292796828
 30
0.0
  0
VERTEX
  5
21607
  8
0
 10
351.64285907521838
 20
208.7189731187828
 30
0.0
  0
VERTEX
  5
21608
  8
0
 10
351.71290570871861
 20
208.69977297258279
 30
0.0
  0
VERTEX
  5
21609
  8
0
 10
351.79263809691838
 20
208.64380793648289
 30
0.0
  0
SEQEND
  5
2160A
  8
0
  0
POLYLINE
  5
20C77
  8
0
 66
     1
 10
0.0
 20
0.0
 30
0.0
 70
   128
  0
VERTEX
  5
2160B
  8
0
 10
386.76644386720869
 20
184.1671028174357
 30
0.0
  0
VERTEX
  5
2160C
  8
0
 10
387.0544609614185
 20
185.04744851958279
 30
0.0
  0
VERTEX
  5
2160D
  8
0
 10
387.4364596791188
 20
186.09422342848279
 30
0.0
  0
VERTEX
  5
2160E
  8
0
 10
387.9821625538184
 20
187.43984671308289
 30
0.0
  0
VERTEX
  5
2160F
  8
0
 10
388.72510464861853
 20
188.99234095588281
 30
0.0
  0
VERTEX
  5
21610
  8
0
 10
389.71983911471852
 20
190.6081018037828
 30
0.0
  0
VERTEX
  5
21611
  8
0
 10
391.08740063381862
 20
192.0571782625828
 30
0.0
  0
VERTEX
  5
21612
  8
0
 10
391.95583285761859
 20
192.5128594971828
 30
0.0
  0
VERTEX
  5
21613
  8
0
 10
392.4311649985184
 20
192.5994687713829
 30
0.0
  0
VERTEX
  5
21614
  8
0
 10
392.90162445981878
 20
192.56745735178279
 30
0.0
  0
VERTEX
  5
21615
  8
0
 10
393.35500719021871
 20
192.4079180694828
 30
0.0
  0
VERTEX
  5
21616
  8
0
 10
393.77088369801868
 20
192.1467286534828
 30
0.0
  0
VERTEX
  5
21617
  8
0
 10
394.45741744711859
 20
191.42449358478291
 30
0.0
  0
VERTEX
  5
21618
  8
0
 10
395.4148319550186
 20
189.6540642715828
 30
0.0
  0
VERTEX
  5
21619
  8
0
 10
396.02219583461869
 20
187.85531716418279
 30
0.0
  0
VERTEX
  5
2161A
  8
0
 10
396.4363140054183
 20
186.17769787088281
 30
0.0
  0
VERTEX
  5
2161B
  8
0
 10
396.71512218191862
 20
184.7431165165828
 30
0.0
  0
VERTEX
  5
2161C
  8
0
 10
396.90826358271852
 20
183.64027319478291
 30
0.0
  0
VERTEX
  5
2161D
  8
0
 10
397.02979000281857
 20
182.95374317098279
 30
0.0
  0
VERTEX
  5
2161E
  8
0
 10
397.09404818222629
 20
182.6558409762828
 30
0.0
  0
SEQEND
  5
2161F
  8
0
  0
ARC
  5
20C78
  8
0
 10
386.46740715561867
 20
184.1916776612828
 30
0.0
 40
0.3000447930369468
 50
265.49668928700152
 51
355.30198863440057
  0
ARC
  5
20C79
  8
0
 10
397.39412010691882
 20
182.6558409762828
 30
0.0
 40
0.3000719246922524
 50
179.99999999999449
 51
257.54741232919542
  0
POLYLINE
  5
20C7A
  8
0
 66
     1
 10
0.0
 20
0.0
 30
0.0
 70
   128
  0
VERTEX
  5
21620
  8
0
 10
417.74283619594502
 20
176.46186230699371
 30
0.0
  0
VERTEX
  5
21621
  8
0
 10
417.88297416641848
 20
178.1577755696828
 30
0.0
  0
VERTEX
  5
21622
  8
0
 10
418.12214525411849
 20
179.42660944538281
 30
0.0
  0
VERTEX
  5
21623
  8
0
 10
418.4804734774184
 20
180.92540455978281
 30
0.0
  0
VERTEX
  5
21624
  8
0
 10
418.99948092181882
 20
182.54274120558279
 30
0.0
  0
VERTEX
  5
21625
  8
0
 10
419.78618772701839
 20
184.16686998678281
 30
0.0
  0
VERTEX
  5
21626
  8
0
 10
420.34749211741831
 20
184.88201396538281
 30
0.0
  0
VERTEX
  5
21627
  8
0
 10
420.68260433151858
 20
185.1634857244828
 30
0.0
  0
VERTEX
  5
21628
  8
0
 10
421.06333645061829
 20
185.34722821788279
 30
0.0
  0
VERTEX
  5
21629
  8
0
 10
421.48174615571861
 20
185.4108897037828
 30
0.0
  0
VERTEX
  5
2162A
  8
0
 10
421.90034212541872
 20
185.35558963198281
 30
0.0
  0
VERTEX
  5
2162B
  8
0
 10
422.28704961011857
 20
185.18222207198281
 30
0.0
  0
VERTEX
  5
2162C
  8
0
 10
422.64495315031849
 20
184.9181157536828
 30
0.0
  0
VERTEX
  5
2162D
  8
0
 10
423.8129806705187
 20
183.56476528568291
 30
0.0
  0
VERTEX
  5
2162E
  8
0
 10
424.62974311781858
 20
182.09735946728281
 30
0.0
  0
VERTEX
  5
2162F
  8
0
 10
425.26760222391829
 20
180.7656389660828
 30
0.0
  0
VERTEX
  5
21630
  8
0
 10
425.73754759501838
 20
179.64915642518281
 30
0.0
  0
VERTEX
  5
21631
  8
0
 10
426.05614932251859
 20
178.8427847437828
 30
0.0
  0
VERTEX
  5
21632
  8
0
 10
426.29110338166441
 20
178.23839923368109
 30
0.0
  0
SEQEND
  5
21633
  8
0
  0
ARC
  5
20C7B
  8
0
 10
417.44287448241857
 20
176.46330033178279
 30
0.0
 40
0.299965160472236
 50
268.7065285315042
 51
359.7253245452996
  0
ARC
  5
20C7C
  8
0
 10
378.31083239748432
 20
196.14399650677481
 30
0.0
 40
2.055679912424536
 50
77.172249448066367
 51
144.8380836252251
  0
ARC
  5
20C7D
  8
0
 10
357.7166470973184
 20
211.34813157068291
 30
0.0
 40
0.3000080012519443
 50
3.1196186890001352
 51
93.155890080601495
  0
POLYLINE
  5
20C7E
  8
0
 66
     1
 10
0.0
 20
0.0
 30
0.0
 70
   128
  0
VERTEX
  5
21634
  8
0
 10
369.99873646077009
 20
212.07534508522599
 30
0.0
  0
VERTEX
  5
21635
  8
0
 10
369.96918814251882
 20
211.85613321138291
 30
0.0
  0
VERTEX
  5
21636
  8
0
 10
369.93837999181869
 20
211.3574435002829
 30
0.0
  0
VERTEX
  5
21637
  8
0
 10
369.8288266547184
 20
209.53762056308281
 30
0.0
  0
VERTEX
  5
21638
  8
0
 10
369.6489659138183
 20
206.96124332028279
 30
0.0
  0
VERTEX
  5
21639
  8
0
 10
369.3679374642183
 20
203.9693769998828
 30
0.0
  0
VERTEX
  5
2163A
  8
0
 10
368.94059078771852
 20
200.73196934538279
 30
0.0
  0
VERTEX
  5
2163B
  8
0
 10
368.29206617551841
 20
197.4472281522828
 30
0.0
  0
VERTEX
  5
2163C
  8
0
 10
367.91208283971861
 20
196.2524828500828
 30
0.0
  0
SEQEND
  5
2163D
  8
0
  0
ARC
  5
20C7F
  8
0
 10
420.8845043735563
 20
217.15625226902691
 30
0.0
 40
63.134517112015772
 50
185.26356414433459
 51
195.40121045679749
  0
ARC
  5
20C80
  8
0
 10
370.29690766531849
 20
212.04216967528291
 30
0.0
 40
0.3000111248718789
 50
93.159407162002978
 51
173.65121436148931
  0
POLYLINE
  5
20C81
  8
0
 66
     1
 10
0.0
 20
0.0
 30
0.0
 70
   128
  0
VERTEX
  5
2163E
  8
0
 10
402.80508500147653
 20
182.40012268052149
 30
0.0
  0
VERTEX
  5
2163F
  8
0
 10
403.3589995210117
 20
183.9249551782778
 30
0.0
  0
VERTEX
  5
21640
  8
0
 10
404.0443410672728
 20
185.33268095928281
 30
0.0
  0
VERTEX
  5
21641
  8
0
 10
404.91736950351827
 20
186.69886784628281
 30
0.0
  0
VERTEX
  5
21642
  8
0
 10
405.5426967330186
 20
187.30819681658281
 30
0.0
  0
VERTEX
  5
21643
  8
0
 10
406.29286589101861
 20
187.71591493858281
 30
0.0
  0
VERTEX
  5
21644
  8
0
 10
406.71581299971871
 20
187.78409892688279
 30
0.0
  0
VERTEX
  5
21645
  8
0
 10
407.13610025121852
 20
187.7415356225828
 30
0.0
  0
VERTEX
  5
21646
  8
0
 10
407.53350676971871
 20
187.5801951624828
 30
0.0
  0
VERTEX
  5
21647
  8
0
 10
407.8990173526185
 20
187.3233401216828
 30
0.0
  0
VERTEX
  5
21648
  8
0
 10
408.51112725211851
 20
186.63629973308281
 30
0.0
  0
VERTEX
  5
21649
  8
0
 10
409.17107732961858
 20
185.40575252848279
 30
0.0
  0
VERTEX
  5
2164A
  8
0
 10
409.66105731201827
 20
184.11757508288281
 30
0.0
  0
VERTEX
  5
2164B
  8
0
 10
410.13068230821858
 20
182.46156526728291
 30
0.0
  0
VERTEX
  5
2164C
  8
0
 10
410.4487848468184
 20
180.92346647758279
 30
0.0
  0
VERTEX
  5
2164D
  8
0
 10
410.69876672701861
 20
179.61226394398281
 30
0.0
  0
VERTEX
  5
2164E
  8
0
 10
410.88343681771852
 20
178.61359277738279
 30
0.0
  0
VERTEX
  5
2164F
  8
0
 10
411.0687685046932
 20
177.68288212868279
 30
0.0
  0
SEQEND
  5
21650
  8
0
  0
ARC
  5
20C82
  8
0
 10
401.98773847081827
 20
181.4155674954828
 30
0.0
 40
0.2999590919269741
 50
251.9422180525016
 51
341.50930446789988
  0
ARC
  5
20C83
  8
0
 10
411.36893213191843
 20
177.68288212868279
 30
0.0
 40
0.3001636272251436
 50
180.00000000002709
 51
250.5348361752977
  0
POLYLINE
  5
20C84
  8
0
 66
     1
 10
0.0
 20
0.0
 30
0.0
 70
   128
  0
VERTEX
  5
21651
  8
0
 10
367.91208283971861
 20
196.2524828500828
 30
0.0
  0
VERTEX
  5
21652
  8
0
 10
367.60238828141843
 20
195.2962213195828
 30
0.0
  0
VERTEX
  5
21653
  8
0
 10
366.82612719011883
 20
193.87726569548281
 30
0.0
  0
VERTEX
  5
21654
  8
0
 10
366.2111786194186
 20
193.2115786708828
 30
0.0
  0
VERTEX
  5
21655
  8
0
 10
365.63934283331849
 20
192.87116350608281
 30
0.0
  0
VERTEX
  5
21656
  8
0
 10
365.09876223281839
 20
192.75409625838279
 30
0.0
  0
VERTEX
  5
21657
  8
0
 10
364.54503135751838
 20
192.81349787488281
 30
0.0
  0
VERTEX
  5
21658
  8
0
 10
363.87751149011871
 20
193.11895864088279
 30
0.0
  0
VERTEX
  5
21659
  8
0
 10
362.94387178491837
 20
193.96443376318291
 30
0.0
  0
VERTEX
  5
2165A
  8
0
 10
361.48806186391857
 20
196.34186001498281
 30
0.0
  0
VERTEX
  5
2165B
  8
0
 10
360.56892471391848
 20
198.61790435388281
 30
0.0
  0
VERTEX
  5
2165C
  8
0
 10
360.01716079194779
 20
200.38920911032329
 30
0.0
  0
SEQEND
  5
2165D
  8
0
  0
LINE
  5
20C85
  8
0
 10
382.62311412353938
 20
185.63497596801611
 30
0.0
 11
371.85532307608401
 21
185.87664316481201
 31
0.0
  0
LINE
  5
20C86
  8
0
 10
396.84915140443951
 20
183.97780554559861
 30
0.0
 11
387.15863793459363
 21
185.3329202673977
 31
0.0
  0
LINE
  5
20C87
  8
0
 10
410.77327998351848
 20
179.20932257548279
 30
0.0
 11
402.80508500147607
 21
182.40012268052061
 31
0.0
  0
ARC
  5
20C88
  8
0
 10
417.30697445446549
 20
200.17674915819089
 30
0.0
 40
22.521902032779138
 50
271.36108407843579
 51
292.31641645441471
  0
LINE
  5
20C89
  8
0
 10
358.13778859728649
 20
210.16934234693491
 30
0.0
 11
369.90594089757451
 21
210.81858809587479
 31
0.0
  0
ARC
  5
20C8A
  8
0
 10
351.57463189201872
 20
184.60590237418279
 30
0.0
 40
0.3000031879474471
 50
179.45917415529931
 51
269.49456127820201
  0
ARC
  5
20C8B
  8
0
 10
351.83185609011838
 20
211.02327262848291
 30
0.0
 40
0.3000000000000436
 50
93.157783068696531
 51
179.44212698909971
  0
ARC
  5
20C8C
  8
0
 10
387.77522472544388
 20
189.146671900353
 30
0.0
 40
16.474605497998599
 50
331.63749211058808
 51
335.82581640979362
  0
LINE
  5
20C8D
  8
0
 10
350.95567712561842
 20
205.84414051848279
 30
0.0
 11
351.48136215281869
 21
205.83902196958289
 31
0.0
  0
ARC
  5
20C8E
  8
0
 10
426.4895734246652
 20
78.954003044654073
 30
0.0
 40
13.454179597089571
 50
275.33352219323302
 51
321.36499309374608
  0
ARC
  5
20C8F
  8
0
 10
426.33775743354431
 20
78.935055640354634
 30
0.0
 40
13.56138185733065
 50
321.82799859202879
 51
0.2807498804769591
  0
LINE
  5
20C90
  8
0
 10
369.14212899286582
 20
67.782917478991479
 30
0.0
 11
427.74018170316572
 21
65.558073529891473
 31
0.0
  0
LINE
  5
20C91
  8
0
 10
356.05817185716569
 20
68.312582978891484
 30
0.0
 11
360.9737445600656
 21
68.114080885391473
 31
0.0
  0
POLYLINE
  5
20C92
  8
0
 66
     1
 10
0.0
 20
0.0
 30
0.0
 70
   128
  0
VERTEX
  5
2165E
  8
0
 10
360.9737445600656
 20
68.114080885391473
 30
0.0
  0
VERTEX
  5
2165F
  8
0
 10
361.34482445196568
 20
68.131880322391481
 30
0.0
  0
VERTEX
  5
21660
  8
0
 10
362.0635372586658
 20
68.275501439291489
 30
0.0
  0
VERTEX
  5
21661
  8
0
 10
362.94543640696571
 20
68.543610582091475
 30
0.0
  0
VERTEX
  5
21662
  8
0
 10
364.08941717826559
 20
68.872989574391454
 30
0.0
  0
VERTEX
  5
21663
  8
0
 10
364.82326956466568
 20
69.002096960291468
 30
0.0
  0
VERTEX
  5
21664
  8
0
 10
365.23621426896563
 20
69.033117452591483
 30
0.0
  0
VERTEX
  5
21665
  8
0
 10
365.66565828406578
 20
69.028535345491477
 30
0.0
  0
VERTEX
  5
21666
  8
0
 10
366.08642982326569
 20
68.98694992989148
 30
0.0
  0
VERTEX
  5
21667
  8
0
 10
366.47796528416569
 20
68.911300459791477
 30
0.0
  0
VERTEX
  5
21668
  8
0
 10
367.13145943366573
 20
68.703172216191476
 30
0.0
  0
VERTEX
  5
21669
  8
0
 10
368.02738057456583
 20
68.268050858691481
 30
0.0
  0
VERTEX
  5
2166A
  8
0
 10
368.6224509962658
 20
67.950253793891477
 30
0.0
  0
VERTEX
  5
2166B
  8
0
 10
369.0536086447658
 20
67.795542487791479
 30
0.0
  0
VERTEX
  5
2166C
  8
0
 10
369.14212899286582
 20
67.782917478991479
 30
0.0
  0
SEQEND
  5
2166D
  8
0
  0
POLYLINE
  5
20C93
  8
0
 66
     1
 10
0.0
 20
0.0
 30
0.0
 70
   128
  0
VERTEX
  5
2166E
  8
0
 10
425.85602859657479
 20
79.001506278291487
 30
0.0
  0
VERTEX
  5
2166F
  8
0
 10
425.79069258646558
 20
76.143511989991481
 30
0.0
  0
VERTEX
  5
21670
  8
0
 10
425.42145671326551
 20
73.501107701991472
 30
0.0
  0
VERTEX
  5
21671
  8
0
 10
424.49336769066548
 20
71.202909061591484
 30
0.0
  0
VERTEX
  5
21672
  8
0
 10
423.9986416884658
 20
70.574236521491486
 30
0.0
  0
VERTEX
  5
21673
  8
0
 10
423.32124980166577
 20
70.058633992391478
 30
0.0
  0
VERTEX
  5
21674
  8
0
 10
422.85841973506581
 20
69.877849379491479
 30
0.0
  0
VERTEX
  5
21675
  8
0
 10
422.32088269666559
 20
69.77974758479148
 30
0.0
  0
VERTEX
  5
21676
  8
0
 10
421.78967865186559
 20
69.781621405791483
 30
0.0
  0
VERTEX
  5
21677
  8
0
 10
421.23224111276562
 20
69.89056379529147
 30
0.0
  0
VERTEX
  5
21678
  8
0
 10
420.59886725626569
 20
70.182153442791474
 30
0.0
  0
VERTEX
  5
21679
  8
0
 10
419.3013188429656
 20
71.53520495629148
 30
0.0
  0
VERTEX
  5
2167A
  8
0
 10
418.77236487346568
 20
72.682687500491483
 30
0.0
  0
VERTEX
  5
2167B
  8
0
 10
418.35951330146571
 20
74.045741418291485
 30
0.0
  0
VERTEX
  5
2167C
  8
0
 10
418.11222108086571
 20
75.266291806391465
 30
0.0
  0
VERTEX
  5
2167D
  8
0
 10
417.9378402419656
 20
76.574721792691491
 30
0.0
  0
VERTEX
  5
2167E
  8
0
 10
417.8733033128658
 20
77.251871535491475
 30
0.0
  0
VERTEX
  5
2167F
  8
0
 10
417.74895800549569
 20
79.001506278291501
 30
0.0
  0
SEQEND
  5
21680
  8
0
  0
ARC
  5
20C94
  8
0
 10
381.76544887228209
 20
77.24012879709602
 30
0.0
 40
29.374229426611731
 50
347.8827754522888
 51
3.4377096387792472
  0
POLYLINE
  5
20C95
  8
0
 66
     1
 10
0.0
 20
0.0
 30
0.0
 70
   128
  0
VERTEX
  5
21681
  8
0
 10
410.48522563656559
 20
71.074110874891488
 30
0.0
  0
VERTEX
  5
21682
  8
0
 10
410.48522563656559
 20
71.074110874891488
 30
0.0
  0
VERTEX
  5
21683
  8
0
 10
409.54152764756572
 20
69.935680786091467
 30
0.0
  0
VERTEX
  5
21684
  8
0
 10
409.0650406666656
 20
69.674001494391476
 30
0.0
  0
VERTEX
  5
21685
  8
0
 10
408.4245962091656
 20
69.502071896491486
 30
0.0
  0
VERTEX
  5
21686
  8
0
 10
407.87299247466558
 20
69.473592052191464
 30
0.0
  0
VERTEX
  5
21687
  8
0
 10
407.2621789761655
 20
69.533498445491475
 30
0.0
  0
VERTEX
  5
21688
  8
0
 10
406.71695293866583
 20
69.671553978691477
 30
0.0
  0
VERTEX
  5
21689
  8
0
 10
405.9482616372656
 20
70.01337171529147
 30
0.0
  0
VERTEX
  5
2168A
  8
0
 10
404.94755180556581
 20
70.826796302491488
 30
0.0
  0
VERTEX
  5
2168B
  8
0
 10
404.16486831386572
 20
71.906065056091478
 30
0.0
  0
VERTEX
  5
2168C
  8
0
 10
403.54444356636549
 20
73.228341946291479
 30
0.0
  0
VERTEX
  5
2168D
  8
0
 10
403.13112260776569
 20
74.654770502791465
 30
0.0
  0
VERTEX
  5
2168E
  8
0
 10
402.8452512808658
 20
76.272056857091471
 30
0.0
  0
VERTEX
  5
2168F
  8
0
 10
402.6535740457943
 20
79.001506278291487
 30
0.0
  0
SEQEND
  5
21690
  8
0
  0
ARC
  5
20C96
  8
0
 10
362.2172922951973
 20
77.652041202180314
 30
0.0
 40
34.909551864050648
 50
349.41201926476299
 51
2.2153799853457481
  0
POLYLINE
  5
20C97
  8
0
 66
     1
 10
0.0
 20
0.0
 30
0.0
 70
   128
  0
VERTEX
  5
21691
  8
0
 10
396.53247119866569
 20
71.237580338491611
 30
0.0
  0
VERTEX
  5
21692
  8
0
 10
396.53247119866569
 20
71.237580338491483
 30
0.0
  0
VERTEX
  5
21693
  8
0
 10
396.06993170456582
 20
70.327514270291474
 30
0.0
  0
VERTEX
  5
21694
  8
0
 10
395.39969237526572
 20
69.613104173891486
 30
0.0
  0
VERTEX
  5
21695
  8
0
 10
394.41775055606581
 20
69.157385686391478
 30
0.0
  0
VERTEX
  5
21696
  8
0
 10
393.80304040396572
 20
69.04167816969148
 30
0.0
  0
VERTEX
  5
21697
  8
0
 10
393.06055279456558
 20
69.003926077791476
 30
0.0
  0
VERTEX
  5
21698
  8
0
 10
392.35805990176573
 20
69.049590686291481
 30
0.0
  0
VERTEX
  5
21699
  8
0
 10
391.56540008266569
 20
69.187277415691483
 30
0.0
  0
VERTEX
  5
2169A
  8
0
 10
390.5172598548657
 20
69.55029950469148
 30
0.0
  0
VERTEX
  5
2169B
  8
0
 10
388.98571105676569
 20
70.706719020291473
 30
0.0
  0
VERTEX
  5
2169C
  8
0
 10
387.8893432207658
 20
72.580294171291484
 30
0.0
  0
VERTEX
  5
2169D
  8
0
 10
387.43151249366571
 20
73.981729755091493
 30
0.0
  0
VERTEX
  5
2169E
  8
0
 10
387.10091533146561
 20
75.632152566591486
 30
0.0
  0
VERTEX
  5
2169F
  8
0
 10
386.93322511396559
 20
77.253544190891489
 30
0.0
  0
VERTEX
  5
216A0
  8
0
 10
386.86385654596069
 20
79.001506278291487
 30
0.0
  0
SEQEND
  5
216A1
  8
0
  0
ARC
  5
20C98
  8
0
 10
315.52582317806559
 20
78.137369717791472
 30
0.0
 40
67.189635532133309
 50
355.3961378052004
 51
0.73691042510192
  0
POLYLINE
  5
20C99
  8
0
 66
     1
 10
0.0
 20
0.0
 30
0.0
 70
   128
  0
VERTEX
  5
216A2
  8
0
 10
382.49866934495981
 20
72.744318703157404
 30
0.0
  0
VERTEX
  5
216A3
  8
0
 10
382.24470512946567
 20
71.233609178991486
 30
0.0
  0
VERTEX
  5
216A4
  8
0
 10
381.5772783942657
 20
69.635277101691486
 30
0.0
  0
VERTEX
  5
216A5
  8
0
 10
380.51172243436571
 20
68.975692102591495
 30
0.0
  0
VERTEX
  5
216A6
  8
0
 10
379.92965700106561
 20
68.895818153391474
 30
0.0
  0
VERTEX
  5
216A7
  8
0
 10
379.14595277986592
 20
68.884709337691476
 30
0.0
  0
VERTEX
  5
216A8
  8
0
 10
378.54179264986578
 20
68.903272459191484
 30
0.0
  0
VERTEX
  5
216A9
  8
0
 10
377.86858798936578
 20
68.929997691791485
 30
0.0
  0
VERTEX
  5
216AA
  8
0
 10
377.27660955866571
 20
68.955363193491493
 30
0.0
  0
VERTEX
  5
216AB
  8
0
 10
376.45917655906578
 20
69.003032008091481
 30
0.0
  0
VERTEX
  5
216AC
  8
0
 10
375.30923904856559
 20
69.163625547591494
 30
0.0
  0
VERTEX
  5
216AD
  8
0
 10
374.39406188206573
 20
69.486991921391478
 30
0.0
  0
VERTEX
  5
216AE
  8
0
 10
373.65593658766579
 20
70.015342393891487
 30
0.0
  0
VERTEX
  5
216AF
  8
0
 10
373.03193183616582
 20
70.807238528491496
 30
0.0
  0
VERTEX
  5
216B0
  8
0
 10
372.52331050116572
 20
71.888895193091486
 30
0.0
  0
VERTEX
  5
216B1
  8
0
 10
371.91990287976569
 20
74.345645913791472
 30
0.0
  0
VERTEX
  5
216B2
  8
0
 10
371.65515022356573
 20
76.945682475291477
 30
0.0
  0
VERTEX
  5
216B3
  8
0
 10
371.59801960000527
 20
79.001506278291487
 30
0.0
  0
SEQEND
  5
216B4
  8
0
  0
LINE
  5
20C9A
  8
0
 10
351.29918614406569
 20
73.002719739391466
 30
0.0
 11
356.05817185716569
 21
68.312582978891484
 31
0.0
  0
LINE
  5
20C9B
  8
0
 10
351.29918614406569
 20
73.002719739391466
 30
0.0
 11
351.29918614406569
 21
85.000292817191493
 31
0.0
  0
ARC
  5
20C9C
  8
0
 10
426.4895734246652
 20
79.049009511928901
 30
0.0
 40
13.454179597089571
 50
38.635006906253913
 51
84.666477806767048
  0
ARC
  5
20C9D
  8
0
 10
426.33775743354431
 20
79.06795691622834
 30
0.0
 40
13.56138185733065
 50
359.71925011952362
 51
38.172001407971223
  0
LINE
  5
20C9E
  8
0
 10
369.14212899286582
 20
90.220095077591495
 30
0.0
 11
427.74018170316572
 21
92.444939026691486
 31
0.0
  0
LINE
  5
20C9F
  8
0
 10
356.05817185716569
 20
89.690429577691489
 30
0.0
 11
360.9737445600656
 21
89.888931671191486
 31
0.0
  0
POLYLINE
  5
20CA0
  8
0
 66
     1
 10
0.0
 20
0.0
 30
0.0
 70
   128
  0
VERTEX
  5
216B5
  8
0
 10
360.9737445600656
 20
89.888931671191486
 30
0.0
  0
VERTEX
  5
216B6
  8
0
 10
361.34482445196568
 20
89.871132234191478
 30
0.0
  0
VERTEX
  5
216B7
  8
0
 10
362.0635372586658
 20
89.727511117291485
 30
0.0
  0
VERTEX
  5
216B8
  8
0
 10
362.94543640696571
 20
89.459401974491499
 30
0.0
  0
VERTEX
  5
216B9
  8
0
 10
364.08941717826559
 20
89.130022982191505
 30
0.0
  0
VERTEX
  5
216BA
  8
0
 10
364.82326956466568
 20
89.000915596291506
 30
0.0
  0
VERTEX
  5
216BB
  8
0
 10
365.23621426896563
 20
88.969895103991504
 30
0.0
  0
VERTEX
  5
216BC
  8
0
 10
365.66565828406578
 20
88.974477211091497
 30
0.0
  0
VERTEX
  5
216BD
  8
0
 10
366.08642982326569
 20
89.016062626691493
 30
0.0
  0
VERTEX
  5
216BE
  8
0
 10
366.47796528416569
 20
89.091712096791497
 30
0.0
  0
VERTEX
  5
216BF
  8
0
 10
367.13145943366573
 20
89.299840340391484
 30
0.0
  0
VERTEX
  5
216C0
  8
0
 10
368.02738057456583
 20
89.734961697891478
 30
0.0
  0
VERTEX
  5
216C1
  8
0
 10
368.6224509962658
 20
90.052758762691496
 30
0.0
  0
VERTEX
  5
216C2
  8
0
 10
369.0536086447658
 20
90.207470068791494
 30
0.0
  0
VERTEX
  5
216C3
  8
0
 10
369.14212899286582
 20
90.220095077591495
 30
0.0
  0
SEQEND
  5
216C4
  8
0
  0
POLYLINE
  5
20CA1
  8
0
 66
     1
 10
0.0
 20
0.0
 30
0.0
 70
   128
  0
VERTEX
  5
216C5
  8
0
 10
425.85602859657479
 20
79.001506278291487
 30
0.0
  0
VERTEX
  5
216C6
  8
0
 10
425.79069258646558
 20
81.859500566591507
 30
0.0
  0
VERTEX
  5
216C7
  8
0
 10
425.42145671326551
 20
84.501904854591515
 30
0.0
  0
VERTEX
  5
216C8
  8
0
 10
424.49336769066548
 20
86.800103494991475
 30
0.0
  0
VERTEX
  5
216C9
  8
0
 10
423.9986416884658
 20
87.428776035091474
 30
0.0
  0
VERTEX
  5
216CA
  8
0
 10
423.32124980166577
 20
87.944378564191496
 30
0.0
  0
VERTEX
  5
216CB
  8
0
 10
422.85841973506581
 20
88.125163177091494
 30
0.0
  0
VERTEX
  5
216CC
  8
0
 10
422.32088269666559
 20
88.223264971791494
 30
0.0
  0
VERTEX
  5
216CD
  8
0
 10
421.78967865186559
 20
88.22139115079149
 30
0.0
  0
VERTEX
  5
216CE
  8
0
 10
421.23224111276562
 20
88.112448761291489
 30
0.0
  0
VERTEX
  5
216CF
  8
0
 10
420.59886725626569
 20
87.820859113791499
 30
0.0
  0
VERTEX
  5
216D0
  8
0
 10
419.3013188429656
 20
86.467807600291493
 30
0.0
  0
VERTEX
  5
216D1
  8
0
 10
418.77236487346568
 20
85.320325056091505
 30
0.0
  0
VERTEX
  5
216D2
  8
0
 10
418.35951330146571
 20
83.957271138291489
 30
0.0
  0
VERTEX
  5
216D3
  8
0
 10
418.11222108086571
 20
82.736720750191495
 30
0.0
  0
VERTEX
  5
216D4
  8
0
 10
417.9378402419656
 20
81.428290763891482
 30
0.0
  0
VERTEX
  5
216D5
  8
0
 10
417.8733033128658
 20
80.751141021091499
 30
0.0
  0
VERTEX
  5
216D6
  8
0
 10
417.74895800549569
 20
79.001506278291473
 30
0.0
  0
SEQEND
  5
216D7
  8
0
  0
ARC
  5
20CA2
  8
0
 10
381.76544887228209
 20
80.762883759486954
 30
0.0
 40
29.374229426611731
 50
356.56229036122119
 51
12.117224547711
  0
POLYLINE
  5
20CA3
  8
0
 66
     1
 10
0.0
 20
0.0
 30
0.0
 70
   128
  0
VERTEX
  5
216D8
  8
0
 10
410.48522563656559
 20
86.928901681691485
 30
0.0
  0
VERTEX
  5
216D9
  8
0
 10
410.48522563656559
 20
86.928901681691485
 30
0.0
  0
VERTEX
  5
216DA
  8
0
 10
409.54152764756572
 20
88.067331770491506
 30
0.0
  0
VERTEX
  5
216DB
  8
0
 10
409.0650406666656
 20
88.329011062191498
 30
0.0
  0
VERTEX
  5
216DC
  8
0
 10
408.4245962091656
 20
88.500940660091473
 30
0.0
  0
VERTEX
  5
216DD
  8
0
 10
407.87299247466558
 20
88.529420504391496
 30
0.0
  0
VERTEX
  5
216DE
  8
0
 10
407.2621789761655
 20
88.469514111091499
 30
0.0
  0
VERTEX
  5
216DF
  8
0
 10
406.71695293866583
 20
88.331458577891496
 30
0.0
  0
VERTEX
  5
216E0
  8
0
 10
405.9482616372656
 20
87.989640841291504
 30
0.0
  0
VERTEX
  5
216E1
  8
0
 10
404.94755180556581
 20
87.176216254091486
 30
0.0
  0
VERTEX
  5
216E2
  8
0
 10
404.16486831386572
 20
86.096947500491495
 30
0.0
  0
VERTEX
  5
216E3
  8
0
 10
403.54444356636549
 20
84.774670610291494
 30
0.0
  0
VERTEX
  5
216E4
  8
0
 10
403.13112260776569
 20
83.348242053791495
 30
0.0
  0
VERTEX
  5
216E5
  8
0
 10
402.8452512808658
 20
81.730955699491503
 30
0.0
  0
VERTEX
  5
216E6
  8
0
 10
402.6535740457943
 20
79.001506278291487
 30
0.0
  0
SEQEND
  5
216E7
  8
0
  0
ARC
  5
20CA4
  8
0
 10
362.2172922951973
 20
80.350971354402645
 30
0.0
 40
34.909551864050648
 50
357.78462001465363
 51
10.58798073523735
  0
POLYLINE
  5
20CA5
  8
0
 66
     1
 10
0.0
 20
0.0
 30
0.0
 70
   128
  0
VERTEX
  5
216E8
  8
0
 10
396.53247119866569
 20
86.765432218091362
 30
0.0
  0
VERTEX
  5
216E9
  8
0
 10
396.53247119866569
 20
86.76543221809149
 30
0.0
  0
VERTEX
  5
216EA
  8
0
 10
396.06993170456582
 20
87.675498286291486
 30
0.0
  0
VERTEX
  5
216EB
  8
0
 10
395.39969237526572
 20
88.389908382691488
 30
0.0
  0
VERTEX
  5
216EC
  8
0
 10
394.41775055606581
 20
88.845626870191495
 30
0.0
  0
VERTEX
  5
216ED
  8
0
 10
393.80304040396572
 20
88.961334386891494
 30
0.0
  0
VERTEX
  5
216EE
  8
0
 10
393.06055279456558
 20
88.999086478791483
 30
0.0
  0
VERTEX
  5
216EF
  8
0
 10
392.35805990176573
 20
88.953421870291479
 30
0.0
  0
VERTEX
  5
216F0
  8
0
 10
391.56540008266569
 20
88.815735140891491
 30
0.0
  0
VERTEX
  5
216F1
  8
0
 10
390.5172598548657
 20
88.452713051891479
 30
0.0
  0
VERTEX
  5
216F2
  8
0
 10
388.98571105676569
 20
87.2962935362915
 30
0.0
  0
VERTEX
  5
216F3
  8
0
 10
387.8893432207658
 20
85.422718385291489
 30
0.0
  0
VERTEX
  5
216F4
  8
0
 10
387.43151249366571
 20
84.021282801491466
 30
0.0
  0
VERTEX
  5
216F5
  8
0
 10
387.10091533146561
 20
82.370859989991473
 30
0.0
  0
VERTEX
  5
216F6
  8
0
 10
386.93322511396559
 20
80.749468365691484
 30
0.0
  0
VERTEX
  5
216F7
  8
0
 10
386.86385654596069
 20
79.001506278291487
 30
0.0
  0
SEQEND
  5
216F8
  8
0
  0
ARC
  5
20CA6
  8
0
 10
315.52582317806559
 20
79.865642838791501
 30
0.0
 40
67.189635532133309
 50
359.2630895748984
 51
4.6038621947996887
  0
POLYLINE
  5
20CA7
  8
0
 66
     1
 10
0.0
 20
0.0
 30
0.0
 70
   128
  0
VERTEX
  5
216F9
  8
0
 10
382.49866934495981
 20
85.258693853425584
 30
0.0
  0
VERTEX
  5
216FA
  8
0
 10
382.24470512946567
 20
86.769403377591473
 30
0.0
  0
VERTEX
  5
216FB
  8
0
 10
381.5772783942657
 20
88.367735454891488
 30
0.0
  0
VERTEX
  5
216FC
  8
0
 10
380.51172243436571
 20
89.027320453991464
 30
0.0
  0
VERTEX
  5
216FD
  8
0
 10
379.92965700106561
 20
89.107194403191485
 30
0.0
  0
VERTEX
  5
216FE
  8
0
 10
379.14595277986592
 20
89.118303218891484
 30
0.0
  0
VERTEX
  5
216FF
  8
0
 10
378.54179264986578
 20
89.099740097391489
 30
0.0
  0
VERTEX
  5
21700
  8
0
 10
377.86858798936578
 20
89.073014864791475
 30
0.0
  0
VERTEX
  5
21701
  8
0
 10
377.27660955866571
 20
89.047649363091466
 30
0.0
  0
VERTEX
  5
21702
  8
0
 10
376.45917655906578
 20
88.999980548491493
 30
0.0
  0
VERTEX
  5
21703
  8
0
 10
375.30923904856559
 20
88.839387008991494
 30
0.0
  0
VERTEX
  5
21704
  8
0
 10
374.39406188206573
 20
88.516020635191495
 30
0.0
  0
VERTEX
  5
21705
  8
0
 10
373.65593658766579
 20
87.987670162691487
 30
0.0
  0
VERTEX
  5
21706
  8
0
 10
373.03193183616582
 20
87.195774028091478
 30
0.0
  0
VERTEX
  5
21707
  8
0
 10
372.52331050116572
 20
86.114117363491488
 30
0.0
  0
VERTEX
  5
21708
  8
0
 10
371.91990287976569
 20
83.657366642791501
 30
0.0
  0
VERTEX
  5
21709
  8
0
 10
371.65515022356573
 20
81.057330081291497
 30
0.0
  0
VERTEX
  5
2170A
  8
0
 10
371.59801960000527
 20
79.001506278291487
 30
0.0
  0
SEQEND
  5
2170B
  8
0
  0
LINE
  5
20CA8
  8
0
 10
351.29918614406569
 20
85.000292817191493
 30
0.0
 11
356.05817185716569
 21
89.690429577691489
 31
0.0
  0
ARC
  5
20CB3
  8
0
 10
60.583408834158263
 20
197.04903970886099
 30
0.0
 40
31.892110639602901
 50
333.00799569483007
 51
8.3949057675280585
  0
ARC
  5
20CB4
  8
0
 10
82.938093131205278
 20
204.85520929622709
 30
0.0
 40
7.7656932844590481
 50
29.670143586020039
 51
38.811878517651799
  0
ARC
  5
20CB5
  8
0
 10
70.160671565058465
 20
197.89921541519689
 30
0.0
 40
22.317517563140179
 50
15.467205300799939
 51
23.04688177920865
  0
ARC
  5
20CB6
  8
0
 10
59.92636187200673
 20
195.86575419168281
 30
0.0
 40
32.732518251486447
 50
10.27639176339887
 51
14.120061517001149
  0
POLYLINE
  5
20CB7
  8
0
 66
     1
 10
0.0
 20
0.0
 30
0.0
 70
   128
  0
VERTEX
  5
2170C
  8
0
 10
89.001506986096956
 20
208.0180682809177
 30
0.0
  0
VERTEX
  5
2170D
  8
0
 10
89.010604202806704
 20
208.00044657658279
 30
0.0
  0
VERTEX
  5
2170E
  8
0
 10
89.216437667706714
 20
207.6045637018828
 30
0.0
  0
VERTEX
  5
2170F
  8
0
 10
89.450378447906814
 20
207.14404704048289
 30
0.0
  0
VERTEX
  5
21710
  8
0
 10
89.664251089206786
 20
206.7117010242828
 30
0.0
  0
VERTEX
  5
21711
  8
0
 10
89.837581396206815
 20
206.35670693588281
 30
0.0
  0
VERTEX
  5
21712
  8
0
 10
89.973032951406594
 20
206.0874578542828
 30
0.0
  0
VERTEX
  5
21713
  8
0
 10
90.044100314506736
 20
205.97261460498279
 30
0.0
  0
VERTEX
  5
21714
  8
0
 10
90.054434269806734
 20
205.96704529598281
 30
0.0
  0
SEQEND
  5
21715
  8
0
  0
POLYLINE
  5
20CB8
  8
0
 66
     1
 10
0.0
 20
0.0
 30
0.0
 70
   128
  0
VERTEX
  5
21716
  8
0
 10
89.586366444906616
 20
208.82695065808281
 30
0.0
  0
VERTEX
  5
21717
  8
0
 10
89.610610634206751
 20
208.7469910271829
 30
0.0
  0
VERTEX
  5
21718
  8
0
 10
89.713562756906654
 20
208.52762358258281
 30
0.0
  0
VERTEX
  5
21719
  8
0
 10
89.885492354706685
 20
208.17671241238281
 30
0.0
  0
VERTEX
  5
2171A
  8
0
 10
90.085391432106675
 20
207.76129411528279
 30
0.0
  0
VERTEX
  5
2171B
  8
0
 10
90.307537943206626
 20
207.28131281208289
 30
0.0
  0
VERTEX
  5
2171C
  8
0
 10
90.504598349406706
 20
206.83973552658281
 30
0.0
  0
VERTEX
  5
2171D
  8
0
 10
90.664111554706551
 20
206.4759981818828
 30
0.0
  0
VERTEX
  5
2171E
  8
0
 10
90.788417041406774
 20
206.20074765758281
 30
0.0
  0
VERTEX
  5
2171F
  8
0
 10
90.852760255406565
 20
206.08468623828281
 30
0.0
  0
VERTEX
  5
21720
  8
0
 10
90.861864864906693
 20
206.07887106018279
 30
0.0
  0
VERTEX
  5
21721
  8
0
 10
90.853628248106574
 20
206.16213874888291
 30
0.0
  0
VERTEX
  5
21722
  8
0
 10
90.781983465006746
 20
206.4011384732828
 30
0.0
  0
VERTEX
  5
21723
  8
0
 10
90.655994147206684
 20
206.74922587348291
 30
0.0
  0
VERTEX
  5
21724
  8
0
 10
90.469260245706664
 20
207.20227705318291
 30
0.0
  0
VERTEX
  5
21725
  8
0
 10
90.259228378606622
 20
207.65754478048279
 30
0.0
  0
VERTEX
  5
21726
  8
0
 10
90.035763114806741
 20
208.09713276098279
 30
0.0
  0
VERTEX
  5
21727
  8
0
 10
89.828942448006728
 20
208.46733348448291
 30
0.0
  0
VERTEX
  5
21728
  8
0
 10
89.685623079606785
 20
208.6992737836828
 30
0.0
  0
VERTEX
  5
21729
  8
0
 10
89.597724855006618
 20
208.81948145108291
 30
0.0
  0
VERTEX
  5
2172A
  8
0
 10
89.586366444906616
 20
208.82695065808281
 30
0.0
  0
SEQEND
  5
2172B
  8
0
  0
ARC
  5
20CB9
  8
0
 10
137.1235883613067
 20
213.26217145038279
 30
0.0
 40
46.799697885786912
 50
190.60714658960069
 51
193.56580677836689
  0
POLYLINE
  5
20CBA
  8
0
 66
     1
 10
0.0
 20
0.0
 30
0.0
 70
   128
  0
VERTEX
  5
2172C
  8
0
 10
91.699145298181634
 20
201.94241442224481
 30
0.0
  0
VERTEX
  5
2172D
  8
0
 10
91.756888210906709
 20
201.7239098436828
 30
0.0
  0
VERTEX
  5
2172E
  8
0
 10
91.764409572006798
 20
201.71657102178281
 30
0.0
  0
SEQEND
  5
2172F
  8
0
  0
POLYLINE
  5
20CBC
  8
0
 66
     1
 10
0.0
 20
0.0
 30
0.0
 70
   128
  0
VERTEX
  5
21730
  8
0
 10
88.946351057139964
 20
207.09216342646769
 30
0.0
  0
VERTEX
  5
21731
  8
0
 10
88.978026539206667
 20
207.03469859438289
 30
0.0
  0
VERTEX
  5
21732
  8
0
 10
89.207035035006584
 20
206.6073221154829
 30
0.0
  0
VERTEX
  5
21733
  8
0
 10
89.392494887206567
 20
206.25618742778281
 30
0.0
  0
VERTEX
  5
21734
  8
0
 10
89.537188887706634
 20
205.9897360391829
 30
0.0
  0
VERTEX
  5
21735
  8
0
 10
89.612819731306672
 20
205.87564902378281
 30
0.0
  0
VERTEX
  5
21736
  8
0
 10
89.623708754906815
 20
205.86995305488281
 30
0.0
  0
SEQEND
  5
21737
  8
0
  0
ARC
  5
20CBD
  8
0
 10
135.5425410594066
 20
200.82643034538279
 30
0.0
 40
44.088400785190927
 50
180.8622981478002
 51
184.7541713216994
  0
POLYLINE
  5
20CC0
  8
0
 66
     1
 10
0.0
 20
0.0
 30
0.0
 70
   128
  0
VERTEX
  5
21738
  8
0
 10
91.130603581806781
 20
200.08894698698279
 30
0.0
  0
VERTEX
  5
21739
  8
0
 10
91.120783716506821
 20
199.99986411998279
 30
0.0
  0
VERTEX
  5
2173A
  8
0
 10
91.127690404706755
 20
199.7559917158828
 30
0.0
  0
VERTEX
  5
2173B
  8
0
 10
91.146640956506644
 20
199.36714218928279
 30
0.0
  0
VERTEX
  5
2173C
  8
0
 10
91.167737275506624
 20
198.91299763698279
 30
0.0
  0
VERTEX
  5
2173D
  8
0
 10
91.186289221106776
 20
198.39499788358279
 30
0.0
  0
VERTEX
  5
2173E
  8
0
 10
91.198344260506715
 20
197.91400516408279
 30
0.0
  0
VERTEX
  5
2173F
  8
0
 10
91.206294030006802
 20
197.52222197128279
 30
0.0
  0
VERTEX
  5
21740
  8
0
 10
91.215875476706742
 20
197.2288032061829
 30
0.0
  0
VERTEX
  5
21741
  8
0
 10
91.230787813806728
 20
197.10646281018279
 30
0.0
  0
VERTEX
  5
21742
  8
0
 10
91.236766904706656
 20
197.10026392708281
 30
0.0
  0
VERTEX
  5
21743
  8
0
 10
91.260254860006626
 20
197.18636842448279
 30
0.0
  0
VERTEX
  5
21744
  8
0
 10
91.284797072506763
 20
197.4364117718828
 30
0.0
  0
VERTEX
  5
21745
  8
0
 10
91.30168008810665
 20
197.8017360902829
 30
0.0
  0
VERTEX
  5
21746
  8
0
 10
91.304596990406694
 20
198.28673722218281
 30
0.0
  0
VERTEX
  5
21747
  8
0
 10
91.288637846806751
 20
198.7813998944828
 30
0.0
  0
VERTEX
  5
21748
  8
0
 10
91.256000578506701
 20
199.25887221468281
 30
0.0
  0
VERTEX
  5
21749
  8
0
 10
91.211718052706814
 20
199.67508958648281
 30
0.0
  0
VERTEX
  5
2174A
  8
0
 10
91.171022981506667
 20
199.9433626420828
 30
0.0
  0
VERTEX
  5
2174B
  8
0
 10
91.137759864406689
 20
200.0808705575829
 30
0.0
  0
VERTEX
  5
2174C
  8
0
 10
91.130603581806781
 20
200.08894698698279
 30
0.0
  0
SEQEND
  5
2174D
  8
0
  0
POLYLINE
  5
20CC1
  8
0
 66
     1
 10
0.0
 20
0.0
 30
0.0
 70
   128
  0
VERTEX
  5
2174E
  8
0
 10
88.625732812072457
 20
206.74413184205969
 30
0.0
  0
VERTEX
  5
2174F
  8
0
 10
88.759426504506564
 20
206.5086317248828
 30
0.0
  0
VERTEX
  5
21750
  8
0
 10
88.95415487890682
 20
206.1594863421829
 30
0.0
  0
VERTEX
  5
21751
  8
0
 10
89.105021685506685
 20
205.89529993008281
 30
0.0
  0
VERTEX
  5
21752
  8
0
 10
89.182746142206724
 20
205.7826024479829
 30
0.0
  0
VERTEX
  5
21753
  8
0
 10
89.193597912906625
 20
205.7768580503828
 30
0.0
  0
SEQEND
  5
21754
  8
0
  0
POLYLINE
  5
20CC4
  8
0
 66
     1
 10
0.0
 20
0.0
 30
0.0
 70
   128
  0
VERTEX
  5
21755
  8
0
 10
88.614188553765416
 20
205.9244966152863
 30
0.0
  0
VERTEX
  5
21756
  8
0
 10
88.679530203406784
 20
205.8142897672829
 30
0.0
  0
VERTEX
  5
21757
  8
0
 10
88.759258866406753
 20
205.70139111948279
 30
0.0
  0
VERTEX
  5
21758
  8
0
 10
88.770371407406628
 20
205.69519223648291
 30
0.0
  0
VERTEX
  5
21759
  8
0
 10
88.758096575806789
 20
205.77180655668289
 30
0.0
  0
VERTEX
  5
2175A
  8
0
 10
88.669516623106816
 20
205.99403874948291
 30
0.0
  0
VERTEX
  5
2175B
  8
0
 10
88.614188553765416
 20
206.1118051336494
 30
0.0
  0
SEQEND
  5
2175C
  8
0
  0
POLYLINE
  5
20CC5
  8
0
 66
     1
 10
0.0
 20
0.0
 30
0.0
 70
   128
  0
VERTEX
  5
2175D
  8
0
 10
91.780055791206678
 20
200.22255079818291
 30
0.0
  0
VERTEX
  5
2175E
  8
0
 10
91.770433366406678
 20
200.1380276865828
 30
0.0
  0
VERTEX
  5
2175F
  8
0
 10
91.778494894606638
 20
199.9007862992828
 30
0.0
  0
VERTEX
  5
21760
  8
0
 10
91.801334649406726
 20
199.5153118855828
 30
0.0
  0
VERTEX
  5
21761
  8
0
 10
91.830730915206686
 20
199.05333863568291
 30
0.0
  0
VERTEX
  5
21762
  8
0
 10
91.862790763506609
 20
198.52912882338279
 30
0.0
  0
VERTEX
  5
21763
  8
0
 10
91.891441971206632
 20
198.0469179339828
 30
0.0
  0
VERTEX
  5
21764
  8
0
 10
91.916200250506563
 20
197.6535514928828
 30
0.0
  0
VERTEX
  5
21765
  8
0
 10
91.940157592406649
 20
197.3607716150828
 30
0.0
  0
VERTEX
  5
21766
  8
0
 10
91.961011767506761
 20
197.2396642900828
 30
0.0
  0
VERTEX
  5
21767
  8
0
 10
91.966841846806574
 20
197.23295131698279
 30
0.0
  0
VERTEX
  5
21768
  8
0
 10
91.985136747506658
 20
197.3145761526828
 30
0.0
  0
VERTEX
  5
21769
  8
0
 10
91.996640443906699
 20
197.55980269978281
 30
0.0
  0
VERTEX
  5
2176A
  8
0
 10
91.997378051406713
 20
197.9215377010828
 30
0.0
  0
VERTEX
  5
2176B
  8
0
 10
91.983292728806646
 20
198.40474510568291
 30
0.0
  0
VERTEX
  5
2176C
  8
0
 10
91.953758627306556
 20
198.9101738668829
 30
0.0
  0
VERTEX
  5
2176D
  8
0
 10
91.911178559206746
 20
199.3997142649828
 30
0.0
  0
VERTEX
  5
2176E
  8
0
 10
91.861885517906785
 20
199.81483267618279
 30
0.0
  0
VERTEX
  5
2176F
  8
0
 10
91.820180893006636
 20
200.07732408118289
 30
0.0
  0
VERTEX
  5
21770
  8
0
 10
91.786806017306617
 20
200.2141130156829
 30
0.0
  0
VERTEX
  5
21771
  8
0
 10
91.780055791206678
 20
200.22255079818291
 30
0.0
  0
SEQEND
  5
21772
  8
0
  0
POLYLINE
  5
20CC7
  8
0
 66
     1
 10
0.0
 20
0.0
 30
0.0
 70
   128
  0
VERTEX
  5
21773
  8
0
 10
89.202210784006624
 20
208.7526236660828
 30
0.0
  0
VERTEX
  5
21774
  8
0
 10
89.22231990110663
 20
208.67079021408281
 30
0.0
  0
VERTEX
  5
21775
  8
0
 10
89.322869211506713
 20
208.4498283452829
 30
0.0
  0
VERTEX
  5
21776
  8
0
 10
89.492273062606714
 20
208.10176329688289
 30
0.0
  0
VERTEX
  5
21777
  8
0
 10
89.687038689906558
 20
207.6990892178828
 30
0.0
  0
VERTEX
  5
21778
  8
0
 10
89.906778663506657
 20
207.2305669076828
 30
0.0
  0
VERTEX
  5
21779
  8
0
 10
90.10437551150676
 20
206.7960341460828
 30
0.0
  0
VERTEX
  5
2177A
  8
0
 10
90.264332026306647
 20
206.43903212618289
 30
0.0
  0
VERTEX
  5
2177B
  8
0
 10
90.389304340006674
 20
206.1684307641828
 30
0.0
  0
VERTEX
  5
2177C
  8
0
 10
90.454362809706709
 20
206.0543102211829
 30
0.0
  0
VERTEX
  5
2177D
  8
0
 10
90.463467419206836
 20
206.04915069418291
 30
0.0
  0
VERTEX
  5
2177E
  8
0
 10
90.463374287006673
 20
206.05016769838281
 30
0.0
  0
SEQEND
  5
2177F
  8
0
  0
POLYLINE
  5
20CC8
  8
0
 66
     1
 10
0.0
 20
0.0
 30
0.0
 70
   128
  0
VERTEX
  5
21780
  8
0
 10
92.165250808106734
 20
200.1752954907829
 30
0.0
  0
VERTEX
  5
21781
  8
0
 10
92.150643944806674
 20
200.1030434853829
 30
0.0
  0
VERTEX
  5
21782
  8
0
 10
92.152808338506702
 20
199.87993584948279
 30
0.0
  0
VERTEX
  5
21783
  8
0
 10
92.169687628806727
 20
199.50489411128279
 30
0.0
  0
VERTEX
  5
21784
  8
0
 10
92.194930195906636
 20
199.04331015418279
 30
0.0
  0
VERTEX
  5
21785
  8
0
 10
92.224169999506785
 20
198.5169582999828
 30
0.0
  0
VERTEX
  5
21786
  8
0
 10
92.251658916606644
 20
198.02203672008281
 30
0.0
  0
VERTEX
  5
21787
  8
0
 10
92.275768995406679
 20
197.6125285960828
 30
0.0
  0
VERTEX
  5
21788
  8
0
 10
92.298873245806817
 20
197.30592975388291
 30
0.0
  0
VERTEX
  5
21789
  8
0
 10
92.318889230606828
 20
197.17545891178281
 30
0.0
  0
VERTEX
  5
2178A
  8
0
 10
92.324667155806765
 20
197.16538945208279
 30
0.0
  0
VERTEX
  5
2178B
  8
0
 10
92.326257854806727
 20
197.17103140428279
 30
0.0
  0
SEQEND
  5
2178C
  8
0
  0
ARC
  5
20CC9
  8
0
 10
84.026724682706785
 20
194.21706065368281
 30
0.0
 40
6.5603555427491367
 50
319.31543527198539
 51
348.39718164940001
  0
ARC
  5
20CCA
  8
0
 10
82.405028345106757
 20
192.68332171588281
 30
0.0
 40
7.0629614533338287
 50
310.46937416150593
 51
324.27725717399301
  0
LINE
  5
20CCB
  8
0
 10
89.939918846006776
 20
187.48235041278281
 30
0.0
 11
89.820448786106681
 21
187.38705376158279
 31
0.0
  0
LINE
  5
20CCC
  8
0
 10
89.820448786106681
 20
187.38705376158279
 30
0.0
 11
89.012403518106794
 21
186.33848140018279
 31
0.0
  0
ARC
  5
20CCD
  8
0
 10
79.728660803018329
 20
192.9933866940363
 30
0.0
 40
11.42259354394233
 50
309.46659298721738
 51
324.36574733085769
  0
ARC
  5
20CCE
  8
0
 10
70.345231716206627
 20
197.7742728672828
 30
0.0
 40
19.49222294003641
 50
343.15928058064259
 51
4.9144716141869242
  0
ARC
  5
20CCF
  8
0
 10
75.54816357920663
 20
197.6929590922829
 30
0.0
 40
14.15890134544407
 50
341.83610696765169
 51
6.7539981227353998
  0
LINE
  5
20CD0
  8
0
 10
90.576988190506654
 20
198.2145876623828
 30
0.0
 11
90.550564706406689
 21
198.10370998458279
 31
0.0
  0
LINE
  5
20CD1
  8
0
 10
90.550564706406689
 20
198.10370998458279
 30
0.0
 11
90.4491995574067
 21
196.8890809453828
 31
0.0
  0
ARC
  5
20CD2
  8
0
 10
74.951621737278174
 20
198.21770450028129
 30
0.0
 40
15.55442569950991
 50
334.59162499421211
 51
355.09995426536022
  0
LINE
  5
20CD3
  8
0
 10
87.259483654346127
 20
188.71673275808291
 30
0.0
 11
87.014109373206566
 21
188.4062112308828
 31
0.0
  0
ARC
  5
20CD4
  8
0
 10
76.841049069065321
 20
195.39409911435251
 30
0.0
 40
13.87029878074866
 50
317.0244758436022
 51
335.87927579430129
  0
ARC
  5
20CD5
  8
0
 10
76.389171656558801
 20
195.76500545437011
 30
0.0
 40
14.435115935095119
 50
335.26857717397479
 51
346.68549297447743
  0
LINE
  5
20CD6
  8
0
 10
90.436280250606842
 20
192.4406540579829
 30
0.0
 11
90.520915120906693
 21
192.93498890478281
 31
0.0
  0
LINE
  5
20CD7
  8
0
 10
90.520915120906693
 20
192.93498890478281
 30
0.0
 11
90.500645816406632
 21
192.97704743218279
 31
0.0
  0
LINE
  5
20CD8
  8
0
 10
90.500645816406632
 20
192.97704743218279
 30
0.0
 11
90.453021705206766
 21
192.89760189128279
 31
0.0
  0
ARC
  5
20CD9
  8
0
 10
75.657725813565094
 20
190.8662379587858
 30
0.0
 40
14.84290020238593
 50
330.67644164700062
 51
342.14542327044592
  0
ARC
  5
20CDA
  8
0
 10
87.169884902292324
 20
187.41099732233931
 30
0.0
 40
2.8360515524245651
 50
337.2742779262519
 51
0.7850846177354999
  0
LINE
  5
20CDB
  8
0
 10
90.005670219806689
 20
187.44985656808279
 30
0.0
 11
89.939918846006776
 21
187.48235041278281
 31
0.0
  0
LINE
  5
20CDC
  8
0
 10
86.989183455806824
 20
187.8185448236828
 30
0.0
 11
87.608711638237651
 21
188.56569509399461
 31
0.0
  0
ARC
  5
20CDD
  8
0
 10
76.64743958503891
 20
197.32228794190149
 30
0.0
 40
13.98580832776871
 50
332.04656841590838
 51
357.65942692876041
  0
LINE
  5
20CDE
  8
0
 10
90.621579915406755
 20
196.75111668188279
 30
0.0
 11
90.628371119606754
 21
197.76376606898279
 31
0.0
  0
LINE
  5
20CDF
  8
0
 10
90.628371119606754
 20
197.76376606898279
 30
0.0
 11
90.605311572606738
 21
198.0918207205828
 31
0.0
  0
LINE
  5
20CE0
  8
0
 10
90.605311572606738
 20
198.0918207205828
 30
0.0
 11
90.576988190506654
 21
198.2145876623828
 31
0.0
  0
ARC
  5
20CE2
  8
0
 10
85.139926067497981
 20
201.78923807222171
 30
0.0
 40
6.6313056739411822
 50
3.6437819897183372
 51
25.533292288576401
  0
ARC
  5
20CE3
  8
0
 10
85.647260941491126
 20
201.8821658827288
 30
0.0
 40
6.1193895958495101
 50
358.44934779193397
 51
1.6194348519294171
  0
POLYLINE
  5
20CE5
  8
0
 66
     1
 10
0.0
 20
0.0
 30
0.0
 70
   128
  0
VERTEX
  5
2178D
  8
0
 10
91.605827689238822
 20
197.17235015697159
 30
0.0
  0
VERTEX
  5
2178E
  8
0
 10
91.635564074772674
 20
197.25495288141499
 30
0.0
  0
VERTEX
  5
2178F
  8
0
 10
91.675717860563282
 20
197.50017942851511
 30
0.0
  0
VERTEX
  5
21790
  8
0
 10
91.676455468063295
 20
197.86191442981499
 30
0.0
  0
VERTEX
  5
21791
  8
0
 10
91.662370145463456
 20
198.3451218344151
 30
0.0
  0
VERTEX
  5
21792
  8
0
 10
91.632836043963394
 20
198.85055059561509
 30
0.0
  0
VERTEX
  5
21793
  8
0
 10
91.590255975863556
 20
199.34009099371499
 30
0.0
  0
VERTEX
  5
21794
  8
0
 10
91.540962934563368
 20
199.75520940491509
 30
0.0
  0
VERTEX
  5
21795
  8
0
 10
91.499258309663446
 20
200.01770080991511
 30
0.0
  0
VERTEX
  5
21796
  8
0
 10
91.465883433963199
 20
200.15448974441509
 30
0.0
  0
VERTEX
  5
21797
  8
0
 10
91.459133207863246
 20
200.1629275269151
 30
0.0
  0
SEQEND
  5
21798
  8
0
  0
POLYLINE
  5
20CE6
  8
0
 66
     1
 10
0.0
 20
0.0
 30
0.0
 70
   128
  0
VERTEX
  5
21799
  8
0
 10
92.326257854806727
 20
197.17103140428279
 30
0.0
  0
VERTEX
  5
2179A
  8
0
 10
92.355611042494957
 20
197.2673208452828
 30
0.0
  0
VERTEX
  5
2179B
  8
0
 10
92.381835460806755
 20
197.5125473923828
 30
0.0
  0
VERTEX
  5
2179C
  8
0
 10
92.382573068306783
 20
197.87428239368279
 30
0.0
  0
VERTEX
  5
2179D
  8
0
 10
92.368487745706716
 20
198.35748979828281
 30
0.0
  0
VERTEX
  5
2179E
  8
0
 10
92.33895364420664
 20
198.86291855948281
 30
0.0
  0
VERTEX
  5
2179F
  8
0
 10
92.296373576106816
 20
199.3524589575828
 30
0.0
  0
VERTEX
  5
217A0
  8
0
 10
92.247080534806855
 20
199.76757736878281
 30
0.0
  0
VERTEX
  5
217A1
  8
0
 10
92.205375909906707
 20
200.0300687737828
 30
0.0
  0
VERTEX
  5
217A2
  8
0
 10
92.172001034206687
 20
200.16685770828281
 30
0.0
  0
VERTEX
  5
217A3
  8
0
 10
92.165250808106734
 20
200.1752954907829
 30
0.0
  0
SEQEND
  5
217A4
  8
0
  0
ARC
  5
20CE7
  8
0
 10
81.85561791089799
 20
203.67866305659479
 30
0.0
 40
8.9284659430644702
 50
15.403300770285229
 51
34.63108944435151
  0
ARC
  5
20CE8
  8
0
 10
80.004486087009127
 20
202.55121807399919
 30
0.0
 40
10.614581201694261
 50
18.772129747537239
 51
32.04737989069131
  0
ARC
  5
20CE9
  8
0
 10
84.866954991715829
 20
204.43292896881789
 30
0.0
 40
4.9690788469856431
 50
16.809663545162412
 51
34.029569618520142
  0
ARC
  5
20CEA
  8
0
 10
85.850429106472575
 20
204.826792872792
 30
0.0
 40
3.47554334025416
 50
15.864144445691689
 51
34.554972639215663
  0
ARC
  5
20CEC
  8
0
 10
84.758813968784125
 20
201.73341459705389
 30
0.0
 40
6.6313056739411822
 50
6.1608399097337729
 51
25.533292288576401
  0
ARC
  5
20CED
  8
0
 10
84.379601768208417
 20
201.65234110433639
 30
0.0
 40
6.6313056739411822
 50
8.9936637309663343
 51
25.533292288576401
  0
ARC
  5
20CEE
  8
0
 10
83.982057413962579
 20
201.5704964764214
 30
0.0
 40
6.6313056739411822
 50
12.05918049892612
 51
25.533292288576401
  0
ARC
  5
20CEF
  8
0
 10
83.582475325940337
 20
201.48992217259311
 30
0.0
 40
6.6313056739411822
 50
15.279599265878421
 51
25.533292288576401
  0
ARC
  5
20CF0
  8
0
 10
136.74247626259279
 20
213.20634797521481
 30
0.0
 40
46.799697885786912
 50
190.60714658960069
 51
193.1634941194489
  0
ARC
  5
20CF1
  8
0
 10
136.36326406201709
 20
213.12527448249739
 30
0.0
 40
46.799697885786912
 50
190.60714658960069
 51
192.7289420858757
  0
ARC
  5
20CF2
  8
0
 10
135.96571970777131
 20
213.04342985458231
 30
0.0
 40
46.799697885786912
 50
190.60714658960069
 51
192.28113857594099
  0
ARC
  5
20CF3
  8
0
 10
135.56613761976129
 20
212.96285555074101
 30
0.0
 40
46.799697885786912
 50
190.60714658960069
 51
191.83662883586939
  0
ARC
  5
20D42
  8
0
 10
97.419883234854979
 20
197.04903970886099
 30
0.0
 40
31.892110639602901
 50
171.6050942324724
 51
206.992004305172
  0
ARC
  5
20D43
  8
0
 10
75.065198937807963
 20
204.85520929622709
 30
0.0
 40
7.7656932844590481
 50
141.18812148234801
 51
150.32985641397511
  0
ARC
  5
20D44
  8
0
 10
87.842620503954777
 20
197.89921541519689
 30
0.0
 40
22.317517563140179
 50
156.95311822079259
 51
164.53279469919929
  0
ARC
  5
20D45
  8
0
 10
98.076930197006504
 20
195.86575419168281
 30
0.0
 40
32.732518251486447
 50
165.87993848299871
 51
169.72360823660151
  0
POLYLINE
  5
20D46
  8
0
 66
     1
 10
0.0
 20
0.0
 30
0.0
 70
   128
  0
VERTEX
  5
217A5
  8
0
 10
69.001785082916285
 20
208.0180682809177
 30
0.0
  0
VERTEX
  5
217A6
  8
0
 10
68.992687866206552
 20
208.00044657658279
 30
0.0
  0
VERTEX
  5
217A7
  8
0
 10
68.786854401306513
 20
207.6045637018828
 30
0.0
  0
VERTEX
  5
217A8
  8
0
 10
68.552913621106427
 20
207.14404704048289
 30
0.0
  0
VERTEX
  5
217A9
  8
0
 10
68.339040979806441
 20
206.7117010242828
 30
0.0
  0
VERTEX
  5
217AA
  8
0
 10
68.165710672806426
 20
206.35670693588281
 30
0.0
  0
VERTEX
  5
217AB
  8
0
 10
68.030259117606647
 20
206.0874578542828
 30
0.0
  0
VERTEX
  5
217AC
  8
0
 10
67.959191754506492
 20
205.97261460498279
 30
0.0
  0
VERTEX
  5
217AD
  8
0
 10
67.948857799206507
 20
205.96704529598281
 30
0.0
  0
SEQEND
  5
217AE
  8
0
  0
POLYLINE
  5
20D47
  8
0
 66
     1
 10
0.0
 20
0.0
 30
0.0
 70
   128
  0
VERTEX
  5
217AF
  8
0
 10
68.416925624106625
 20
208.82695065808281
 30
0.0
  0
VERTEX
  5
217B0
  8
0
 10
68.392681434806491
 20
208.7469910271829
 30
0.0
  0
VERTEX
  5
217B1
  8
0
 10
68.289729312106601
 20
208.52762358258281
 30
0.0
  0
VERTEX
  5
217B2
  8
0
 10
68.117799714306557
 20
208.17671241238281
 30
0.0
  0
VERTEX
  5
217B3
  8
0
 10
67.917900636906552
 20
207.76129411528279
 30
0.0
  0
VERTEX
  5
217B4
  8
0
 10
67.695754125806616
 20
207.28131281208289
 30
0.0
  0
VERTEX
  5
217B5
  8
0
 10
67.498693719606536
 20
206.83973552658281
 30
0.0
  0
VERTEX
  5
217B6
  8
0
 10
67.33918051430669
 20
206.4759981818828
 30
0.0
  0
VERTEX
  5
217B7
  8
0
 10
67.214875027606467
 20
206.20074765758281
 30
0.0
  0
VERTEX
  5
217B8
  8
0
 10
67.150531813606676
 20
206.08468623828281
 30
0.0
  0
VERTEX
  5
217B9
  8
0
 10
67.141427204106549
 20
206.07887106018279
 30
0.0
  0
VERTEX
  5
217BA
  8
0
 10
67.149663820906653
 20
206.16213874888291
 30
0.0
  0
VERTEX
  5
217BB
  8
0
 10
67.221308604006481
 20
206.4011384732828
 30
0.0
  0
VERTEX
  5
217BC
  8
0
 10
67.347297921806543
 20
206.74922587348291
 30
0.0
  0
VERTEX
  5
217BD
  8
0
 10
67.534031823306563
 20
207.20227705318291
 30
0.0
  0
VERTEX
  5
217BE
  8
0
 10
67.744063690406605
 20
207.65754478048279
 30
0.0
  0
VERTEX
  5
217BF
  8
0
 10
67.9675289542065
 20
208.09713276098279
 30
0.0
  0
VERTEX
  5
217C0
  8
0
 10
68.174349621006513
 20
208.46733348448291
 30
0.0
  0
VERTEX
  5
217C1
  8
0
 10
68.317668989406457
 20
208.6992737836828
 30
0.0
  0
VERTEX
  5
217C2
  8
0
 10
68.405567214006624
 20
208.81948145108291
 30
0.0
  0
VERTEX
  5
217C3
  8
0
 10
68.416925624106625
 20
208.82695065808281
 30
0.0
  0
SEQEND
  5
217C4
  8
0
  0
ARC
  5
20D48
  8
0
 10
20.87970370770654
 20
213.26217145038279
 30
0.0
 40
46.799697885786912
 50
346.4341932216322
 51
349.39285341039999
  0
POLYLINE
  5
20D49
  8
0
 66
     1
 10
0.0
 20
0.0
 30
0.0
 70
   128
  0
VERTEX
  5
217C5
  8
0
 10
66.304146770831608
 20
201.94241442224481
 30
0.0
  0
VERTEX
  5
217C6
  8
0
 10
66.246403858106532
 20
201.7239098436828
 30
0.0
  0
VERTEX
  5
217C7
  8
0
 10
66.238882497006443
 20
201.71657102178281
 30
0.0
  0
SEQEND
  5
217C8
  8
0
  0
POLYLINE
  5
20D4A
  8
0
 66
     1
 10
0.0
 20
0.0
 30
0.0
 70
   128
  0
VERTEX
  5
217C9
  8
0
 10
69.056941011873278
 20
207.09216342646769
 30
0.0
  0
VERTEX
  5
217CA
  8
0
 10
69.025265529806575
 20
207.03469859438289
 30
0.0
  0
VERTEX
  5
217CB
  8
0
 10
68.796257034006658
 20
206.6073221154829
 30
0.0
  0
VERTEX
  5
217CC
  8
0
 10
68.610797181806674
 20
206.25618742778281
 30
0.0
  0
VERTEX
  5
217CD
  8
0
 10
68.466103181306607
 20
205.9897360391829
 30
0.0
  0
VERTEX
  5
217CE
  8
0
 10
68.390472337706555
 20
205.87564902378281
 30
0.0
  0
VERTEX
  5
217CF
  8
0
 10
68.379583314106412
 20
205.86995305488281
 30
0.0
  0
SEQEND
  5
217D0
  8
0
  0
ARC
  5
20D4B
  8
0
 10
22.460751009606611
 20
200.82643034538279
 30
0.0
 40
44.088400785190927
 50
355.24582867830082
 51
359.13770185219983
  0
POLYLINE
  5
20D4C
  8
0
 66
     1
 10
0.0
 20
0.0
 30
0.0
 70
   128
  0
VERTEX
  5
217D1
  8
0
 10
66.87268848720646
 20
200.08894698698279
 30
0.0
  0
VERTEX
  5
217D2
  8
0
 10
66.88250835250642
 20
199.99986411998279
 30
0.0
  0
VERTEX
  5
217D3
  8
0
 10
66.875601664306487
 20
199.7559917158828
 30
0.0
  0
VERTEX
  5
217D4
  8
0
 10
66.856651112506597
 20
199.36714218928279
 30
0.0
  0
VERTEX
  5
217D5
  8
0
 10
66.835554793506617
 20
198.91299763698279
 30
0.0
  0
VERTEX
  5
217D6
  8
0
 10
66.817002847906451
 20
198.39499788358279
 30
0.0
  0
VERTEX
  5
217D7
  8
0
 10
66.80494780850654
 20
197.91400516408279
 30
0.0
  0
VERTEX
  5
217D8
  8
0
 10
66.796998039006439
 20
197.52222197128279
 30
0.0
  0
VERTEX
  5
217D9
  8
0
 10
66.787416592306499
 20
197.2288032061829
 30
0.0
  0
VERTEX
  5
217DA
  8
0
 10
66.772504255206513
 20
197.10646281018279
 30
0.0
  0
VERTEX
  5
217DB
  8
0
 10
66.766525164306586
 20
197.10026392708281
 30
0.0
  0
VERTEX
  5
217DC
  8
0
 10
66.743037209006616
 20
197.18636842448279
 30
0.0
  0
VERTEX
  5
217DD
  8
0
 10
66.718494996506465
 20
197.4364117718828
 30
0.0
  0
VERTEX
  5
217DE
  8
0
 10
66.701611980906591
 20
197.8017360902829
 30
0.0
  0
VERTEX
  5
217DF
  8
0
 10
66.698695078606534
 20
198.28673722218281
 30
0.0
  0
VERTEX
  5
217E0
  8
0
 10
66.714654222206491
 20
198.7813998944828
 30
0.0
  0
VERTEX
  5
217E1
  8
0
 10
66.747291490506541
 20
199.25887221468281
 30
0.0
  0
VERTEX
  5
217E2
  8
0
 10
66.791574016306413
 20
199.67508958648281
 30
0.0
  0
VERTEX
  5
217E3
  8
0
 10
66.832269087506575
 20
199.9433626420828
 30
0.0
  0
VERTEX
  5
217E4
  8
0
 10
66.865532204606552
 20
200.0808705575829
 30
0.0
  0
VERTEX
  5
217E5
  8
0
 10
66.87268848720646
 20
200.08894698698279
 30
0.0
  0
SEQEND
  5
217E6
  8
0
  0
POLYLINE
  5
20D4D
  8
0
 66
     1
 10
0.0
 20
0.0
 30
0.0
 70
   128
  0
VERTEX
  5
217E7
  8
0
 10
69.377559256940799
 20
206.74413184205969
 30
0.0
  0
VERTEX
  5
217E8
  8
0
 10
69.243865564506663
 20
206.5086317248828
 30
0.0
  0
VERTEX
  5
217E9
  8
0
 10
69.049137190106421
 20
206.1594863421829
 30
0.0
  0
VERTEX
  5
217EA
  8
0
 10
68.898270383506542
 20
205.89529993008281
 30
0.0
  0
VERTEX
  5
217EB
  8
0
 10
68.820545926806517
 20
205.7826024479829
 30
0.0
  0
VERTEX
  5
217EC
  8
0
 10
68.809694156106616
 20
205.7768580503828
 30
0.0
  0
SEQEND
  5
217ED
  8
0
  0
POLYLINE
  5
20D4E
  8
0
 66
     1
 10
0.0
 20
0.0
 30
0.0
 70
   128
  0
VERTEX
  5
217EE
  8
0
 10
69.389103515247825
 20
205.9244966152863
 30
0.0
  0
VERTEX
  5
217EF
  8
0
 10
69.323761865606457
 20
205.8142897672829
 30
0.0
  0
VERTEX
  5
217F0
  8
0
 10
69.244033202606474
 20
205.70139111948279
 30
0.0
  0
VERTEX
  5
217F1
  8
0
 10
69.232920661606613
 20
205.69519223648291
 30
0.0
  0
VERTEX
  5
217F2
  8
0
 10
69.245195493206438
 20
205.77180655668289
 30
0.0
  0
VERTEX
  5
217F3
  8
0
 10
69.33377544590644
 20
205.99403874948291
 30
0.0
  0
VERTEX
  5
217F4
  8
0
 10
69.389103515247825
 20
206.1118051336494
 30
0.0
  0
SEQEND
  5
217F5
  8
0
  0
POLYLINE
  5
20D4F
  8
0
 66
     1
 10
0.0
 20
0.0
 30
0.0
 70
   128
  0
VERTEX
  5
217F6
  8
0
 10
66.223236277806564
 20
200.22255079818291
 30
0.0
  0
VERTEX
  5
217F7
  8
0
 10
66.232858702606563
 20
200.1380276865828
 30
0.0
  0
VERTEX
  5
217F8
  8
0
 10
66.224797174406604
 20
199.9007862992828
 30
0.0
  0
VERTEX
  5
217F9
  8
0
 10
66.201957419606515
 20
199.5153118855828
 30
0.0
  0
VERTEX
  5
217FA
  8
0
 10
66.172561153806555
 20
199.05333863568291
 30
0.0
  0
VERTEX
  5
217FB
  8
0
 10
66.140501305506632
 20
198.52912882338279
 30
0.0
  0
VERTEX
  5
217FC
  8
0
 10
66.111850097806609
 20
198.0469179339828
 30
0.0
  0
VERTEX
  5
217FD
  8
0
 10
66.087091818506678
 20
197.6535514928828
 30
0.0
  0
VERTEX
  5
217FE
  8
0
 10
66.063134476606592
 20
197.3607716150828
 30
0.0
  0
VERTEX
  5
217FF
  8
0
 10
66.04228030150648
 20
197.2396642900828
 30
0.0
  0
VERTEX
  5
21800
  8
0
 10
66.036450222206668
 20
197.23295131698279
 30
0.0
  0
VERTEX
  5
21801
  8
0
 10
66.018155321506583
 20
197.3145761526828
 30
0.0
  0
VERTEX
  5
21802
  8
0
 10
66.006651625106542
 20
197.55980269978281
 30
0.0
  0
VERTEX
  5
21803
  8
0
 10
66.005914017606514
 20
197.9215377010828
 30
0.0
  0
VERTEX
  5
21804
  8
0
 10
66.019999340206596
 20
198.40474510568291
 30
0.0
  0
VERTEX
  5
21805
  8
0
 10
66.049533441706672
 20
198.9101738668829
 30
0.0
  0
VERTEX
  5
21806
  8
0
 10
66.092113509806495
 20
199.3997142649828
 30
0.0
  0
VERTEX
  5
21807
  8
0
 10
66.141406551106456
 20
199.81483267618279
 30
0.0
  0
VERTEX
  5
21808
  8
0
 10
66.183111176006605
 20
200.07732408118289
 30
0.0
  0
VERTEX
  5
21809
  8
0
 10
66.216486051706624
 20
200.2141130156829
 30
0.0
  0
VERTEX
  5
2180A
  8
0
 10
66.223236277806564
 20
200.22255079818291
 30
0.0
  0
SEQEND
  5
2180B
  8
0
  0
POLYLINE
  5
20D50
  8
0
 66
     1
 10
0.0
 20
0.0
 30
0.0
 70
   128
  0
VERTEX
  5
2180C
  8
0
 10
68.801081285006603
 20
208.7526236660828
 30
0.0
  0
VERTEX
  5
2180D
  8
0
 10
68.780972167906612
 20
208.67079021408281
 30
0.0
  0
VERTEX
  5
2180E
  8
0
 10
68.680422857506528
 20
208.4498283452829
 30
0.0
  0
VERTEX
  5
2180F
  8
0
 10
68.511019006406514
 20
208.10176329688289
 30
0.0
  0
VERTEX
  5
21810
  8
0
 10
68.316253379106683
 20
207.6990892178828
 30
0.0
  0
VERTEX
  5
21811
  8
0
 10
68.096513405506585
 20
207.2305669076828
 30
0.0
  0
VERTEX
  5
21812
  8
0
 10
67.898916557506482
 20
206.7960341460828
 30
0.0
  0
VERTEX
  5
21813
  8
0
 10
67.738960042706594
 20
206.43903212618289
 30
0.0
  0
VERTEX
  5
21814
  8
0
 10
67.613987729006567
 20
206.1684307641828
 30
0.0
  0
VERTEX
  5
21815
  8
0
 10
67.548929259306533
 20
206.0543102211829
 30
0.0
  0
VERTEX
  5
21816
  8
0
 10
67.539824649806405
 20
206.04915069418291
 30
0.0
  0
VERTEX
  5
21817
  8
0
 10
67.539917782006555
 20
206.05016769838281
 30
0.0
  0
SEQEND
  5
21818
  8
0
  0
POLYLINE
  5
20D51
  8
0
 66
     1
 10
0.0
 20
0.0
 30
0.0
 70
   128
  0
VERTEX
  5
21819
  8
0
 10
65.838041260906493
 20
200.1752954907829
 30
0.0
  0
VERTEX
  5
2181A
  8
0
 10
65.852648124206553
 20
200.1030434853829
 30
0.0
  0
VERTEX
  5
2181B
  8
0
 10
65.850483730506525
 20
199.87993584948279
 30
0.0
  0
VERTEX
  5
2181C
  8
0
 10
65.8336044402065
 20
199.50489411128279
 30
0.0
  0
VERTEX
  5
2181D
  8
0
 10
65.808361873106605
 20
199.04331015418279
 30
0.0
  0
VERTEX
  5
2181E
  8
0
 10
65.779122069506457
 20
198.5169582999828
 30
0.0
  0
VERTEX
  5
2181F
  8
0
 10
65.751633152406612
 20
198.02203672008281
 30
0.0
  0
VERTEX
  5
21820
  8
0
 10
65.727523073606562
 20
197.6125285960828
 30
0.0
  0
VERTEX
  5
21821
  8
0
 10
65.704418823206424
 20
197.30592975388291
 30
0.0
  0
VERTEX
  5
21822
  8
0
 10
65.684402838406413
 20
197.17545891178281
 30
0.0
  0
VERTEX
  5
21823
  8
0
 10
65.678624913206477
 20
197.16538945208279
 30
0.0
  0
VERTEX
  5
21824
  8
0
 10
65.677034214206515
 20
197.17103140428279
 30
0.0
  0
SEQEND
  5
21825
  8
0
  0
ARC
  5
20D52
  8
0
 10
73.976567386306442
 20
194.21706065368281
 30
0.0
 40
6.5603555427491367
 50
191.60281835059911
 51
220.68456472801381
  0
ARC
  5
20D53
  8
0
 10
75.598263723906484
 20
192.68332171588281
 30
0.0
 40
7.0629614533338287
 50
215.72274282600179
 51
229.53062583849371
  0
LINE
  5
20D54
  8
0
 10
68.063373223006465
 20
187.48235041278281
 30
0.0
 11
68.18284328290656
 21
187.38705376158279
 31
0.0
  0
LINE
  5
20D55
  8
0
 10
68.18284328290656
 20
187.38705376158279
 30
0.0
 11
68.990888550906448
 21
186.33848140018279
 31
0.0
  0
ARC
  5
20D56
  8
0
 10
78.274631265994913
 20
192.9933866940363
 30
0.0
 40
11.42259354394233
 50
215.6342526691422
 51
230.53340701278259
  0
ARC
  5
20D57
  8
0
 10
87.658060352806615
 20
197.7742728672828
 30
0.0
 40
19.49222294003641
 50
175.08552838581249
 51
196.84071941935821
  0
ARC
  5
20D58
  8
0
 10
82.455128489806611
 20
197.6929590922829
 30
0.0
 40
14.15890134544407
 50
173.246001877265
 51
198.1638930323476
  0
LINE
  5
20D59
  8
0
 10
67.426303878506587
 20
198.2145876623828
 30
0.0
 11
67.452727362606538
 21
198.10370998458279
 31
0.0
  0
LINE
  5
20D5A
  8
0
 10
67.452727362606538
 20
198.10370998458279
 30
0.0
 11
67.554092511606541
 21
196.8890809453828
 31
0.0
  0
ARC
  5
20D5B
  8
0
 10
83.051670331735068
 20
198.21770450028129
 30
0.0
 40
15.55442569950991
 50
184.9000457346404
 51
205.40837500579011
  0
LINE
  5
20D5C
  8
0
 10
70.743808414667114
 20
188.71673275808291
 30
0.0
 11
70.989182695806676
 21
188.4062112308828
 31
0.0
  0
ARC
  5
20D5D
  8
0
 10
81.162242999947921
 20
195.39409911435251
 30
0.0
 40
13.87029878074866
 50
204.1207242056993
 51
222.97552415639839
  0
ARC
  5
20D5E
  8
0
 10
81.61412041245444
 20
195.76500545437011
 30
0.0
 40
14.435115935095119
 50
193.31450702552209
 51
204.7314228260245
  0
LINE
  5
20D5F
  8
0
 10
67.567011818406385
 20
192.4406540579829
 30
0.0
 11
67.482376948106534
 21
192.93498890478281
 31
0.0
  0
LINE
  5
20D60
  8
0
 10
67.482376948106534
 20
192.93498890478281
 30
0.0
 11
67.50264625260661
 21
192.97704743218279
 31
0.0
  0
LINE
  5
20D61
  8
0
 10
67.50264625260661
 20
192.97704743218279
 30
0.0
 11
67.550270363806476
 21
192.89760189128279
 31
0.0
  0
ARC
  5
20D62
  8
0
 10
82.345566255448148
 20
190.8662379587858
 30
0.0
 40
14.84290020238593
 50
197.8545767295555
 51
209.32355835299751
  0
ARC
  5
20D63
  8
0
 10
70.833407166720917
 20
187.41099732233931
 30
0.0
 40
2.8360515524245651
 50
179.21491538226451
 51
202.72572207374819
  0
LINE
  5
20D64
  8
0
 10
67.997621849206553
 20
187.44985656808279
 30
0.0
 11
68.063373223006465
 21
187.48235041278281
 31
0.0
  0
LINE
  5
20D65
  8
0
 10
71.014108613206403
 20
187.8185448236828
 30
0.0
 11
70.394580430775591
 21
188.56569509399461
 31
0.0
  0
ARC
  5
20D66
  8
0
 10
81.355852483974331
 20
197.32228794190149
 30
0.0
 40
13.98580832776871
 50
182.3405730712397
 51
207.95343158409381
  0
LINE
  5
20D67
  8
0
 10
67.381712153606486
 20
196.75111668188279
 30
0.0
 11
67.374920949406473
 21
197.76376606898279
 31
0.0
  0
LINE
  5
20D68
  8
0
 10
67.374920949406473
 20
197.76376606898279
 30
0.0
 11
67.39798049640649
 21
198.0918207205828
 31
0.0
  0
LINE
  5
20D69
  8
0
 10
67.39798049640649
 20
198.0918207205828
 30
0.0
 11
67.426303878506587
 21
198.2145876623828
 31
0.0
  0
ARC
  5
20D6A
  8
0
 10
72.86336600151526
 20
201.78923807222171
 30
0.0
 40
6.6313056739411822
 50
154.46670771142371
 51
176.35621801028159
  0
ARC
  5
20D6B
  8
0
 10
72.356031127522101
 20
201.8821658827288
 30
0.0
 40
6.1193895958495101
 50
178.38056514807059
 51
181.5506522080658
  0
POLYLINE
  5
20D6C
  8
0
 66
     1
 10
0.0
 20
0.0
 30
0.0
 70
   128
  0
VERTEX
  5
21826
  8
0
 10
66.397464379774419
 20
197.17235015697159
 30
0.0
  0
VERTEX
  5
21827
  8
0
 10
66.367727994240568
 20
197.25495288141499
 30
0.0
  0
VERTEX
  5
21828
  8
0
 10
66.327574208449946
 20
197.50017942851511
 30
0.0
  0
VERTEX
  5
21829
  8
0
 10
66.326836600949946
 20
197.86191442981499
 30
0.0
  0
VERTEX
  5
2182A
  8
0
 10
66.340921923549786
 20
198.3451218344151
 30
0.0
  0
VERTEX
  5
2182B
  8
0
 10
66.370456025049862
 20
198.85055059561509
 30
0.0
  0
VERTEX
  5
2182C
  8
0
 10
66.413036093149685
 20
199.34009099371499
 30
0.0
  0
VERTEX
  5
2182D
  8
0
 10
66.462329134449874
 20
199.75520940491509
 30
0.0
  0
VERTEX
  5
2182E
  8
0
 10
66.504033759349795
 20
200.01770080991511
 30
0.0
  0
VERTEX
  5
2182F
  8
0
 10
66.537408635050042
 20
200.15448974441509
 30
0.0
  0
VERTEX
  5
21830
  8
0
 10
66.544158861149981
 20
200.1629275269151
 30
0.0
  0
SEQEND
  5
21831
  8
0
  0
POLYLINE
  5
20D6D
  8
0
 66
     1
 10
0.0
 20
0.0
 30
0.0
 70
   128
  0
VERTEX
  5
21832
  8
0
 10
65.677034214206515
 20
197.17103140428279
 30
0.0
  0
VERTEX
  5
21833
  8
0
 10
65.647681026518285
 20
197.2673208452828
 30
0.0
  0
VERTEX
  5
21834
  8
0
 10
65.621456608206472
 20
197.5125473923828
 30
0.0
  0
VERTEX
  5
21835
  8
0
 10
65.620719000706458
 20
197.87428239368279
 30
0.0
  0
VERTEX
  5
21836
  8
0
 10
65.634804323306525
 20
198.35748979828281
 30
0.0
  0
VERTEX
  5
21837
  8
0
 10
65.664338424806601
 20
198.86291855948281
 30
0.0
  0
VERTEX
  5
21838
  8
0
 10
65.706918492906425
 20
199.3524589575828
 30
0.0
  0
VERTEX
  5
21839
  8
0
 10
65.756211534206386
 20
199.76757736878281
 30
0.0
  0
VERTEX
  5
2183A
  8
0
 10
65.797916159106535
 20
200.0300687737828
 30
0.0
  0
VERTEX
  5
2183B
  8
0
 10
65.831291034806554
 20
200.16685770828281
 30
0.0
  0
VERTEX
  5
2183C
  8
0
 10
65.838041260906493
 20
200.1752954907829
 30
0.0
  0
SEQEND
  5
2183D
  8
0
  0
ARC
  5
20D6E
  8
0
 10
76.147674158115251
 20
203.67866305659479
 30
0.0
 40
8.9284659430644702
 50
145.36891055564911
 51
164.59669922971571
  0
ARC
  5
20D6F
  8
0
 10
77.998805982004114
 20
202.55121807399919
 30
0.0
 40
10.614581201694261
 50
147.95262010931069
 51
161.22787025246271
  0
ARC
  5
20D70
  8
0
 10
73.136337077297412
 20
204.43292896881789
 30
0.0
 40
4.9690788469856431
 50
145.97043038147791
 51
163.190336454836
  0
ARC
  5
20D71
  8
0
 10
72.152862962540667
 20
204.826792872792
 30
0.0
 40
3.47554334025416
 50
145.4450273607894
 51
164.1358555543089
  0
ARC
  5
20D72
  8
0
 10
73.244478100229117
 20
201.73341459705389
 30
0.0
 40
6.6313056739411822
 50
154.46670771142371
 51
173.8391600902666
  0
ARC
  5
20D73
  8
0
 10
73.62369030080481
 20
201.65234110433639
 30
0.0
 40
6.6313056739411822
 50
154.46670771142371
 51
171.0063362690338
  0
ARC
  5
20D74
  8
0
 10
74.021234655050648
 20
201.5704964764214
 30
0.0
 40
6.6313056739411822
 50
154.46670771142371
 51
167.94081950107449
  0
ARC
  5
20D75
  8
0
 10
74.420816743072919
 20
201.48992217259311
 30
0.0
 40
6.6313056739411822
 50
154.46670771142371
 51
164.7204007341202
  0
ARC
  5
20D76
  8
0
 10
21.2608158064204
 20
213.20634797521481
 30
0.0
 40
46.799697885786912
 50
346.83650588055201
 51
349.39285341039999
  0
ARC
  5
20D77
  8
0
 10
21.64002800699609
 20
213.12527448249739
 30
0.0
 40
46.799697885786912
 50
347.27105791412453
 51
349.39285341039999
  0
ARC
  5
20D78
  8
0
 10
22.037572361241931
 20
213.04342985458231
 30
0.0
 40
46.799697885786912
 50
347.71886142406021
 51
349.39285341039999
  0
ARC
  5
20D79
  8
0
 10
22.437154449251921
 20
212.96285555074101
 30
0.0
 40
46.799697885786912
 50
348.16337116413041
 51
349.39285341039999
  0
ARC
  5
20D7B
  8
0
 10
507.89430900796168
 20
200.2641166357044
 30
0.0
 40
16.644666066511579
 50
14.503043276639101
 51
28.01876047691664
  0
ARC
  5
20D7C
  8
0
 10
509.04256457823101
 20
201.07142115573879
 30
0.0
 40
15.252737540528759
 50
27.36783985401425
 51
42.02653956049808
  0
ARC
  5
20D7D
  8
0
 10
511.43761127138413
 20
203.21199686106971
 30
0.0
 40
12.040559471445359
 50
42.089967343970713
 51
61.308052042207407
  0
ARC
  5
20D7E
  8
0
 10
511.76352059460828
 20
203.61702171830709
 30
0.0
 40
11.52915961859919
 50
61.762478655721686
 51
91.171280963854656
  0
ARC
  5
20D7F
  8
0
 10
493.0435698400176
 20
197.041242938294
 30
0.0
 40
31.96785634544176
 50
335.79503581197372
 51
8.0804980711728014
  0
POLYLINE
  5
20D80
  8
0
 66
     1
 10
0.0
 20
0.0
 30
0.0
 70
   128
  0
VERTEX
  5
2183E
  8
0
 10
520.79237105246852
 20
207.78147401288291
 30
0.0
  0
VERTEX
  5
2183F
  8
0
 10
521.01892830726865
 20
207.8319405205828
 30
0.0
  0
VERTEX
  5
21840
  8
0
 10
521.30402849916845
 20
207.73212136698291
 30
0.0
  0
VERTEX
  5
21841
  8
0
 10
521.62600906486864
 20
207.48024331408291
 30
0.0
  0
VERTEX
  5
21842
  8
0
 10
521.92049698826838
 20
207.1329344994829
 30
0.0
  0
VERTEX
  5
21843
  8
0
 10
522.19340057966838
 20
206.69053019958289
 30
0.0
  0
VERTEX
  5
21844
  8
0
 10
522.39103840586858
 20
206.23015882448291
 30
0.0
  0
VERTEX
  5
21845
  8
0
 10
522.4953428089683
 20
205.8179293758829
 30
0.0
  0
VERTEX
  5
21846
  8
0
 10
522.50477524396865
 20
205.45577900488291
 30
0.0
  0
VERTEX
  5
21847
  8
0
 10
522.40824924706862
 20
205.2274745888829
 30
0.0
  0
VERTEX
  5
21848
  8
0
 10
522.35715689066865
 20
205.18241720278289
 30
0.0
  0
VERTEX
  5
21849
  8
0
 10
522.13895173666845
 20
205.13411881398289
 30
0.0
  0
VERTEX
  5
2184A
  8
0
 10
521.85062916876859
 20
205.24103464558291
 30
0.0
  0
VERTEX
  5
2184B
  8
0
 10
521.5404354214686
 20
205.47514306378281
 30
0.0
  0
VERTEX
  5
2184C
  8
0
 10
521.21089996696855
 20
205.84078775718291
 30
0.0
  0
VERTEX
  5
2184D
  8
0
 10
520.94715686436837
 20
206.25264095138289
 30
0.0
  0
VERTEX
  5
2184E
  8
0
 10
520.74982451196865
 20
206.68811248618289
 30
0.0
  0
VERTEX
  5
2184F
  8
0
 10
520.63504459256865
 20
207.1320255286829
 30
0.0
  0
VERTEX
  5
21850
  8
0
 10
520.63400151136852
 20
207.48469876128291
 30
0.0
  0
VERTEX
  5
21851
  8
0
 10
520.74223982096873
 20
207.73723619058291
 30
0.0
  0
VERTEX
  5
21852
  8
0
 10
520.79237105246852
 20
207.78147401288291
 30
0.0
  0
SEQEND
  5
21853
  8
0
  0
POLYLINE
  5
20D81
  8
0
 66
     1
 10
0.0
 20
0.0
 30
0.0
 70
   128
  0
VERTEX
  5
21854
  8
0
 10
523.94845561976854
 20
204.47643743828289
 30
0.0
  0
VERTEX
  5
21855
  8
0
 10
524.00858180526836
 20
204.4324641115829
 30
0.0
  0
VERTEX
  5
21856
  8
0
 10
524.09454287886865
 20
204.23277365038291
 30
0.0
  0
VERTEX
  5
21857
  8
0
 10
524.20100049966868
 20
203.88127015898289
 30
0.0
  0
VERTEX
  5
21858
  8
0
 10
524.30820317866835
 20
203.45358075578289
 30
0.0
  0
VERTEX
  5
21859
  8
0
 10
524.42168297166859
 20
202.94708656148291
 30
0.0
  0
VERTEX
  5
2185A
  8
0
 10
524.52860252856863
 20
202.4392475373829
 30
0.0
  0
VERTEX
  5
2185B
  8
0
 10
524.61533473726854
 20
202.01082425188289
 30
0.0
  0
VERTEX
  5
2185C
  8
0
 10
524.67612029906854
 20
201.68562130998291
 30
0.0
  0
VERTEX
  5
2185D
  8
0
 10
524.69403522016864
 20
201.53478058058289
 30
0.0
  0
VERTEX
  5
2185E
  8
0
 10
524.69129713176847
 20
201.51798324658279
 30
0.0
  0
VERTEX
  5
2185F
  8
0
 10
524.65242000216858
 20
201.5632641501829
 30
0.0
  0
VERTEX
  5
21860
  8
0
 10
524.5679378688684
 20
201.77011461928291
 30
0.0
  0
VERTEX
  5
21861
  8
0
 10
524.45541547536868
 20
202.0903405733828
 30
0.0
  0
VERTEX
  5
21862
  8
0
 10
524.31219668986841
 20
202.53855260088281
 30
0.0
  0
VERTEX
  5
21863
  8
0
 10
524.16998745796855
 20
203.03751425818291
 30
0.0
  0
VERTEX
  5
21864
  8
0
 10
524.04676975606844
 20
203.5383497364829
 30
0.0
  0
VERTEX
  5
21865
  8
0
 10
523.96261917356856
 20
203.97762106728291
 30
0.0
  0
VERTEX
  5
21866
  8
0
 10
523.92928527596848
 20
204.27513392638289
 30
0.0
  0
VERTEX
  5
21867
  8
0
 10
523.9369929015686
 20
204.45443214848291
 30
0.0
  0
VERTEX
  5
21868
  8
0
 10
523.94845561976854
 20
204.47643743828289
 30
0.0
  0
SEQEND
  5
21869
  8
0
  0
POLYLINE
  5
20D82
  8
0
 66
     1
 10
0.0
 20
0.0
 30
0.0
 70
   128
  0
VERTEX
  5
2186A
  8
0
 10
518.89619083996854
 20
212.07523243498289
 30
0.0
  0
VERTEX
  5
2186B
  8
0
 10
519.05038433076845
 20
212.08829330278289
 30
0.0
  0
VERTEX
  5
2186C
  8
0
 10
519.30727289916854
 20
211.98014440018289
 30
0.0
  0
VERTEX
  5
2186D
  8
0
 10
519.64745895856868
 20
211.75115453078291
 30
0.0
  0
VERTEX
  5
2186E
  8
0
 10
520.00143976806862
 20
211.4490260369829
 30
0.0
  0
VERTEX
  5
2186F
  8
0
 10
520.37386821506846
 20
211.07092397288289
 30
0.0
  0
VERTEX
  5
21870
  8
0
 10
520.69233955736854
 20
210.6886123306829
 30
0.0
  0
VERTEX
  5
21871
  8
0
 10
520.92311384076856
 20
210.35454319788289
 30
0.0
  0
VERTEX
  5
21872
  8
0
 10
521.06237264276842
 20
210.0768339819829
 30
0.0
  0
VERTEX
  5
21873
  8
0
 10
521.07504980566864
 20
209.92097901178289
 30
0.0
  0
VERTEX
  5
21874
  8
0
 10
521.0558533847684
 20
209.89605309438289
 30
0.0
  0
VERTEX
  5
21875
  8
0
 10
520.9186621188685
 20
209.8910053260829
 30
0.0
  0
VERTEX
  5
21876
  8
0
 10
520.67342625856838
 20
210.0121852941829
 30
0.0
  0
VERTEX
  5
21877
  8
0
 10
520.36352680916843
 20
210.22980930278291
 30
0.0
  0
VERTEX
  5
21878
  8
0
 10
519.98282449246847
 20
210.54813908408289
 30
0.0
  0
VERTEX
  5
21879
  8
0
 10
519.61332784886849
 20
210.90428801248291
 30
0.0
  0
VERTEX
  5
2187A
  8
0
 10
519.28120331766854
 20
211.27016367388291
 30
0.0
  0
VERTEX
  5
2187B
  8
0
 10
519.0231226563684
 20
211.6139632649828
 30
0.0
  0
VERTEX
  5
2187C
  8
0
 10
518.89086740016864
 20
211.86764063308291
 30
0.0
  0
VERTEX
  5
2187D
  8
0
 10
518.87266563176854
 20
212.04266222188289
 30
0.0
  0
VERTEX
  5
2187E
  8
0
 10
518.89619083996854
 20
212.07523243498289
 30
0.0
  0
SEQEND
  5
2187F
  8
0
  0
ARC
  5
20D83
  8
0
 10
511.51678926678642
 20
191.2727969592093
 30
0.0
 40
13.214558553874379
 50
270.04795613674872
 51
286.5229096378373
  0
ARC
  5
20D84
  8
0
 10
511.96961040985411
 20
189.58906548765711
 30
0.0
 40
11.47166038318502
 50
286.746309724355
 51
305.44763174032778
  0
ARC
  5
20D85
  8
0
 10
511.50818636276369
 20
190.2219801513163
 30
0.0
 40
12.254871777759529
 50
305.48892869298533
 51
322.0024897335266
  0
ARC
  5
20D86
  8
0
 10
502.52327981888283
 20
197.16566599406571
 30
0.0
 40
23.610112112858712
 50
322.14680437575151
 51
325.6718127574988
  0
LINE
  5
20D87
  8
0
 10
522.02100532056875
 20
183.85115908458289
 30
0.0
 11
522.22679035666852
 21
184.1074534691829
 31
0.0
  0
LINE
  5
20D88
  8
0
 10
522.22679035666852
 20
184.1074534691829
 30
0.0
 11
522.24407942886864
 21
184.07756173978291
 31
0.0
  0
LINE
  5
20D89
  8
0
 10
522.24407942886864
 20
184.07756173978291
 30
0.0
 11
522.2009591936685
 21
183.93435599278291
 31
0.0
  0
ARC
  5
20D8A
  8
0
 10
512.16151754075804
 20
187.9062467179526
 30
0.0
 40
10.796587638457011
 50
331.48855997216413
 51
338.41482926244919
  0
LINE
  5
20D8B
  8
0
 10
521.64871470926835
 20
182.75266597048289
 30
0.0
 11
520.79919578436852
 21
181.3290630466829
 31
0.0
  0
ARC
  5
20D8C
  8
0
 10
509.93164459648551
 20
188.52781682847561
 30
0.0
 40
13.035556176555451
 50
310.66220958648557
 51
326.47918682835132
  0
ARC
  5
20D8D
  8
0
 10
511.72432594413061
 20
186.48129526725629
 30
0.0
 40
10.315063723047929
 50
289.93396118612083
 51
310.51582300168798
  0
ARC
  5
20D8E
  8
0
 10
511.62864398424722
 20
186.9798138672036
 30
0.0
 40
10.816631635871159
 50
269.4660844612107
 51
289.51012223376267
  0
ARC
  5
20D8F
  8
0
 10
511.87517774716838
 20
185.85827133198279
 30
0.0
 40
8.2059738791190338
 50
267.5741605678906
 51
303.28689912170631
  0
ARC
  5
20D90
  8
0
 10
515.16139049547849
 20
200.2641166357044
 30
0.0
 40
16.644666066511579
 50
151.98123952308791
 51
165.4969567233581
  0
ARC
  5
20D91
  8
0
 10
514.01313492520921
 20
201.07142115573879
 30
0.0
 40
15.252737540528759
 50
137.97346043949281
 51
152.63216014599249
  0
ARC
  5
20D92
  8
0
 10
511.6180882320561
 20
203.21199686106971
 30
0.0
 40
12.040559471445359
 50
118.6919479577857
 51
137.9100326560268
  0
ARC
  5
20D93
  8
0
 10
511.292178908832
 20
203.61702171830709
 30
0.0
 40
11.52915961859919
 50
88.828719036138835
 51
118.2375213442923
  0
ARC
  5
20D94
  8
0
 10
530.01212966342268
 20
197.041242938294
 30
0.0
 40
31.96785634544176
 50
171.91950192882609
 51
204.20496418802861
  0
POLYLINE
  5
20D95
  8
0
 66
     1
 10
0.0
 20
0.0
 30
0.0
 70
   128
  0
VERTEX
  5
21880
  8
0
 10
502.2633284509717
 20
207.78147401288291
 30
0.0
  0
VERTEX
  5
21881
  8
0
 10
502.03677119617169
 20
207.8319405205828
 30
0.0
  0
VERTEX
  5
21882
  8
0
 10
501.75167100427188
 20
207.73212136698291
 30
0.0
  0
VERTEX
  5
21883
  8
0
 10
501.4296904385717
 20
207.48024331408291
 30
0.0
  0
VERTEX
  5
21884
  8
0
 10
501.13520251517178
 20
207.1329344994829
 30
0.0
  0
VERTEX
  5
21885
  8
0
 10
500.86229892377202
 20
206.69053019958289
 30
0.0
  0
VERTEX
  5
21886
  8
0
 10
500.6646610975717
 20
206.23015882448291
 30
0.0
  0
VERTEX
  5
21887
  8
0
 10
500.56035669447192
 20
205.8179293758829
 30
0.0
  0
VERTEX
  5
21888
  8
0
 10
500.55092425947163
 20
205.45577900488291
 30
0.0
  0
VERTEX
  5
21889
  8
0
 10
500.64745025637171
 20
205.2274745888829
 30
0.0
  0
VERTEX
  5
2188A
  8
0
 10
500.69854261277169
 20
205.18241720278289
 30
0.0
  0
VERTEX
  5
2188B
  8
0
 10
500.91674776677172
 20
205.13411881398289
 30
0.0
  0
VERTEX
  5
2188C
  8
0
 10
501.20507033467169
 20
205.24103464558291
 30
0.0
  0
VERTEX
  5
2188D
  8
0
 10
501.51526408197168
 20
205.47514306378281
 30
0.0
  0
VERTEX
  5
2188E
  8
0
 10
501.84479953647173
 20
205.84078775718291
 30
0.0
  0
VERTEX
  5
2188F
  8
0
 10
502.1085426390718
 20
206.25264095138289
 30
0.0
  0
VERTEX
  5
21890
  8
0
 10
502.30587499147163
 20
206.68811248618289
 30
0.0
  0
VERTEX
  5
21891
  8
0
 10
502.42065491087169
 20
207.1320255286829
 30
0.0
  0
VERTEX
  5
21892
  8
0
 10
502.4216979920717
 20
207.48469876128291
 30
0.0
  0
VERTEX
  5
21893
  8
0
 10
502.3134596824716
 20
207.73723619058291
 30
0.0
  0
VERTEX
  5
21894
  8
0
 10
502.2633284509717
 20
207.78147401288291
 30
0.0
  0
SEQEND
  5
21895
  8
0
  0
POLYLINE
  5
20D96
  8
0
 66
     1
 10
0.0
 20
0.0
 30
0.0
 70
   128
  0
VERTEX
  5
21896
  8
0
 10
499.1072438836718
 20
204.47643743828289
 30
0.0
  0
VERTEX
  5
21897
  8
0
 10
499.0471176981718
 20
204.4324641115829
 30
0.0
  0
VERTEX
  5
21898
  8
0
 10
498.96115662457169
 20
204.23277365038291
 30
0.0
  0
VERTEX
  5
21899
  8
0
 10
498.85469900377171
 20
203.88127015898289
 30
0.0
  0
VERTEX
  5
2189A
  8
0
 10
498.74749632477182
 20
203.45358075578289
 30
0.0
  0
VERTEX
  5
2189B
  8
0
 10
498.63401653177169
 20
202.94708656148291
 30
0.0
  0
VERTEX
  5
2189C
  8
0
 10
498.52709697487171
 20
202.4392475373829
 30
0.0
  0
VERTEX
  5
2189D
  8
0
 10
498.4403647661718
 20
202.01082425188289
 30
0.0
  0
VERTEX
  5
2189E
  8
0
 10
498.37957920437179
 20
201.68562130998291
 30
0.0
  0
VERTEX
  5
2189F
  8
0
 10
498.36166428327169
 20
201.53478058058289
 30
0.0
  0
VERTEX
  5
218A0
  8
0
 10
498.3644023716717
 20
201.51798324658279
 30
0.0
  0
VERTEX
  5
218A1
  8
0
 10
498.4032795012717
 20
201.5632641501829
 30
0.0
  0
VERTEX
  5
218A2
  8
0
 10
498.48776163457183
 20
201.77011461928291
 30
0.0
  0
VERTEX
  5
218A3
  8
0
 10
498.60028402807171
 20
202.0903405733828
 30
0.0
  0
VERTEX
  5
218A4
  8
0
 10
498.74350281357192
 20
202.53855260088281
 30
0.0
  0
VERTEX
  5
218A5
  8
0
 10
498.88571204547168
 20
203.03751425818291
 30
0.0
  0
VERTEX
  5
218A6
  8
0
 10
499.00892974737178
 20
203.5383497364829
 30
0.0
  0
VERTEX
  5
218A7
  8
0
 10
499.09308032987173
 20
203.97762106728291
 30
0.0
  0
VERTEX
  5
218A8
  8
0
 10
499.12641422747168
 20
204.27513392638289
 30
0.0
  0
VERTEX
  5
218A9
  8
0
 10
499.11870660187168
 20
204.45443214848291
 30
0.0
  0
VERTEX
  5
218AA
  8
0
 10
499.1072438836718
 20
204.47643743828289
 30
0.0
  0
SEQEND
  5
218AB
  8
0
  0
POLYLINE
  5
20D97
  8
0
 66
     1
 10
0.0
 20
0.0
 30
0.0
 70
   128
  0
VERTEX
  5
218AC
  8
0
 10
504.1595086634718
 20
212.07523243498289
 30
0.0
  0
VERTEX
  5
218AD
  8
0
 10
504.00531517267171
 20
212.08829330278289
 30
0.0
  0
VERTEX
  5
218AE
  8
0
 10
503.74842660427169
 20
211.98014440018289
 30
0.0
  0
VERTEX
  5
218AF
  8
0
 10
503.4082405448716
 20
211.75115453078291
 30
0.0
  0
VERTEX
  5
218B0
  8
0
 10
503.05425973537172
 20
211.4490260369829
 30
0.0
  0
VERTEX
  5
218B1
  8
0
 10
502.68183128837171
 20
211.07092397288289
 30
0.0
  0
VERTEX
  5
218B2
  8
0
 10
502.36335994607168
 20
210.6886123306829
 30
0.0
  0
VERTEX
  5
218B3
  8
0
 10
502.13258566267177
 20
210.35454319788289
 30
0.0
  0
VERTEX
  5
218B4
  8
0
 10
501.99332686067191
 20
210.0768339819829
 30
0.0
  0
VERTEX
  5
218B5
  8
0
 10
501.98064969777158
 20
209.92097901178289
 30
0.0
  0
VERTEX
  5
218B6
  8
0
 10
501.99984611867188
 20
209.89605309438289
 30
0.0
  0
VERTEX
  5
218B7
  8
0
 10
502.13703738457178
 20
209.8910053260829
 30
0.0
  0
VERTEX
  5
218B8
  8
0
 10
502.38227324487178
 20
210.0121852941829
 30
0.0
  0
VERTEX
  5
218B9
  8
0
 10
502.6921726942719
 20
210.22980930278291
 30
0.0
  0
VERTEX
  5
218BA
  8
0
 10
503.0728750109717
 20
210.54813908408289
 30
0.0
  0
VERTEX
  5
218BB
  8
0
 10
503.44237165457179
 20
210.90428801248291
 30
0.0
  0
VERTEX
  5
218BC
  8
0
 10
503.77449618577168
 20
211.27016367388291
 30
0.0
  0
VERTEX
  5
218BD
  8
0
 10
504.03257684707182
 20
211.6139632649828
 30
0.0
  0
VERTEX
  5
218BE
  8
0
 10
504.16483210327169
 20
211.86764063308291
 30
0.0
  0
VERTEX
  5
218BF
  8
0
 10
504.18303387167168
 20
212.04266222188289
 30
0.0
  0
VERTEX
  5
218C0
  8
0
 10
504.1595086634718
 20
212.07523243498289
 30
0.0
  0
SEQEND
  5
218C1
  8
0
  0
ARC
  5
20D98
  8
0
 10
511.53891023665392
 20
191.2727969592093
 30
0.0
 40
13.214558553874379
 50
253.47709036216281
 51
269.95204386326441
  0
ARC
  5
20D99
  8
0
 10
511.08608909358622
 20
189.58906548765711
 30
0.0
 40
11.47166038318502
 50
234.55236825967251
 51
253.2536902756315
  0
ARC
  5
20D9A
  8
0
 10
511.54751314067647
 20
190.2219801513163
 30
0.0
 40
12.254871777759529
 50
217.9975102664732
 51
234.51107130702329
  0
ARC
  5
20D9B
  8
0
 10
520.53241968455745
 20
197.16566599406571
 30
0.0
 40
23.610112112858712
 50
214.32818724249259
 51
217.8531956242459
  0
LINE
  5
20D9C
  8
0
 10
501.03469418287148
 20
183.85115908458289
 30
0.0
 11
500.82890914677182
 21
184.1074534691829
 31
0.0
  0
LINE
  5
20D9D
  8
0
 10
500.82890914677182
 20
184.1074534691829
 30
0.0
 11
500.81162007457169
 21
184.07756173978291
 31
0.0
  0
LINE
  5
20D9E
  8
0
 10
500.81162007457169
 20
184.07756173978291
 30
0.0
 11
500.85474030977178
 21
183.93435599278291
 31
0.0
  0
ARC
  5
20D9F
  8
0
 10
510.8941819626823
 20
187.9062467179526
 30
0.0
 40
10.796587638457011
 50
201.585170737548
 51
208.51144002783599
  0
LINE
  5
20DA0
  8
0
 10
501.40698479417182
 20
182.75266597048289
 30
0.0
 11
502.25650371907182
 21
181.3290630466829
 31
0.0
  0
ARC
  5
20DA1
  8
0
 10
513.12405490695483
 20
188.52781682847561
 30
0.0
 40
13.035556176555451
 50
213.5208131716486
 51
229.3377904135215
  0
ARC
  5
20DA2
  8
0
 10
511.33137355930961
 20
186.48129526725629
 30
0.0
 40
10.315063723047929
 50
229.4841769983145
 51
250.0660388138929
  0
ARC
  5
20DA3
  8
0
 10
511.427055519193
 20
186.9798138672036
 30
0.0
 40
10.816631635871159
 50
250.48987776622371
 51
270.5339155387893
  0
ARC
  5
20DA4
  8
0
 10
511.1805217562719
 20
185.85827133198279
 30
0.0
 40
8.2059738791190338
 50
236.71310087830091
 51
272.42583943210292
  0
LINE
  5
20E04
  8
1
 10
272.30436254906567
 20
156.0030125565828
 30
0.0
 11
272.30436254906567
 21
164.00301228091121
 31
0.0
  0
LINE
  5
20E05
  8
1
 10
293.00436254906572
 20
156.0030125565828
 30
0.0
 11
293.00436254906572
 21
164.00301228091121
 31
0.0
  0
LINE
  5
20E06
  8
1
 10
313.70436254906582
 20
156.0030125565828
 30
0.0
 11
313.70436254906582
 21
164.00301228091121
 31
0.0
  0
ENDSEC
  0
EOF
