  0
SECTION
  2
HEADER
  9
$ACADVER
  1
AC1009
  9
$INSBASE
 10
0.0
 20
0.0
 30
0.0
  9
$EXTMIN
 10
0.0
 20
-2.960436562073669
 30
0.0
  9
$EXTMAX
 10
411.00169904529997
 20
301.99800226830001
 30
0.0
  9
$LIMMIN
 10
0.0
 20
0.0
  9
$LIMMAX
 10
420.0
 20
297.0
  9
$ORTHOMODE
 70
     0
  9
$REGENMODE
 70
     1
  9
$FILLMODE
 70
     1
  9
$QTEXTMODE
 70
     0
  9
$MIRRTEXT
 70
     0
  9
$DRAGMODE
 70
     2
  9
$LTSCALE
 40
10.0
  9
$OSMODE
 70
    37
  9
$ATTMODE
 70
     1
  9
$TEXTSIZE
 40
2.5
  9
$TRACEWID
 40
1.0
  9
$TEXTSTYLE
  7
STANDARD
  9
$CLAYER
  8
0
  9
$CELTYPE
  6
BYLAYER
  9
$CECOLOR
 62
   256
  9
$DIMSCALE
 40
1.0
  9
$DIMASZ
 40
2.5
  9
$DIMEXO
 40
0.625
  9
$DIMDLI
 40
3.75
  9
$DIMRND
 40
0.0
  9
$DIMDLE
 40
0.0
  9
$DIMEXE
 40
1.25
  9
$DIMTP
 40
0.0
  9
$DIMTM
 40
0.0
  9
$DIMTXT
 40
2.5
  9
$DIMCEN
 40
2.5
  9
$DIMTSZ
 40
0.0
  9
$DIMTOL
 70
     0
  9
$DIMLIM
 70
     0
  9
$DIMTIH
 70
     0
  9
$DIMTOH
 70
     0
  9
$DIMSE1
 70
     0
  9
$DIMSE2
 70
     0
  9
$DIMTAD
 70
     1
  9
$DIMZIN
 70
     8
  9
$DIMBLK
  1

  9
$DIMASO
 70
     1
  9
$DIMSHO
 70
     1
  9
$DIMPOST
  1

  9
$DIMAPOST
  1

  9
$DIMALT
 70
     0
  9
$DIMALTD
 70
     3
  9
$DIMALTF
 40
0.03937007874016
  9
$DIMLFAC
 40
1.0
  9
$DIMTOFL
 70
     1
  9
$DIMTVP
 40
0.0
  9
$DIMTIX
 70
     0
  9
$DIMSOXD
 70
     0
  9
$DIMSAH
 70
     0
  9
$DIMBLK1
  1

  9
$DIMBLK2
  1

  9
$DIMSTYLE
  2
ISO-25
  9
$DIMCLRD
 70
     0
  9
$DIMCLRE
 70
     0
  9
$DIMCLRT
 70
     0
  9
$DIMTFAC
 40
1.0
  9
$DIMGAP
 40
0.625
  9
$LUNITS
 70
     2
  9
$LUPREC
 70
     1
  9
$SKETCHINC
 40
1.0
  9
$FILLETRAD
 40
0.0
  9
$AUNITS
 70
     0
  9
$AUPREC
 70
     1
  9
$MENU
  1
.
  9
$ELEVATION
 40
0.0
  9
$PELEVATION
 40
0.0
  9
$THICKNESS
 40
0.0
  9
$LIMCHECK
 70
     0
  9
$BLIPMODE
 70
     0
  9
$CHAMFERA
 40
0.0
  9
$CHAMFERB
 40
0.0
  9
$SKPOLY
 70
     0
  9
$TDCREATE
 40
2454083.4444627082
  9
$TDUPDATE
 40
2459268.6309771989
  9
$TDINDWG
 40
2.1567315855999998
  9
$TDUSRTIMER
 40
2.1567315855999998
  9
$USRTIMER
 70
     1
  9
$ANGBASE
 50
0.0
  9
$ANGDIR
 70
     0
  9
$PDMODE
 70
     0
  9
$PDSIZE
 40
0.0
  9
$PLINEWID
 40
0.0
  9
$COORDS
 70
     1
  9
$SPLFRAME
 70
     0
  9
$SPLINETYPE
 70
     6
  9
$SPLINESEGS
 70
     8
  9
$ATTDIA
 70
     0
  9
$ATTREQ
 70
     1
  9
$HANDLING
 70
     1
  9
$HANDSEED
  5
17BD3
  9
$SURFTAB1
 70
     6
  9
$SURFTAB2
 70
     6
  9
$SURFTYPE
 70
     6
  9
$SURFU
 70
     6
  9
$SURFV
 70
     6
  9
$UCSNAME
  2

  9
$UCSORG
 10
0.0
 20
0.0
 30
0.0
  9
$UCSXDIR
 10
1.0
 20
0.0
 30
0.0
  9
$UCSYDIR
 10
0.0
 20
1.0
 30
0.0
  9
$PUCSNAME
  2

  9
$PUCSORG
 10
0.0
 20
0.0
 30
0.0
  9
$PUCSXDIR
 10
1.0
 20
0.0
 30
0.0
  9
$PUCSYDIR
 10
0.0
 20
1.0
 30
0.0
  9
$USERI1
 70
     0
  9
$USERI2
 70
     0
  9
$USERI3
 70
     0
  9
$USERI4
 70
     0
  9
$USERI5
 70
     0
  9
$USERR1
 40
0.0
  9
$USERR2
 40
0.0
  9
$USERR3
 40
0.0
  9
$USERR4
 40
0.0
  9
$USERR5
 40
0.0
  9
$WORLDVIEW
 70
     1
  9
$SHADEDGE
 70
     3
  9
$SHADEDIF
 70
    70
  9
$TILEMODE
 70
     1
  9
$MAXACTVP
 70
    64
  9
$PLIMCHECK
 70
     0
  9
$PEXTMIN
 10
0.0
 20
0.0
 30
0.0
  9
$PEXTMAX
 10
0.0
 20
0.0
 30
0.0
  9
$PLIMMIN
 10
0.0
 20
0.0
  9
$PLIMMAX
 10
12.0
 20
9.0
  9
$UNITMODE
 70
     0
  9
$VISRETAIN
 70
     1
  9
$PLINEGEN
 70
     0
  9
$PSLTSCALE
 70
     1
  0
ENDSEC
  0
SECTION
  2
TABLES
  0
TABLE
  2
VPORT
 70
     1
  0
VPORT
  2
*ACTIVE
 70
     0
 10
0.0
 20
0.0
 11
1.0
 21
1.0
 12
369.29593146833457
 22
149.5187835631497
 13
0.0
 23
0.0
 14
10.0
 24
10.0
 15
10.0
 25
10.0
 16
0.0
 26
0.0
 36
1.0
 17
0.0
 27
0.0
 37
0.0
 40
307.62518850275291
 41
2.415644171779141
 42
50.0
 43
0.0
 44
0.0
 50
0.0
 51
0.0
 71
     0
 72
  1000
 73
     1
 74
     3
 75
     0
 76
     0
 77
     0
 78
     0
  0
ENDTAB
  0
TABLE
  2
LTYPE
 70
     2
  0
LTYPE
  2
CONTINUOUS
 70
     0
  3
Solid line
 72
    65
 73
     0
 40
0.0
  0
LTYPE
  2
CENTER
 70
     0
  3
____ _ ____ _ ____ _ ____ _ ____ _ ____ _ ____
 72
    65
 73
     4
 40
2.0
 49
1.25
 49
-0.25
 49
0.25
 49
-0.25
  0
ENDTAB
  0
TABLE
  2
LAYER
 70
     4
  0
LAYER
  2
0
 70
     0
 62
     7
  6
CONTINUOUS
  0
LAYER
  2
DEFPOINTS
 70
     0
 62
     7
  6
CONTINUOUS
  0
LAYER
  2
1
 70
     0
 62
     1
  6
CENTER
  0
LAYER
  2
3
 70
     0
 62
     3
  6
CONTINUOUS
  0
ENDTAB
  0
TABLE
  2
STYLE
 70
     2
  0
STYLE
  2
STANDARD
 70
     0
 40
0.0
 41
1.0
 50
0.0
 71
     0
 42
2.5
  3
txt
  4

  0
STYLE
  2
STANDARD1
 70
     0
 40
0.0
 41
1.0
 50
0.0
 71
     0
 42
3.0
  3
txt
  4

  0
ENDTAB
  0
TABLE
  2
VIEW
 70
     3
  0
VIEW
  2
OLE1
 70
     0
 40
17.336203194614189
 10
1078.262703908531
 20
377.67444865954309
 41
31.074911629702001
 11
0.0
 21
0.0
 31
1.0
 12
0.0
 22
0.0
 32
0.0
 42
50.0
 43
0.0
 44
0.0
 50
0.0
 71
     0
  0
VIEW
  2
OLE2
 70
     0
 40
50.523198253338478
 10
1031.767738941523
 20
579.92835671582054
 41
90.562155008667546
 11
0.0
 21
0.0
 31
1.0
 12
0.0
 22
0.0
 32
0.0
 42
50.0
 43
0.0
 44
0.0
 50
0.0
 71
     0
  0
VIEW
  2
OLE3
 70
     0
 40
19.902492574755801
 10
485.89971154156422
 20
299.78832697703888
 41
25.268360670890939
 11
0.0
 21
0.0
 31
1.0
 12
0.0
 22
0.0
 32
0.0
 42
50.0
 43
0.0
 44
0.0
 50
0.0
 71
     0
  0
ENDTAB
  0
TABLE
  2
UCS
 70
     0
  0
ENDTAB
  0
TABLE
  2
APPID
 70
    44
  0
APPID
  2
ACAD
 70
     0
  0
APPID
  2
_FTCNV
 70
     0
  0
APPID
  2
DCO15
 70
     0
  0
APPID
  2
GENIUS_GENOREF_13
 70
     0
  0
APPID
  2
GENIUS_GENOENT_13
 70
     0
  0
APPID
  2
GENIUS_GENBH_13
 70
     0
  0
APPID
  2
GENIUS_GENOBJ_13
 70
     0
  0
APPID
  2
GENIUS_GENODEF_13
 70
     0
  0
APPID
  2
GENIUS_GENOLIS_13
 70
     0
  0
APPID
  2
GENIUS_GENOBJ-NBEHI-BHF_13
 70
     0
  0
APPID
  2
GENIUS_GENOBJ-NBEHI-BHB_13
 70
     0
  0
APPID
  2
GENIUS_GENOBJ-F-PART_13
 70
     0
  0
APPID
  2
GENIUS_GEFSTDP_13
 70
     0
  0
APPID
  2
GENIUS_GENOBJ-N-RSSYM_13
 70
     0
  0
APPID
  2
GENIUS_GENSYMENT_13
 70
     0
  0
APPID
  2
GENIUS_GENOBJ-N-TIT_13
 70
     0
  0
APPID
  2
GENIUS_GENTITLE_13
 70
     0
  0
APPID
  2
GENIUS_GENZVEED_13
 70
     0
  0
APPID
  2
GENIUS_GENOBJ-N-LEADER_13
 70
     0
  0
APPID
  2
GENIUS_GENOBJ-N-FIL_13
 70
     0
  0
APPID
  2
GENIUS_GENOBJ-N-SEC_13
 70
     0
  0
APPID
  2
GENIUS_GENOBJ-N-CRS_13
 70
     0
  0
APPID
  2
GENIUS_GENOBJ-N-ZOO_13
 70
     0
  0
APPID
  2
GENIUS_GENZOO_13
 70
     0
  0
APPID
  2
GENIUS_GENOBJ-F-TOL_13
 70
     0
  0
APPID
  2
GENIUS_GENFIL_13
 70
     0
  0
APPID
  2
GENIUS_GENOBJ-N-CHA_13
 70
     0
  0
APPID
  2
_CALL_MAC$
 70
     0
  0
APPID
  2
ASM_BASE
 70
     0
  0
APPID
  2
ASM_EXPLO_VER_2_00
 70
     0
  0
APPID
  2
ASM_CADM_VER_12_00
 70
     0
  0
APPID
  2
ASM_BASEFORO
 70
     0
  0
APPID
  2
ASM_BASETRAVI
 70
     0
  0
APPID
  2
ASM_BASETRAVI1
 70
     0
  0
APPID
  2
ASM_GRUPPI
 70
     0
  0
APPID
  2
ASM_CADM_ALBERO
 70
     0
  0
APPID
  2
ASM_GOLE
 70
     0
  0
APPID
  2
ACAD_MLEADERVER
 70
     0
  0
APPID
  2
ACAD_EXEMPT_FROM_CAD_STANDARDS
 70
     0
  0
APPID
  2
ACAD_DSTYLE_DIMJAG
 70
     0
  0
APPID
  2
ACAD_DSTYLE_DIMTALN
 70
     0
  0
APPID
  2
ACAD_NAV_VCDISPLAY
 70
     0
  0
APPID
  2
ACADANNOPO
 70
     0
  0
APPID
  2
ACADANNOMONITORALERTICONDI
 70
     0
  0
ENDTAB
  0
TABLE
  2
DIMSTYLE
 70
     2
  0
DIMSTYLE
  2
ISO-25
 70
     0
  3

  4

  5

  6

  7

 40
1.0
 41
2.5
 42
0.625
 43
3.75
 44
1.25
 45
0.0
 46
0.0
 47
0.0
 48
0.0
140
2.5
141
2.5
142
0.0
143
0.03937007874016
144
1.0
145
0.0
146
1.0
147
0.625
 71
     0
 72
     0
 73
     0
 74
     0
 75
     0
 76
     0
 77
     1
 78
     8
170
     0
171
     3
172
     1
173
     0
174
     0
175
     0
176
     0
177
     0
178
     0
  0
DIMSTYLE
  2
STANDARD
 70
     0
  3

  4

  5

  6

  7

 40
1.0
 41
0.18
 42
0.0625
 43
0.38
 44
0.18
 45
0.0
 46
0.0
 47
0.0
 48
0.0
140
0.18
141
0.09
142
0.0
143
25.399999999999999
144
1.0
145
0.0
146
1.0
147
0.09
 71
     0
 72
     0
 73
     1
 74
     1
 75
     0
 76
     0
 77
     0
 78
     0
170
     0
171
     2
172
     0
173
     0
174
     0
175
     0
176
     0
177
     0
178
     0
  0
ENDTAB
  0
ENDSEC
  0
SECTION
  2
BLOCKS
  0
BLOCK
  8
0
  2
$MODEL_SPACE
 70
     0
 10
0.0
 20
0.0
 30
0.0
  3
$MODEL_SPACE
  1

  0
ENDBLK
  5
21
  8
0
  0
BLOCK
 67
     1
  8
0
  2
$PAPER_SPACE
 70
     0
 10
0.0
 20
0.0
 30
0.0
  3
$PAPER_SPACE
  1

  0
ENDBLK
  5
53
 67
     1
  8
0
  0
ENDSEC
  0
SECTION
  2
ENTITIES
  0
TEXT
  5
C317
  8
0
 62
     3
 10
0.0
 20
0.0
 30
0.0
 40
10.0
  1
ST-H2452UB
  7
STANDARD1
  0
ARC
  5
16426
  8
0
 10
296.40534716801398
 20
158.69093432124009
 30
0.0
 40
0.2099676073308236
 50
202.9801083909264
 51
290.7079958834052
  0
POLYLINE
  5
16427
  8
0
 66
     1
 10
0.0
 20
0.0
 30
0.0
 70
   128
  0
VERTEX
  5
17259
  8
0
 10
262.79570423059999
 20
170.5981768666999
 30
0.0
  0
VERTEX
  5
1725A
  8
0
 10
262.83497624099999
 20
170.63689427450001
 30
0.0
  0
VERTEX
  5
1725B
  8
0
 10
262.87434138359993
 20
170.67358279600001
 30
0.0
  0
SEQEND
  5
1725C
  8
0
  0
ARC
  5
16428
  8
0
 10
258.3758439753999
 20
180.3405481849999
 30
0.0
 40
0.1642795797629414
 50
90.488267316901684
 51
147.76339196990131
  0
POLYLINE
  5
1642A
  8
0
 66
     1
 10
0.0
 20
0.0
 30
0.0
 70
   128
  0
VERTEX
  5
1725D
  8
0
 10
251.78601481019999
 20
172.12849538770001
 30
0.0
  0
VERTEX
  5
1725E
  8
0
 10
251.74456723029991
 20
172.2583031282
 30
0.0
  0
VERTEX
  5
1725F
  8
0
 10
251.70310102400001
 20
172.39401824769999
 30
0.0
  0
SEQEND
  5
17260
  8
0
  0
LINE
  5
1642F
  8
0
 10
180.94753734769989
 20
172.00000081210001
 30
0.0
 11
180.94753734769989
 21
174.0000002086
 31
0.0
  0
LINE
  5
16430
  8
0
 10
160.9475415199999
 20
174.0000002086
 30
0.0
 11
160.9475415199999
 21
172.00000081210001
 31
0.0
  0
LINE
  5
16431
  8
0
 10
180.94753734769989
 20
186.9999995455
 30
0.0
 11
180.94753734769989
 21
188.9999998733
 31
0.0
  0
LINE
  5
16432
  8
0
 10
160.9475415199999
 20
188.9999998733
 30
0.0
 11
160.9475415199999
 21
186.9999995455
 31
0.0
  0
LINE
  5
16437
  8
0
 10
175.94753839069989
 20
188.9999998733
 30
0.0
 11
176.72104276709999
 21
189.7735023871
 31
0.0
  0
LINE
  5
16438
  8
0
 10
165.94754047689989
 20
193.8500000164
 30
0.0
 11
165.1740361004999
 21
193.07649750260001
 31
0.0
  0
LINE
  5
16439
  8
0
 10
165.1740361004999
 20
189.7735023871
 30
0.0
 11
165.94754047689989
 21
188.9999998733
 31
0.0
  0
LINE
  5
1643A
  8
0
 10
176.72104276709999
 20
193.07649750260001
 30
0.0
 11
175.94753839069989
 21
193.8500000164
 31
0.0
  0
LINE
  5
1643B
  8
0
 10
167.9475408047
 20
195.50000000739999
 30
0.0
 11
167.9475408047
 21
193.8500000164
 31
0.0
  0
LINE
  5
1643C
  8
0
 10
167.9475408047
 20
167.1500004362
 30
0.0
 11
167.9475408047
 21
163.0000004428
 31
0.0
  0
LINE
  5
1643D
  8
0
 10
173.94753806289989
 20
163.0000004428
 30
0.0
 11
173.94753806289989
 21
167.1500004362
 31
0.0
  0
LINE
  5
1643E
  8
0
 10
173.94753806289989
 20
193.8500000164
 30
0.0
 11
173.94753806289989
 21
195.50000000739999
 31
0.0
  0
LINE
  5
1643F
  8
0
 10
173.94753806289989
 20
195.50000000739999
 30
0.0
 11
173.44754077489989
 21
196.00000102070001
 31
0.0
  0
LINE
  5
16440
  8
0
 10
168.44753809269989
 20
196.00000102070001
 30
0.0
 11
167.9475408047
 21
195.50000000739999
 31
0.0
  0
ARC
  5
16441
  8
0
 10
177.9232553025999
 20
157.96441846600001
 30
0.0
 40
0.4999999999999958
 50
345.96375653379948
 51
21.801409486398999
  0
ARC
  5
16442
  8
0
 10
163.97182269169991
 20
157.96441846600001
 30
0.0
 40
0.4999999999999958
 50
158.198590513601
 51
194.03624346619969
  0
LINE
  5
16443
  8
0
 10
163.48675154150001
 20
157.84315075719999
 30
0.0
 11
165.35285748539991
 21
150.37873256949999
 31
0.0
  0
LINE
  5
16444
  8
0
 10
176.5422213821999
 20
150.37873256949999
 30
0.0
 11
178.4083273261999
 21
157.84315075719999
 31
0.0
  0
LINE
  5
16445
  8
0
 10
178.38749550279999
 20
158.15011374650001
 30
0.0
 11
176.57326050099991
 21
162.68569577950001
 31
0.0
  0
LINE
  5
16446
  8
0
 10
165.3218183665999
 20
162.68569577950001
 30
0.0
 11
163.50758336480001
 21
158.15011374650001
 31
0.0
  0
ARC
  5
16447
  8
0
 10
176.1090225163999
 20
162.5000004314
 30
0.0
 40
0.5000000000082344
 50
21.801409481901871
 51
90.0
  0
ARC
  5
16448
  8
0
 10
165.78605547779989
 20
162.5000004314
 30
0.0
 40
0.5000000000082079
 50
90.0
 51
158.198590518098
  0
ARC
  5
16449
  8
0
 10
176.05715079389989
 20
150.5000004314
 30
0.0
 40
0.5
 50
270.0
 51
345.96375652670088
  0
ARC
  5
1644A
  8
0
 10
165.83792720029999
 20
150.5000004314
 30
0.0
 40
0.5
 50
194.03624347329901
 51
270.0
  0
CIRCLE
  5
1644B
  8
0
 10
292.79167765279999
 20
172.14443723700001
 30
0.0
 40
0.9958362696239662
  0
POLYLINE
  5
1644C
  8
0
 66
     1
 10
0.0
 20
0.0
 30
0.0
 70
   128
  0
VERTEX
  5
17261
  8
0
 10
286.7522116749999
 20
178.7254210561
 30
0.0
  0
VERTEX
  5
17262
  8
0
 10
286.36779524379989
 20
178.6500789225
 30
0.0
  0
VERTEX
  5
17263
  8
0
 10
286.07927523549989
 20
178.48117426030001
 30
0.0
  0
VERTEX
  5
17264
  8
0
 10
285.87752841410003
 20
178.25124096120001
 30
0.0
  0
VERTEX
  5
17265
  8
0
 10
285.76359786090001
 20
177.95443404459999
 30
0.0
  0
VERTEX
  5
17266
  8
0
 10
285.76962910589998
 20
177.65895519399999
 30
0.0
  0
VERTEX
  5
17267
  8
0
 10
285.8812723309
 20
177.37547643479999
 30
0.0
  0
VERTEX
  5
17268
  8
0
 10
286.09989844260002
 20
177.1327374503
 30
0.0
  0
VERTEX
  5
17269
  8
0
 10
286.37569285929999
 20
176.98343712830001
 30
0.0
  0
VERTEX
  5
1726A
  8
0
 10
286.70690469440001
 20
176.92096401000001
 30
0.0
  0
VERTEX
  5
1726B
  8
0
 10
286.76410280169989
 20
176.9211390987
 30
0.0
  0
VERTEX
  5
1726C
  8
0
 10
287.14756183319992
 20
177.0054405555
 30
0.0
  0
VERTEX
  5
1726D
  8
0
 10
287.43353001769992
 20
177.18073967839999
 30
0.0
  0
VERTEX
  5
1726E
  8
0
 10
287.6461546868
 20
177.4393297732
 30
0.0
  0
VERTEX
  5
1726F
  8
0
 10
287.7501722424999
 20
177.7268877253
 30
0.0
  0
VERTEX
  5
17270
  8
0
 10
287.74702809749988
 20
178.04077882319999
 30
0.0
  0
VERTEX
  5
17271
  8
0
 10
287.62940578159993
 20
178.31153757870001
 30
0.0
  0
VERTEX
  5
17272
  8
0
 10
287.42887340480002
 20
178.5199815407
 30
0.0
  0
VERTEX
  5
17273
  8
0
 10
287.13543601330002
 20
178.6723440513
 30
0.0
  0
VERTEX
  5
17274
  8
0
 10
286.80632896719999
 20
178.72576843940001
 30
0.0
  0
VERTEX
  5
17275
  8
0
 10
286.7522116749999
 20
178.7254210561
 30
0.0
  0
SEQEND
  5
17276
  8
0
  0
POLYLINE
  5
1644D
  8
0
 66
     1
 10
0.0
 20
0.0
 30
0.0
 70
   128
  0
VERTEX
  5
17277
  8
0
 10
283.76505039630001
 20
175.88234096759999
 30
0.0
  0
VERTEX
  5
17278
  8
0
 10
283.4285076706999
 20
175.81820171320001
 30
0.0
  0
VERTEX
  5
17279
  8
0
 10
283.13254080709999
 20
175.64787492150001
 30
0.0
  0
VERTEX
  5
1727A
  8
0
 10
282.91936479509991
 20
175.4047419876
 30
0.0
  0
VERTEX
  5
1727B
  8
0
 10
282.79244042929997
 20
175.08760616180001
 30
0.0
  0
VERTEX
  5
1727C
  8
0
 10
282.7866028993999
 20
174.76519159969999
 30
0.0
  0
VERTEX
  5
1727D
  8
0
 10
282.8874241561
 20
174.45895411070001
 30
0.0
  0
VERTEX
  5
1727E
  8
0
 10
283.0969344824
 20
174.19104333959999
 30
0.0
  0
VERTEX
  5
1727F
  8
0
 10
283.36584083730003
 20
174.0224841982
 30
0.0
  0
VERTEX
  5
17280
  8
0
 10
283.68898369369992
 20
173.94345961510001
 30
0.0
  0
VERTEX
  5
17281
  8
0
 10
283.78700353200003
 20
173.94134085619999
 30
0.0
  0
VERTEX
  5
17282
  8
0
 10
283.82849209009999
 20
173.9433730021
 30
0.0
  0
VERTEX
  5
17283
  8
0
 10
283.99330265819992
 20
173.96914642300001
 30
0.0
  0
VERTEX
  5
17284
  8
0
 10
284.30332876739999
 20
174.10067524760001
 30
0.0
  0
VERTEX
  5
17285
  8
0
 10
284.56345461310002
 20
174.33365490279999
 30
0.0
  0
VERTEX
  5
17286
  8
0
 10
284.72231961779988
 20
174.62830673900001
 30
0.0
  0
VERTEX
  5
17287
  8
0
 10
284.7757812589
 20
174.95534997429999
 30
0.0
  0
VERTEX
  5
17288
  8
0
 10
284.71128158269988
 20
175.28281509870001
 30
0.0
  0
VERTEX
  5
17289
  8
0
 10
284.55172367389991
 20
175.5424445495
 30
0.0
  0
VERTEX
  5
1728A
  8
0
 10
284.30183865129987
 20
175.7506174966
 30
0.0
  0
VERTEX
  5
1728B
  8
0
 10
283.9820336549999
 20
175.86693875489999
 30
0.0
  0
VERTEX
  5
1728C
  8
0
 10
283.76505039630001
 20
175.88234096759999
 30
0.0
  0
SEQEND
  5
1728D
  8
0
  0
CIRCLE
  5
1644E
  8
0
 10
286.82862189600002
 20
172.0414925927
 30
0.0
 40
0.9937066057250517
  0
CIRCLE
  5
1644F
  8
0
 10
295.80321303189999
 20
175.09885183559999
 30
0.0
 40
0.9974404970168349
  0
POLYLINE
  5
16450
  8
0
 66
     1
 10
0.0
 20
0.0
 30
0.0
 70
   128
  0
VERTEX
  5
1728E
  8
0
 10
289.74410407239998
 20
181.14114236079999
 30
0.0
  0
VERTEX
  5
1728F
  8
0
 10
289.38444964590002
 20
181.0854753479
 30
0.0
  0
VERTEX
  5
17290
  8
0
 10
289.09152261909998
 20
180.95767740159999
 30
0.0
  0
VERTEX
  5
17291
  8
0
 10
288.88482861220001
 20
180.78215662389999
 30
0.0
  0
VERTEX
  5
17292
  8
0
 10
288.76046352089998
 20
180.5486610159
 30
0.0
  0
VERTEX
  5
17293
  8
0
 10
288.7565743177999
 20
180.3097153082
 30
0.0
  0
VERTEX
  5
17294
  8
0
 10
288.85600231590001
 20
180.07873054589999
 30
0.0
  0
VERTEX
  5
17295
  8
0
 10
289.06432054930002
 20
179.86790146679999
 30
0.0
  0
VERTEX
  5
17296
  8
0
 10
289.3409904092
 20
179.730358161
 30
0.0
  0
VERTEX
  5
17297
  8
0
 10
289.67234008010001
 20
179.67007551340001
 30
0.0
  0
VERTEX
  5
17298
  8
0
 10
289.76222388439999
 20
179.6698445454
 30
0.0
  0
VERTEX
  5
17299
  8
0
 10
289.78466503319987
 20
179.67081312089999
 30
0.0
  0
VERTEX
  5
1729A
  8
0
 10
289.8743104189
 20
179.6787703409
 30
0.0
  0
VERTEX
  5
1729B
  8
0
 10
290.19991569220002
 20
179.76542059330001
 30
0.0
  0
VERTEX
  5
1729C
  8
0
 10
290.47749452289997
 20
179.9301082268
 30
0.0
  0
VERTEX
  5
1729D
  8
0
 10
290.66597931090001
 20
180.15206661069999
 30
0.0
  0
VERTEX
  5
1729E
  8
0
 10
290.74777923519991
 20
180.38090188050001
 30
0.0
  0
VERTEX
  5
1729F
  8
0
 10
290.73217771949999
 20
180.63066024330001
 30
0.0
  0
VERTEX
  5
172A0
  8
0
 10
290.60451202090002
 20
180.8479769155
 30
0.0
  0
VERTEX
  5
172A1
  8
0
 10
290.38762561969997
 20
181.0112396255
 30
0.0
  0
VERTEX
  5
172A2
  8
0
 10
290.08265845479991
 20
181.11630771310001
 30
0.0
  0
VERTEX
  5
172A3
  8
0
 10
289.74410407239998
 20
181.14114236079999
 30
0.0
  0
SEQEND
  5
172A4
  8
0
  0
POLYLINE
  5
16451
  8
0
 66
     1
 10
0.0
 20
0.0
 30
0.0
 70
   128
  0
VERTEX
  5
172A5
  8
0
 10
292.82798133789993
 20
178.91936525700001
 30
0.0
  0
VERTEX
  5
172A6
  8
0
 10
292.48789213600003
 20
178.8631841539999
 30
0.0
  0
VERTEX
  5
172A7
  8
0
 10
292.18654595309999
 20
178.7085268646
 30
0.0
  0
VERTEX
  5
172A8
  8
0
 10
291.96997247629997
 20
178.48781459029999
 30
0.0
  0
VERTEX
  5
172A9
  8
0
 10
291.83384291829998
 20
178.193604201
 30
0.0
  0
VERTEX
  5
172AA
  8
0
 10
291.81818179779998
 20
177.8840530663
 30
0.0
  0
VERTEX
  5
172AB
  8
0
 10
291.91343747079998
 20
177.5875916704
 30
0.0
  0
VERTEX
  5
172AC
  8
0
 10
292.11971424519987
 20
177.3298844695
 30
0.0
  0
VERTEX
  5
172AD
  8
0
 10
292.38464944060001
 20
177.1689780056
 30
0.0
  0
VERTEX
  5
172AE
  8
0
 10
292.70690195259999
 20
177.09017321459999
 30
0.0
  0
VERTEX
  5
172AF
  8
0
 10
292.82240085299992
 20
177.08683256059999
 30
0.0
  0
VERTEX
  5
172B0
  8
0
 10
292.86502562459992
 20
177.08872687069999
 30
0.0
  0
VERTEX
  5
172B1
  8
0
 10
293.03460083899989
 20
177.1134106442
 30
0.0
  0
VERTEX
  5
172B2
  8
0
 10
293.35494600229993
 20
177.24080439650001
 30
0.0
  0
VERTEX
  5
172B3
  8
0
 10
293.62269006669999
 20
177.46602427209999
 30
0.0
  0
VERTEX
  5
172B4
  8
0
 10
293.78425590689989
 20
177.74345874779999
 30
0.0
  0
VERTEX
  5
172B5
  8
0
 10
293.84244494139989
 20
178.05218566209999
 30
0.0
  0
VERTEX
  5
172B6
  8
0
 10
293.78140233459999
 20
178.3592678606
 30
0.0
  0
VERTEX
  5
172B7
  8
0
 10
293.62374059849998
 20
178.60013674940001
 30
0.0
  0
VERTEX
  5
172B8
  8
0
 10
293.37458573279991
 20
178.79287675020001
 30
0.0
  0
VERTEX
  5
172B9
  8
0
 10
293.04868988689998
 20
178.90362218019999
 30
0.0
  0
VERTEX
  5
172BA
  8
0
 10
292.82798133789993
 20
178.91936525700001
 30
0.0
  0
SEQEND
  5
172BB
  8
0
  0
POLYLINE
  5
16452
  8
0
 66
     1
 10
0.0
 20
0.0
 30
0.0
 70
   128
  0
VERTEX
  5
172BC
  8
0
 10
289.79364298280001
 20
176.05661656699999
 30
0.0
  0
VERTEX
  5
172BD
  8
0
 10
289.45113234220003
 20
175.9907348081
 30
0.0
  0
VERTEX
  5
172BE
  8
0
 10
289.14986066519998
 20
175.8170710876
 30
0.0
  0
VERTEX
  5
172BF
  8
0
 10
288.93106691539992
 20
175.56677628310001
 30
0.0
  0
VERTEX
  5
172C0
  8
0
 10
288.80398981269991
 20
175.2439910546
 30
0.0
  0
VERTEX
  5
172C1
  8
0
 10
288.79981003699999
 20
174.9200398102
 30
0.0
  0
VERTEX
  5
172C2
  8
0
 10
288.90291862190003
 20
174.61093012239999
 30
0.0
  0
VERTEX
  5
172C3
  8
0
 10
289.11544643339988
 20
174.34344775970001
 30
0.0
  0
VERTEX
  5
172C4
  8
0
 10
289.38429318369992
 20
174.1782031953
 30
0.0
  0
VERTEX
  5
172C5
  8
0
 10
289.70814757049988
 20
174.10162333400001
 30
0.0
  0
VERTEX
  5
172C6
  8
0
 10
289.79356847700001
 20
174.09980911759999
 30
0.0
  0
VERTEX
  5
172C7
  8
0
 10
289.8355301469
 20
174.101594463
 30
0.0
  0
VERTEX
  5
172C8
  8
0
 10
290.0023784487999
 20
174.12661258130001
 30
0.0
  0
VERTEX
  5
172C9
  8
0
 10
290.31683765349999
 20
174.25787504760001
 30
0.0
  0
VERTEX
  5
172CA
  8
0
 10
290.57996980839988
 20
174.49229732149999
 30
0.0
  0
VERTEX
  5
172CB
  8
0
 10
290.7385032624
 20
174.7855763881999
 30
0.0
  0
VERTEX
  5
172CC
  8
0
 10
290.7932948321
 20
175.1124436035
 30
0.0
  0
VERTEX
  5
172CD
  8
0
 10
290.7317232339999
 20
175.4443679005
 30
0.0
  0
VERTEX
  5
172CE
  8
0
 10
290.57123027739999
 20
175.71454457940001
 30
0.0
  0
VERTEX
  5
172CF
  8
0
 10
290.31724743540002
 20
175.92930942769999
 30
0.0
  0
VERTEX
  5
172D0
  8
0
 10
290.00263176859988
 20
176.04242693629999
 30
0.0
  0
VERTEX
  5
172D1
  8
0
 10
289.79364298280001
 20
176.05661656699999
 30
0.0
  0
SEQEND
  5
172D2
  8
0
  0
POLYLINE
  5
16453
  8
0
 66
     1
 10
0.0
 20
0.0
 30
0.0
 70
   128
  0
VERTEX
  5
172D3
  8
0
 10
265.76333753759991
 20
175.3429338336
 30
0.0
  0
VERTEX
  5
172D4
  8
0
 10
265.43167494239992
 20
175.2812122926
 30
0.0
  0
VERTEX
  5
172D5
  8
0
 10
265.13957120480001
 20
175.1164380461
 30
0.0
  0
VERTEX
  5
172D6
  8
0
 10
264.93048183619999
 20
174.88312963390001
 30
0.0
  0
VERTEX
  5
172D7
  8
0
 10
264.80086036019998
 20
174.57319758829999
 30
0.0
  0
VERTEX
  5
172D8
  8
0
 10
264.79077599940001
 20
174.25123564899999
 30
0.0
  0
VERTEX
  5
172D9
  8
0
 10
264.88844938569991
 20
173.94535392520001
 30
0.0
  0
VERTEX
  5
172DA
  8
0
 10
265.09509123859999
 20
173.67495093490001
 30
0.0
  0
VERTEX
  5
172DB
  8
0
 10
265.36676920949992
 20
173.49999919530001
 30
0.0
  0
VERTEX
  5
172DC
  8
0
 10
265.69316796959993
 20
173.41738436369999
 30
0.0
  0
VERTEX
  5
172DD
  8
0
 10
265.79670123749997
 20
173.4148995951
 30
0.0
  0
VERTEX
  5
172DE
  8
0
 10
266.12385250630001
 20
173.4814444557
 30
0.0
  0
VERTEX
  5
172DF
  8
0
 10
266.41195528209988
 20
173.64718168970001
 30
0.0
  0
VERTEX
  5
172E0
  8
0
 10
266.63840077819998
 20
173.9086253568
 30
0.0
  0
VERTEX
  5
172E1
  8
0
 10
266.75441004329991
 20
174.20643158249999
 30
0.0
  0
VERTEX
  5
172E2
  8
0
 10
266.76735542709991
 20
174.53762385990001
 30
0.0
  0
VERTEX
  5
172E3
  8
0
 10
266.66330434379989
 20
174.8471684754
 30
0.0
  0
VERTEX
  5
172E4
  8
0
 10
266.46909750999998
 20
175.09071864180001
 30
0.0
  0
VERTEX
  5
172E5
  8
0
 10
266.18396006519993
 20
175.27019940310001
 30
0.0
  0
VERTEX
  5
172E6
  8
0
 10
265.86370430879992
 20
175.3414427861
 30
0.0
  0
VERTEX
  5
172E7
  8
0
 10
265.76333753759991
 20
175.3429338336
 30
0.0
  0
SEQEND
  5
172E8
  8
0
  0
POLYLINE
  5
16454
  8
0
 66
     1
 10
0.0
 20
0.0
 30
0.0
 70
   128
  0
VERTEX
  5
172E9
  8
0
 10
268.74677725129987
 20
178.0831055715
 30
0.0
  0
VERTEX
  5
172EA
  8
0
 10
268.35507042699999
 20
178.005586937
 30
0.0
  0
VERTEX
  5
172EB
  8
0
 10
268.07050667699991
 20
177.84293517469999
 30
0.0
  0
VERTEX
  5
172EC
  8
0
 10
267.87156499920002
 20
177.6236152276
 30
0.0
  0
VERTEX
  5
172ED
  8
0
 10
267.75953434410002
 20
177.34069246799999
 30
0.0
  0
VERTEX
  5
172EE
  8
0
 10
267.76651181279999
 20
177.05708425489999
 30
0.0
  0
VERTEX
  5
172EF
  8
0
 10
267.8806509822
 20
176.78311429909999
 30
0.0
  0
VERTEX
  5
172F0
  8
0
 10
268.10175441199999
 20
176.5511274337
 30
0.0
  0
VERTEX
  5
172F1
  8
0
 10
268.37971322239991
 20
176.40973683440001
 30
0.0
  0
VERTEX
  5
172F2
  8
0
 10
268.7513593583999
 20
176.3548754155
 30
0.0
  0
VERTEX
  5
172F3
  8
0
 10
269.08199749889991
 20
176.41786914319999
 30
0.0
  0
VERTEX
  5
172F4
  8
0
 10
269.37472335989992
 20
176.5731960535
 30
0.0
  0
VERTEX
  5
172F5
  8
0
 10
269.60264407099999
 20
176.8140994012
 30
0.0
  0
VERTEX
  5
172F6
  8
0
 10
269.71987523140001
 20
177.08307281130001
 30
0.0
  0
VERTEX
  5
172F7
  8
0
 10
269.7367358953
 20
177.37996727230001
 30
0.0
  0
VERTEX
  5
172F8
  8
0
 10
269.63737122709989
 20
177.6556164026
 30
0.0
  0
VERTEX
  5
172F9
  8
0
 10
269.44694183759998
 20
177.8695756569
 30
0.0
  0
VERTEX
  5
172FA
  8
0
 10
269.1652279347
 20
178.02405226970001
 30
0.0
  0
VERTEX
  5
172FB
  8
0
 10
268.84726695709992
 20
178.08279730379999
 30
0.0
  0
VERTEX
  5
172FC
  8
0
 10
268.74677725129987
 20
178.0831055715
 30
0.0
  0
SEQEND
  5
172FD
  8
0
  0
CIRCLE
  5
16455
  8
0
 10
274.8428760031
 20
171.6909363924
 30
0.0
 40
0.9967532999549172
  0
POLYLINE
  5
16456
  8
0
 66
     1
 10
0.0
 20
0.0
 30
0.0
 70
   128
  0
VERTEX
  5
172FE
  8
0
 10
271.7574823647999
 20
175.51762666549999
 30
0.0
  0
VERTEX
  5
172FF
  8
0
 10
271.42406515779999
 20
175.45441966499999
 30
0.0
  0
VERTEX
  5
17300
  8
0
 10
271.13073207439987
 20
175.2872947603
 30
0.0
  0
VERTEX
  5
17301
  8
0
 10
270.92030532659999
 20
175.05012601609999
 30
0.0
  0
VERTEX
  5
17302
  8
0
 10
270.79253159459989
 20
174.73780047150001
 30
0.0
  0
VERTEX
  5
17303
  8
0
 10
270.78520394859987
 20
174.4177086279
 30
0.0
  0
VERTEX
  5
17304
  8
0
 10
270.88450156149997
 20
174.11389257760001
 30
0.0
  0
VERTEX
  5
17305
  8
0
 10
271.0921976715
 20
173.84598366910001
 30
0.0
  0
VERTEX
  5
17306
  8
0
 10
271.36280275879989
 20
173.6744275316
 30
0.0
  0
VERTEX
  5
17307
  8
0
 10
271.68764434749988
 20
173.5938001424
 30
0.0
  0
VERTEX
  5
17308
  8
0
 10
271.79098390040002
 20
173.5915090888
 30
0.0
  0
VERTEX
  5
17309
  8
0
 10
272.12114147839998
 20
173.65885023019999
 30
0.0
  0
VERTEX
  5
1730A
  8
0
 10
272.41166569289999
 20
173.82688596840001
 30
0.0
  0
VERTEX
  5
1730B
  8
0
 10
272.63678871090002
 20
174.08984676
 30
0.0
  0
VERTEX
  5
1730C
  8
0
 10
272.75062613189988
 20
174.38753191379999
 30
0.0
  0
VERTEX
  5
1730D
  8
0
 10
272.76138849549989
 20
174.7188657522
 30
0.0
  0
VERTEX
  5
1730E
  8
0
 10
272.6555977015999
 20
175.02629347140001
 30
0.0
  0
VERTEX
  5
1730F
  8
0
 10
272.46111892160002
 20
175.26776865119999
 30
0.0
  0
VERTEX
  5
17310
  8
0
 10
272.17586971819992
 20
175.44619515540001
 30
0.0
  0
VERTEX
  5
17311
  8
0
 10
271.85550592839991
 20
175.5164522677
 30
0.0
  0
VERTEX
  5
17312
  8
0
 10
271.7574823647999
 20
175.51762666549999
 30
0.0
  0
SEQEND
  5
17313
  8
0
  0
POLYLINE
  5
16457
  8
0
 66
     1
 10
0.0
 20
0.0
 30
0.0
 70
   128
  0
VERTEX
  5
17314
  8
0
 10
280.72964660820003
 20
178.51497661319999
 30
0.0
  0
VERTEX
  5
17315
  8
0
 10
280.33801428969991
 20
178.43419183040001
 30
0.0
  0
VERTEX
  5
17316
  8
0
 10
280.053800717
 20
178.26445735990001
 30
0.0
  0
VERTEX
  5
17317
  8
0
 10
279.8555407673
 20
178.03599927569999
 30
0.0
  0
VERTEX
  5
17318
  8
0
 10
279.7454286366999
 20
177.742922306
 30
0.0
  0
VERTEX
  5
17319
  8
0
 10
279.75470460949998
 20
177.45227236299999
 30
0.0
  0
VERTEX
  5
1731A
  8
0
 10
279.86964099109991
 20
177.17343904079999
 30
0.0
  0
VERTEX
  5
1731B
  8
0
 10
280.09119518099999
 20
176.9361017272
 30
0.0
  0
VERTEX
  5
1731C
  8
0
 10
280.36982454359998
 20
176.79108735170001
 30
0.0
  0
VERTEX
  5
1731D
  8
0
 10
280.70305548610003
 20
176.73395443699999
 30
0.0
  0
VERTEX
  5
1731E
  8
0
 10
280.74491284789991
 20
176.7344955355
 30
0.0
  0
VERTEX
  5
1731F
  8
0
 10
281.0768213122999
 20
176.79944690310001
 30
0.0
  0
VERTEX
  5
17320
  8
0
 10
281.37010596689998
 20
176.9597386941
 30
0.0
  0
VERTEX
  5
17321
  8
0
 10
281.5969873219999
 20
177.20813080670001
 30
0.0
  0
VERTEX
  5
17322
  8
0
 10
281.7127320914999
 20
177.48619019980001
 30
0.0
  0
VERTEX
  5
17323
  8
0
 10
281.72659389670002
 20
177.79299020760001
 30
0.0
  0
VERTEX
  5
17324
  8
0
 10
281.62437938149992
 20
178.0743408948
 30
0.0
  0
VERTEX
  5
17325
  8
0
 10
281.43427036700001
 20
178.2918987795
 30
0.0
  0
VERTEX
  5
17326
  8
0
 10
281.15279115729987
 20
178.45189720389999
 30
0.0
  0
VERTEX
  5
17327
  8
0
 10
280.8304455130999
 20
178.5145780071
 30
0.0
  0
VERTEX
  5
17328
  8
0
 10
280.72964660820003
 20
178.51497661319999
 30
0.0
  0
SEQEND
  5
17329
  8
0
  0
POLYLINE
  5
16458
  8
0
 66
     1
 10
0.0
 20
0.0
 30
0.0
 70
   128
  0
VERTEX
  5
1732A
  8
0
 10
277.75549404319997
 20
175.69856867190001
 30
0.0
  0
VERTEX
  5
1732B
  8
0
 10
277.4218980222999
 20
175.63521452250001
 30
0.0
  0
VERTEX
  5
1732C
  8
0
 10
277.12843827900002
 20
175.4671731963
 30
0.0
  0
VERTEX
  5
1732D
  8
0
 10
276.91786251959991
 20
175.22857952859999
 30
0.0
  0
VERTEX
  5
1732E
  8
0
 10
276.79007761179992
 20
174.91453755640001
 30
0.0
  0
VERTEX
  5
1732F
  8
0
 10
276.78285054859998
 20
174.5929257944
 30
0.0
  0
VERTEX
  5
17330
  8
0
 10
276.88234932720002
 20
174.2880163714
 30
0.0
  0
VERTEX
  5
17331
  8
0
 10
277.09010131659988
 20
174.01993796229999
 30
0.0
  0
VERTEX
  5
17332
  8
0
 10
277.3599613458
 20
173.84887263179999
 30
0.0
  0
VERTEX
  5
17333
  8
0
 10
277.68397964539997
 20
173.7682769075
 30
0.0
  0
VERTEX
  5
17334
  8
0
 10
277.78780348599997
 20
173.76594953239999
 30
0.0
  0
VERTEX
  5
17335
  8
0
 10
278.1179014592999
 20
173.83341733360001
 30
0.0
  0
VERTEX
  5
17336
  8
0
 10
278.40825058519999
 20
174.00173805649999
 30
0.0
  0
VERTEX
  5
17337
  8
0
 10
278.6342117934999
 20
174.26573075350001
 30
0.0
  0
VERTEX
  5
17338
  8
0
 10
278.74957285819988
 20
174.56695958969999
 30
0.0
  0
VERTEX
  5
17339
  8
0
 10
278.75986210999997
 20
174.90149997169999
 30
0.0
  0
VERTEX
  5
1733A
  8
0
 10
278.65292392669988
 20
175.2081146463
 30
0.0
  0
VERTEX
  5
1733B
  8
0
 10
278.45927961169991
 20
175.44747479259999
 30
0.0
  0
VERTEX
  5
1733C
  8
0
 10
278.1746376306001
 20
175.6260847673
 30
0.0
  0
VERTEX
  5
1733D
  8
0
 10
277.85284332930001
 20
175.6973179057
 30
0.0
  0
VERTEX
  5
1733E
  8
0
 10
277.75549404319997
 20
175.69856867190001
 30
0.0
  0
SEQEND
  5
1733F
  8
0
  0
CIRCLE
  5
16459
  8
0
 10
280.84048847600002
 20
171.86910575210001
 30
0.0
 40
0.9957739670840531
  0
POLYLINE
  5
1645A
  8
0
 66
     1
 10
0.0
 20
0.0
 30
0.0
 70
   128
  0
VERTEX
  5
17340
  8
0
 10
274.73434321579998
 20
178.294250369
 30
0.0
  0
VERTEX
  5
17341
  8
0
 10
274.40109737220001
 20
178.23575213550001
 30
0.0
  0
VERTEX
  5
17342
  8
0
 10
274.10613633689991
 20
178.0855447054
 30
0.0
  0
VERTEX
  5
17343
  8
0
 10
273.89408163719997
 20
177.8742350638
 30
0.0
  0
VERTEX
  5
17344
  8
0
 10
273.76138679680002
 20
177.59344503279999
 30
0.0
  0
VERTEX
  5
17345
  8
0
 10
273.74829985199989
 20
177.30152755969999
 30
0.0
  0
VERTEX
  5
17346
  8
0
 10
273.84276576339988
 20
177.02250145369999
 30
0.0
  0
VERTEX
  5
17347
  8
0
 10
274.04631189999998
 20
176.77578944710001
 30
0.0
  0
VERTEX
  5
17348
  8
0
 10
274.31319914760002
 20
176.61824412639999
 30
0.0
  0
VERTEX
  5
17349
  8
0
 10
274.63507167990002
 20
176.54397767029999
 30
0.0
  0
VERTEX
  5
1734A
  8
0
 10
274.74522478879999
 20
176.54191479080001
 30
0.0
  0
VERTEX
  5
1734B
  8
0
 10
275.07835514840002
 20
176.60639025270001
 30
0.0
  0
VERTEX
  5
1734C
  8
0
 10
275.37286169830003
 20
176.76547039299999
 30
0.0
  0
VERTEX
  5
1734D
  8
0
 10
275.59867389499988
 20
177.0102676004
 30
0.0
  0
VERTEX
  5
1734E
  8
0
 10
275.71283169089998
 20
177.2814845666
 30
0.0
  0
VERTEX
  5
1734F
  8
0
 10
275.72737894950001
 20
177.5821359828
 30
0.0
  0
VERTEX
  5
17350
  8
0
 10
275.62652043999992
 20
177.86083612589999
 30
0.0
  0
VERTEX
  5
17351
  8
0
 10
275.43454878030002
 20
178.0781388282
 30
0.0
  0
VERTEX
  5
17352
  8
0
 10
275.15192218120001
 20
178.23470253490001
 30
0.0
  0
VERTEX
  5
17353
  8
0
 10
274.8325716704
 20
178.29407900570001
 30
0.0
  0
VERTEX
  5
17354
  8
0
 10
274.73434321579998
 20
178.294250369
 30
0.0
  0
SEQEND
  5
17355
  8
0
  0
POLYLINE
  5
1645B
  8
0
 66
     1
 10
0.0
 20
0.0
 30
0.0
 70
   128
  0
VERTEX
  5
17356
  8
0
 10
298.79267774519991
 20
176.64671465750001
 30
0.0
  0
VERTEX
  5
17357
  8
0
 10
299.10454414780003
 20
176.6239251941
 30
0.0
  0
VERTEX
  5
17358
  8
0
 10
299.37950782479987
 20
176.70485526319999
 30
0.0
  0
VERTEX
  5
17359
  8
0
 10
299.57673214369999
 20
176.8685035407
 30
0.0
  0
VERTEX
  5
1735A
  8
0
 10
299.6950473636
 20
177.1160462871
 30
0.0
  0
VERTEX
  5
1735B
  8
0
 10
299.70222227269988
 20
177.3942658677
 30
0.0
  0
VERTEX
  5
1735C
  8
0
 10
299.61511753500002
 20
177.68118213860001
 30
0.0
  0
VERTEX
  5
1735D
  8
0
 10
299.42734055219989
 20
177.9728481546
 30
0.0
  0
VERTEX
  5
1735E
  8
0
 10
299.1748031228999
 20
178.2008275389
 30
0.0
  0
VERTEX
  5
1735F
  8
0
 10
298.87215308840001
 20
178.35669089109999
 30
0.0
  0
VERTEX
  5
17360
  8
0
 10
298.78717176610002
 20
178.38177792729999
 30
0.0
  0
VERTEX
  5
17361
  8
0
 10
298.48467819389998
 20
178.40643748639999
 30
0.0
  0
VERTEX
  5
17362
  8
0
 10
298.21501933040003
 20
178.3318571746
 30
0.0
  0
VERTEX
  5
17363
  8
0
 10
298.00197742879999
 20
178.15562486650001
 30
0.0
  0
VERTEX
  5
17364
  8
0
 10
297.89018891749993
 20
177.9198559001
 30
0.0
  0
VERTEX
  5
17365
  8
0
 10
297.87078760560001
 20
177.6259677484
 30
0.0
  0
VERTEX
  5
17366
  8
0
 10
297.96038083729991
 20
177.31912396850001
 30
0.0
  0
VERTEX
  5
17367
  8
0
 10
298.13577495509998
 20
177.0501021295
 30
0.0
  0
VERTEX
  5
17368
  8
0
 10
298.39798323809998
 20
176.816307567
 30
0.0
  0
VERTEX
  5
17369
  8
0
 10
298.69746677580002
 20
176.672527194
 30
0.0
  0
VERTEX
  5
1736A
  8
0
 10
298.79267774519991
 20
176.64671465750001
 30
0.0
  0
SEQEND
  5
1736B
  8
0
  0
POLYLINE
  5
1645C
  8
0
 66
     1
 10
0.0
 20
0.0
 30
0.0
 70
   128
  0
VERTEX
  5
1736C
  8
0
 10
265.80456905069991
 20
180.04883509129999
 30
0.0
  0
VERTEX
  5
1736D
  8
0
 10
265.43801166119988
 20
179.99563235790001
 30
0.0
  0
VERTEX
  5
1736E
  8
0
 10
265.14588929709998
 20
179.88437283779999
 30
0.0
  0
VERTEX
  5
1736F
  8
0
 10
264.93681482969998
 20
179.73321359600001
 30
0.0
  0
VERTEX
  5
17370
  8
0
 10
264.80571441350003
 20
179.52980715780001
 30
0.0
  0
VERTEX
  5
17371
  8
0
 10
264.7941287607
 20
179.31618224830001
 30
0.0
  0
VERTEX
  5
17372
  8
0
 10
264.89027105269997
 20
179.10733595490001
 30
0.0
  0
VERTEX
  5
17373
  8
0
 10
265.09550474579999
 20
178.92270311710001
 30
0.0
  0
VERTEX
  5
17374
  8
0
 10
265.36391563709992
 20
178.80588639519999
 30
0.0
  0
VERTEX
  5
17375
  8
0
 10
265.6904112547
 20
178.75668928019999
 30
0.0
  0
VERTEX
  5
17376
  8
0
 10
265.76286442579999
 20
178.7573672831
 30
0.0
  0
VERTEX
  5
17377
  8
0
 10
265.80846570429992
 20
178.7598688155
 30
0.0
  0
VERTEX
  5
17378
  8
0
 10
265.99009223280001
 20
178.78596261140001
 30
0.0
  0
VERTEX
  5
17379
  8
0
 10
266.31160713729992
 20
178.89912948009999
 30
0.0
  0
VERTEX
  5
1737A
  8
0
 10
266.56898371869988
 20
179.07974366100001
 30
0.0
  0
VERTEX
  5
1737B
  8
0
 10
266.7220223695
 20
179.28980905559999
 30
0.0
  0
VERTEX
  5
1737C
  8
0
 10
266.77544303239989
 20
179.51224427669999
 30
0.0
  0
VERTEX
  5
1737D
  8
0
 10
266.71506725249992
 20
179.72198743370001
 30
0.0
  0
VERTEX
  5
1737E
  8
0
 10
266.55850075180001
 20
179.87995650619999
 30
0.0
  0
VERTEX
  5
1737F
  8
0
 10
266.30835868420002
 20
179.9955932423
 30
0.0
  0
VERTEX
  5
17380
  8
0
 10
265.99256210030001
 20
180.04798199979999
 30
0.0
  0
VERTEX
  5
17381
  8
0
 10
265.80456905069991
 20
180.04883509129999
 30
0.0
  0
SEQEND
  5
17382
  8
0
  0
POLYLINE
  5
1645D
  8
0
 66
     1
 10
0.0
 20
0.0
 30
0.0
 70
   128
  0
VERTEX
  5
17383
  8
0
 10
262.76160292330002
 20
177.88308169690001
 30
0.0
  0
VERTEX
  5
17384
  8
0
 10
262.37058900289998
 20
177.80773583800001
 30
0.0
  0
VERTEX
  5
17385
  8
0
 10
262.08685226739999
 20
177.64895372090001
 30
0.0
  0
VERTEX
  5
17386
  8
0
 10
261.88851408659991
 20
177.43502054359999
 30
0.0
  0
VERTEX
  5
17387
  8
0
 10
261.77473999559987
 20
177.15663332490001
 30
0.0
  0
VERTEX
  5
17388
  8
0
 10
261.77992187439997
 20
176.87472756950001
 30
0.0
  0
VERTEX
  5
17389
  8
0
 10
261.89312972129989
 20
176.60275064410001
 30
0.0
  0
VERTEX
  5
1738A
  8
0
 10
262.11320124560001
 20
176.37281827629999
 30
0.0
  0
VERTEX
  5
1738B
  8
0
 10
262.39050067959988
 20
176.23212058089999
 30
0.0
  0
VERTEX
  5
1738C
  8
0
 10
262.76190467179993
 20
176.17705333980001
 30
0.0
  0
VERTEX
  5
1738D
  8
0
 10
263.09104897079999
 20
176.23887360090001
 30
0.0
  0
VERTEX
  5
1738E
  8
0
 10
263.38272429999989
 20
176.3914493844
 30
0.0
  0
VERTEX
  5
1738F
  8
0
 10
263.6116731912
 20
176.6290362924
 30
0.0
  0
VERTEX
  5
17390
  8
0
 10
263.73046897349991
 20
176.8951393664
 30
0.0
  0
VERTEX
  5
17391
  8
0
 10
263.74872662130002
 20
177.18798816200001
 30
0.0
  0
VERTEX
  5
17392
  8
0
 10
263.65082971750002
 20
177.46019698680001
 30
0.0
  0
VERTEX
  5
17393
  8
0
 10
263.46102990209988
 20
177.6719778776
 30
0.0
  0
VERTEX
  5
17394
  8
0
 10
263.17963264880001
 20
177.82455366100001
 30
0.0
  0
VERTEX
  5
17395
  8
0
 10
262.86258064209989
 20
177.88265235719999
 30
0.0
  0
VERTEX
  5
17396
  8
0
 10
262.76160292330002
 20
177.88308169690001
 30
0.0
  0
SEQEND
  5
17397
  8
0
  0
POLYLINE
  5
1645E
  8
0
 66
     1
 10
0.0
 20
0.0
 30
0.0
 70
   128
  0
VERTEX
  5
17398
  8
0
 10
283.73613096769998
 20
180.89586924759999
 30
0.0
  0
VERTEX
  5
17399
  8
0
 10
283.37139897050002
 20
180.83750326180001
 30
0.0
  0
VERTEX
  5
1739A
  8
0
 10
283.08079652489999
 20
180.71109857409999
 30
0.0
  0
VERTEX
  5
1739B
  8
0
 10
282.87557400759999
 20
180.5404169485
 30
0.0
  0
VERTEX
  5
1739C
  8
0
 10
282.74840004739991
 20
180.31213115899999
 30
0.0
  0
VERTEX
  5
1739D
  8
0
 10
282.74020813399989
 20
180.0749363377
 30
0.0
  0
VERTEX
  5
1739E
  8
0
 10
282.83840306100001
 20
179.8448549583
 30
0.0
  0
VERTEX
  5
1739F
  8
0
 10
283.04542116819988
 20
179.6408487484
 30
0.0
  0
VERTEX
  5
173A0
  8
0
 10
283.3164621144
 20
179.51169107109999
 30
0.0
  0
VERTEX
  5
173A1
  8
0
 10
283.64346809680001
 20
179.45637423540001
 30
0.0
  0
VERTEX
  5
173A2
  8
0
 10
283.72923173010003
 20
179.45684920990001
 30
0.0
  0
VERTEX
  5
173A3
  8
0
 10
284.09277163439992
 20
179.526383616
 30
0.0
  0
VERTEX
  5
173A4
  8
0
 10
284.38511751589999
 20
179.6744024381
 30
0.0
  0
VERTEX
  5
173A5
  8
0
 10
284.60255898529999
 20
179.8895230517
 30
0.0
  0
VERTEX
  5
173A6
  8
0
 10
284.70891974860001
 20
180.11614363640001
 30
0.0
  0
VERTEX
  5
173A7
  8
0
 10
284.71961505709987
 20
180.36249335849999
 30
0.0
  0
VERTEX
  5
173A8
  8
0
 10
284.61652137340002
 20
180.5830044672
 30
0.0
  0
VERTEX
  5
173A9
  8
0
 10
284.42263491449989
 20
180.7485396042
 30
0.0
  0
VERTEX
  5
173AA
  8
0
 10
284.13758315139989
 20
180.86121100930001
 30
0.0
  0
VERTEX
  5
173AB
  8
0
 10
283.81439931689999
 20
180.89751396330001
 30
0.0
  0
VERTEX
  5
173AC
  8
0
 10
283.73613096769998
 20
180.89586924759999
 30
0.0
  0
SEQEND
  5
173AD
  8
0
  0
POLYLINE
  5
1645F
  8
0
 66
     1
 10
0.0
 20
0.0
 30
0.0
 70
   128
  0
VERTEX
  5
173AE
  8
0
 10
277.75658182799998
 20
180.60843329869999
 30
0.0
  0
VERTEX
  5
173AF
  8
0
 10
277.38972641529989
 20
180.549316667
 30
0.0
  0
VERTEX
  5
173B0
  8
0
 10
277.09793560200001
 20
180.425821431
 30
0.0
  0
VERTEX
  5
173B1
  8
0
 10
276.89009420569988
 20
180.2589489147
 30
0.0
  0
VERTEX
  5
173B2
  8
0
 10
276.76219753919997
 20
180.0372755155
 30
0.0
  0
VERTEX
  5
173B3
  8
0
 10
276.75360701979992
 20
179.8081217333
 30
0.0
  0
VERTEX
  5
173B4
  8
0
 10
276.85185410079998
 20
179.5844478532
 30
0.0
  0
VERTEX
  5
173B5
  8
0
 10
277.05920375879998
 20
179.3873557821
 30
0.0
  0
VERTEX
  5
173B6
  8
0
 10
277.33043842019993
 20
179.2633958161
 30
0.0
  0
VERTEX
  5
173B7
  8
0
 10
277.65786908569999
 20
179.21232208609999
 30
0.0
  0
VERTEX
  5
173B8
  8
0
 10
277.73207314310002
 20
179.2132506147
 30
0.0
  0
VERTEX
  5
173B9
  8
0
 10
278.09789292509998
 20
179.28397990760001
 30
0.0
  0
VERTEX
  5
173BA
  8
0
 10
278.38562689719993
 20
179.4282697141
 30
0.0
  0
VERTEX
  5
173BB
  8
0
 10
278.60469259320001
 20
179.63876817369999
 30
0.0
  0
VERTEX
  5
173BC
  8
0
 10
278.71474884449998
 20
179.86257243899999
 30
0.0
  0
VERTEX
  5
173BD
  8
0
 10
278.72726954519999
 20
180.10332118720001
 30
0.0
  0
VERTEX
  5
173BE
  8
0
 10
278.62555049359997
 20
180.3161880001
 30
0.0
  0
VERTEX
  5
173BF
  8
0
 10
278.43217812479998
 20
180.47477360810001
 30
0.0
  0
VERTEX
  5
173C0
  8
0
 10
278.14781554040002
 20
180.5799329653
 30
0.0
  0
VERTEX
  5
173C1
  8
0
 10
277.83056236800002
 20
180.61057347799999
 30
0.0
  0
VERTEX
  5
173C2
  8
0
 10
277.75658182799998
 20
180.60843329869999
 30
0.0
  0
SEQEND
  5
173C3
  8
0
  0
POLYLINE
  5
16460
  8
0
 66
     1
 10
0.0
 20
0.0
 30
0.0
 70
   128
  0
VERTEX
  5
173C4
  8
0
 10
271.78162224589988
 20
180.3216548636
 30
0.0
  0
VERTEX
  5
173C5
  8
0
 10
271.41779921950001
 20
180.26628028600001
 30
0.0
  0
VERTEX
  5
173C6
  8
0
 10
271.12346030769987
 20
180.1489224657
 30
0.0
  0
VERTEX
  5
173C7
  8
0
 10
270.91188989580002
 20
179.9884183332
 30
0.0
  0
VERTEX
  5
173C8
  8
0
 10
270.78242860729989
 20
179.7754528001
 30
0.0
  0
VERTEX
  5
173C9
  8
0
 10
270.77302969990001
 20
179.55637220290001
 30
0.0
  0
VERTEX
  5
173CA
  8
0
 10
270.8694662899
 20
179.34131212529999
 30
0.0
  0
VERTEX
  5
173CB
  8
0
 10
271.07504643499999
 20
179.14965432130001
 30
0.0
  0
VERTEX
  5
173CC
  8
0
 10
271.34623639279988
 20
179.027509503
 30
0.0
  0
VERTEX
  5
173CD
  8
0
 10
271.67397253209992
 20
178.976698406
 30
0.0
  0
VERTEX
  5
173CE
  8
0
 10
271.74694724379992
 20
178.9774509147
 30
0.0
  0
VERTEX
  5
173CF
  8
0
 10
272.10987992579999
 20
179.0451329201
 30
0.0
  0
VERTEX
  5
173D0
  8
0
 10
272.39511050279998
 20
179.18270416550001
 30
0.0
  0
VERTEX
  5
173D1
  8
0
 10
272.61822931469999
 20
179.38633691519999
 30
0.0
  0
VERTEX
  5
173D2
  8
0
 10
272.73367978629989
 20
179.6062612906
 30
0.0
  0
VERTEX
  5
173D3
  8
0
 10
272.74843938650002
 20
179.83996178949999
 30
0.0
  0
VERTEX
  5
173D4
  8
0
 10
272.64773733909999
 20
180.04333470009999
 30
0.0
  0
VERTEX
  5
173D5
  8
0
 10
272.4575389176
 20
180.1932236179
 30
0.0
  0
VERTEX
  5
173D6
  8
0
 10
272.17534445220002
 20
180.29384184630001
 30
0.0
  0
VERTEX
  5
173D7
  8
0
 10
271.85866497459989
 20
180.32371122390001
 30
0.0
  0
VERTEX
  5
173D8
  8
0
 10
271.78162224589988
 20
180.3216548636
 30
0.0
  0
SEQEND
  5
173D9
  8
0
  0
POLYLINE
  5
16461
  8
0
 66
     1
 10
0.0
 20
0.0
 30
0.0
 70
   128
  0
VERTEX
  5
173DA
  8
0
 10
295.77147476369993
 20
181.16538468749999
 30
0.0
  0
VERTEX
  5
173DB
  8
0
 10
295.44403664769987
 20
181.16777818649999
 30
0.0
  0
VERTEX
  5
173DC
  8
0
 10
295.15932761129989
 20
181.0863321647
 30
0.0
  0
VERTEX
  5
173DD
  8
0
 10
294.95898149909999
 20
180.94029147180001
 30
0.0
  0
VERTEX
  5
173DE
  8
0
 10
294.83769349749991
 20
180.72379063810001
 30
0.0
  0
VERTEX
  5
173DF
  8
0
 10
294.83384899790002
 20
180.4778637364
 30
0.0
  0
VERTEX
  5
173E0
  8
0
 10
294.93794105950002
 20
180.23002762339999
 30
0.0
  0
VERTEX
  5
173E1
  8
0
 10
295.1509829609999
 20
179.9967592582
 30
0.0
  0
VERTEX
  5
173E2
  8
0
 10
295.42675875129999
 20
179.83019966629999
 30
0.0
  0
VERTEX
  5
173E3
  8
0
 10
295.75577639039989
 20
179.72680609669999
 30
0.0
  0
VERTEX
  5
173E4
  8
0
 10
295.8631988615
 20
179.7114634886
 30
0.0
  0
VERTEX
  5
173E5
  8
0
 10
296.1922686547
 20
179.7202197835
 30
0.0
  0
VERTEX
  5
173E6
  8
0
 10
296.47939912969991
 20
179.80767656110001
 30
0.0
  0
VERTEX
  5
173E7
  8
0
 10
296.69826738529991
 20
179.97270133340001
 30
0.0
  0
VERTEX
  5
173E8
  8
0
 10
296.80365584790002
 20
180.17616178840001
 30
0.0
  0
VERTEX
  5
173E9
  8
0
 10
296.80612944059999
 20
180.41796479370001
 30
0.0
  0
VERTEX
  5
173EA
  8
0
 10
296.69066779309992
 20
180.66494408989999
 30
0.0
  0
VERTEX
  5
173EB
  8
0
 10
296.48408554489993
 20
180.8764865622
 30
0.0
  0
VERTEX
  5
173EC
  8
0
 10
296.19101695709992
 20
181.0507277026
 30
0.0
  0
VERTEX
  5
173ED
  8
0
 10
295.86808644230001
 20
181.15018922830001
 30
0.0
  0
VERTEX
  5
173EE
  8
0
 10
295.77147476369993
 20
181.16538468749999
 30
0.0
  0
SEQEND
  5
173EF
  8
0
  0
ARC
  5
16462
  8
0
 10
238.9447520837999
 20
170.45517897299999
 30
0.0
 40
10.23487381666175
 50
315.9114443241013
 51
45.590993404498732
  0
LINE
  5
16463
  8
0
 10
246.08216881749991
 20
179.55248858780001
 30
0.0
 11
249.99957606189989
 21
179.85635306680001
 31
0.0
  0
LINE
  5
1646A
  8
0
 10
286.21239103369999
 20
157.8268828802
 30
0.0
 11
286.20007149870003
 21
157.85522349179999
 31
0.0
  0
LINE
  5
1646C
  8
0
 10
279.90895397960003
 20
160.17361669799999
 30
0.0
 11
276.84780471020002
 21
160.9270538669
 31
0.0
  0
LINE
  5
1646F
  8
0
 10
269.56984288989997
 20
161.784807546
 30
0.0
 11
267.26706586779989
 21
161.8830549763
 31
0.0
  0
POLYLINE
  5
16483
  8
0
 66
     1
 10
0.0
 20
0.0
 30
0.0
 70
   128
  0
VERTEX
  5
173F0
  8
0
 10
259.6618931740183
 20
162.08828412928909
 30
0.0
  0
VERTEX
  5
173F1
  8
0
 10
259.71212871369988
 20
162.3399439035
 30
0.0
  0
VERTEX
  5
173F2
  8
0
 10
259.85288880759998
 20
163.07821401859999
 30
0.0
  0
VERTEX
  5
173F3
  8
0
 10
260.09420938789992
 20
164.2063176899
 30
0.0
  0
VERTEX
  5
173F4
  8
0
 10
260.44454686339998
 20
165.59881644789999
 30
0.0
  0
VERTEX
  5
173F5
  8
0
 10
260.92837639150002
 20
167.1520495787
 30
0.0
  0
VERTEX
  5
173F6
  8
0
 10
261.58667616539992
 20
168.7567626126
 30
0.0
  0
VERTEX
  5
173F7
  8
0
 10
262.50281445680002
 20
170.26774687689999
 30
0.0
  0
VERTEX
  5
173F8
  8
0
 10
262.82520852980002
 20
170.58953233060001
 30
0.0
  0
SEQEND
  5
173F9
  8
0
  0
POLYLINE
  5
16484
  8
0
 66
     1
 10
0.0
 20
0.0
 30
0.0
 70
   128
  0
VERTEX
  5
173FA
  8
0
 10
264.19234909120001
 20
171.17571560659999
 30
0.0
  0
VERTEX
  5
173FB
  8
0
 10
264.24147076899999
 20
171.172338631
 30
0.0
  0
VERTEX
  5
173FC
  8
0
 10
264.60562534629997
 20
171.00953366600001
 30
0.0
  0
VERTEX
  5
173FD
  8
0
 10
264.91925008589999
 20
170.74326667930001
 30
0.0
  0
VERTEX
  5
173FE
  8
0
 10
265.1870500295999
 20
170.4060911201
 30
0.0
  0
VERTEX
  5
173FF
  8
0
 10
265.60693867499992
 20
169.63287079700001
 30
0.0
  0
VERTEX
  5
17400
  8
0
 10
265.9220758825
 20
168.8064863905
 30
0.0
  0
VERTEX
  5
17401
  8
0
 10
266.36721082029999
 20
167.12869782929999
 30
0.0
  0
VERTEX
  5
17402
  8
0
 10
266.65798090399988
 20
165.5403998214
 30
0.0
  0
VERTEX
  5
17403
  8
0
 10
266.85568578539988
 20
164.14430065779999
 30
0.0
  0
VERTEX
  5
17404
  8
0
 10
266.98265112929988
 20
163.03939527130001
 30
0.0
  0
VERTEX
  5
17405
  8
0
 10
267.0523066072999
 20
162.33256014529999
 30
0.0
  0
VERTEX
  5
17406
  8
0
 10
267.07314960659988
 20
162.0885575888
 30
0.0
  0
SEQEND
  5
17407
  8
0
  0
ARC
  5
16485
  8
0
 10
259.4615141375283
 20
162.0845998324281
 30
0.0
 40
0.2004129045447636
 50
271.3226977176767
 51
1.053358080657895
  0
ARC
  5
16486
  8
0
 10
267.2736140807699
 20
162.08347688104681
 30
0.0
 40
0.2005288482875025
 50
178.54816766853119
 51
268.12868981053032
  0
POLYLINE
  5
16487
  8
0
 66
     1
 10
0.0
 20
0.0
 30
0.0
 70
   128
  0
VERTEX
  5
17408
  8
0
 10
246.2961066513999
 20
163.33406715999999
 30
0.0
  0
VERTEX
  5
17409
  8
0
 10
246.21728323400001
 20
163.281816733
 30
0.0
  0
VERTEX
  5
1740A
  8
0
 10
246.18379287420001
 20
163.2763312431
 30
0.0
  0
VERTEX
  5
1740B
  8
0
 10
246.15032859140001
 20
163.28560762340001
 30
0.0
  0
VERTEX
  5
1740C
  8
0
 10
246.12896591419999
 20
163.30438948930001
 30
0.0
  0
VERTEX
  5
1740D
  8
0
 10
246.113083139
 20
163.33196292400001
 30
0.0
  0
VERTEX
  5
1740E
  8
0
 10
246.10105790200001
 20
163.3772235422
 30
0.0
  0
VERTEX
  5
1740F
  8
0
 10
246.09778523439991
 20
163.41985861649999
 30
0.0
  0
SEQEND
  5
17410
  8
0
  0
LINE
  5
16488
  8
0
 10
246.1188964545621
 20
161.73949171782741
 30
0.0
 11
245.89765214592379
 21
179.35057588577831
 31
0.0
  0
POLYLINE
  5
16489
  8
0
 66
     1
 10
0.0
 20
0.0
 30
0.0
 70
   128
  0
VERTEX
  5
17411
  8
0
 10
245.91878131030001
 20
177.66873501239999
 30
0.0
  0
VERTEX
  5
17412
  8
0
 10
245.92299275100001
 20
177.7245817706
 30
0.0
  0
VERTEX
  5
17413
  8
0
 10
245.9351167083
 20
177.76470314709999
 30
0.0
  0
VERTEX
  5
17414
  8
0
 10
245.95219530159989
 20
177.7911201119
 30
0.0
  0
VERTEX
  5
17415
  8
0
 10
245.97461782389991
 20
177.80786622310001
 30
0.0
  0
VERTEX
  5
17416
  8
0
 10
246.00592143829999
 20
177.8144609183
 30
0.0
  0
VERTEX
  5
17417
  8
0
 10
246.0528936236999
 20
177.80270483340001
 30
0.0
  0
VERTEX
  5
17418
  8
0
 10
246.1068674922
 20
177.76659000660001
 30
0.0
  0
SEQEND
  5
17419
  8
0
  0
POLYLINE
  5
1648E
  8
0
 66
     1
 10
0.0
 20
0.0
 30
0.0
 70
   128
  0
VERTEX
  5
1741A
  8
0
 10
269.78078000247729
 20
161.97271654383459
 30
0.0
  0
VERTEX
  5
1741B
  8
0
 10
269.82634402809992
 20
162.1236301493
 30
0.0
  0
VERTEX
  5
1741C
  8
0
 10
269.95965726669999
 20
162.56374851800001
 30
0.0
  0
VERTEX
  5
1741D
  8
0
 10
270.19869796929987
 20
163.267103408
 30
0.0
  0
VERTEX
  5
1741E
  8
0
 10
270.54240815339989
 20
164.17207485060001
 30
0.0
  0
VERTEX
  5
1741F
  8
0
 10
271.01450301699992
 20
165.2178567368
 30
0.0
  0
VERTEX
  5
17420
  8
0
 10
271.6534759848999
 20
166.30954956630001
 30
0.0
  0
VERTEX
  5
17421
  8
0
 10
272.54341803490001
 20
167.2956876922
 30
0.0
  0
VERTEX
  5
17422
  8
0
 10
273.11545126139993
 20
167.61230919510001
 30
0.0
  0
VERTEX
  5
17423
  8
0
 10
273.43097589909991
 20
167.6770992111
 30
0.0
  0
VERTEX
  5
17424
  8
0
 10
273.74501042069988
 20
167.66275684350001
 30
0.0
  0
VERTEX
  5
17425
  8
0
 10
274.04956780369992
 20
167.56316353560001
 30
0.0
  0
VERTEX
  5
17426
  8
0
 10
274.33062978089993
 20
167.3952628392
 30
0.0
  0
VERTEX
  5
17427
  8
0
 10
274.79893974959998
 20
166.92409720270001
 30
0.0
  0
VERTEX
  5
17428
  8
0
 10
275.46337507660002
 20
165.7583357067
 30
0.0
  0
VERTEX
  5
17429
  8
0
 10
275.89492015539997
 20
164.56849742680001
 30
0.0
  0
VERTEX
  5
1742A
  8
0
 10
276.19587145740002
 20
163.45651835429999
 30
0.0
  0
VERTEX
  5
1742B
  8
0
 10
276.4030199497999
 20
162.50451337539999
 30
0.0
  0
VERTEX
  5
1742C
  8
0
 10
276.54814235859999
 20
161.7723383009
 30
0.0
  0
VERTEX
  5
1742D
  8
0
 10
276.63934491569989
 20
161.31657185029999
 30
0.0
  0
VERTEX
  5
1742E
  8
0
 10
276.68655283127032
 20
161.1234310234
 30
0.0
  0
SEQEND
  5
1742F
  8
0
  0
ARC
  5
1648F
  8
0
 10
269.58110145720002
 20
161.98465597719999
 30
0.0
 40
0.2000351756895016
 50
266.77565767840213
 51
356.57817199600021
  0
ARC
  5
16490
  8
0
 10
276.88659605780009
 20
161.1234310234
 30
0.0
 40
0.2000432265296831
 50
180.0000000000407
 51
258.82518798109811
  0
POLYLINE
  5
16491
  8
0
 66
     1
 10
0.0
 20
0.0
 30
0.0
 70
   128
  0
VERTEX
  5
17430
  8
0
 10
290.53238316536431
 20
157.80513297706659
 30
0.0
  0
VERTEX
  5
17431
  8
0
 10
290.60930274420002
 20
158.429987356
 30
0.0
  0
VERTEX
  5
17432
  8
0
 10
290.7498504966
 20
159.2792157083
 30
0.0
  0
VERTEX
  5
17433
  8
0
 10
290.96640162170002
 20
160.2834890131
 30
0.0
  0
VERTEX
  5
17434
  8
0
 10
291.28828160459989
 20
161.3691613078
 30
0.0
  0
VERTEX
  5
17435
  8
0
 10
291.78847633300001
 20
162.46334053570001
 30
0.0
  0
VERTEX
  5
17436
  8
0
 10
292.1519380063001
 20
162.948388292
 30
0.0
  0
VERTEX
  5
17437
  8
0
 10
292.3711266368
 20
163.14091001400001
 30
0.0
  0
VERTEX
  5
17438
  8
0
 10
292.6221590488999
 20
163.26903048899999
 30
0.0
  0
VERTEX
  5
17439
  8
0
 10
292.90031157430002
 20
163.3176877862
 30
0.0
  0
VERTEX
  5
1743A
  8
0
 10
293.17990206180002
 20
163.28703778560001
 30
0.0
  0
VERTEX
  5
1743B
  8
0
 10
293.44021789729999
 20
163.17723147800001
 30
0.0
  0
VERTEX
  5
1743C
  8
0
 10
293.68268959219989
 20
163.00651940980001
 30
0.0
  0
VERTEX
  5
1743D
  8
0
 10
294.48130987579998
 20
162.12184829629999
 30
0.0
  0
VERTEX
  5
1743E
  8
0
 10
295.04750184710002
 20
161.15593244319999
 30
0.0
  0
VERTEX
  5
1743F
  8
0
 10
295.49245052039998
 20
160.2777879219
 30
0.0
  0
VERTEX
  5
17440
  8
0
 10
295.82225792109989
 20
159.54065797850001
 30
0.0
  0
VERTEX
  5
17441
  8
0
 10
296.0466321557999
 20
159.0078613721
 30
0.0
  0
VERTEX
  5
17442
  8
0
 10
296.17584012449993
 20
158.69617471469999
 30
0.0
  0
VERTEX
  5
17443
  8
0
 10
296.21204249558008
 20
158.6089605465103
 30
0.0
  0
SEQEND
  5
17444
  8
0
  0
ARC
  5
16492
  8
0
 10
290.3411618159999
 20
157.29411790040001
 30
0.0
 40
0.1999763451996649
 50
269.98562538309949
 51
1.002030567099881
  0
ARC
  5
16493
  8
0
 10
263.9580276710999
 20
169.88384034250001
 30
0.0
 40
1.315362377683672
 50
77.568214082001774
 51
144.22285895659911
  0
ARC
  5
16494
  8
0
 10
250.01498918940001
 20
179.65647522730001
 30
0.0
 40
0.2000659440130553
 50
21.979213196826709
 51
94.409898156516377
  0
POLYLINE
  5
16495
  8
0
 66
     1
 10
0.0
 20
0.0
 30
0.0
 70
   128
  0
VERTEX
  5
17445
  8
0
 10
258.2368876784721
 20
180.42817767701729
 30
0.0
  0
VERTEX
  5
17446
  8
0
 10
258.17352794110002
 20
180.17798159270001
 30
0.0
  0
VERTEX
  5
17447
  8
0
 10
258.16069059069991
 20
179.848809354
 30
0.0
  0
VERTEX
  5
17448
  8
0
 10
258.14108066260002
 20
179.3230889365
 30
0.0
  0
VERTEX
  5
17449
  8
0
 10
258.11505950989999
 20
178.6391135305
 30
0.0
  0
VERTEX
  5
1744A
  8
0
 10
258.03401209409992
 20
176.92546881729999
 30
0.0
  0
VERTEX
  5
1744B
  8
0
 10
257.89036117489991
 20
174.9151969328
 30
0.0
  0
VERTEX
  5
1744C
  8
0
 10
257.65417031940001
 20
172.75051642209999
 30
0.0
  0
VERTEX
  5
1744D
  8
0
 10
257.27223865690002
 20
170.55911533529999
 30
0.0
  0
VERTEX
  5
1744E
  8
0
 10
256.98852054769998
 20
169.47912061580001
 30
0.0
  0
SEQEND
  5
1744F
  8
0
  0
ARC
  5
16496
  8
0
 10
292.69327879389988
 20
184.64696420019999
 30
0.0
 40
42.776141249008688
 50
186.5987088980539
 51
196.65151351609839
  0
LINE
  5
1649E
  8
0
 10
290.53238295019992
 20
157.80514534560001
 30
0.0
 11
290.5412118882
 21
157.29762157420001
 31
0.0
  0
LINE
  5
1649F
  8
0
 10
290.5412118882
 20
157.29761924589999
 30
0.0
 11
290.54110758000002
 21
157.29761878030001
 31
0.0
  0
POLYLINE
  5
164A1
  8
0
 66
     1
 10
0.0
 20
0.0
 30
0.0
 70
   128
  0
VERTEX
  5
17450
  8
0
 10
256.98852054769998
 20
169.47912061580001
 30
0.0
  0
VERTEX
  5
17451
  8
0
 10
256.83997087180001
 20
169.09887650979999
 30
0.0
  0
VERTEX
  5
17452
  8
0
 10
256.35004676879998
 20
168.15403532229999
 30
0.0
  0
VERTEX
  5
17453
  8
0
 10
255.94192445280001
 20
167.6913863979
 30
0.0
  0
VERTEX
  5
17454
  8
0
 10
255.5623937398
 20
167.45739905159999
 30
0.0
  0
VERTEX
  5
17455
  8
0
 10
255.21251633759999
 20
167.37277372739999
 30
0.0
  0
VERTEX
  5
17456
  8
0
 10
254.85093779859989
 20
167.40385941229999
 30
0.0
  0
VERTEX
  5
17457
  8
0
 10
254.41134981810001
 20
167.58695812889999
 30
0.0
  0
VERTEX
  5
17458
  8
0
 10
253.7773687392
 20
168.12643557780001
 30
0.0
  0
VERTEX
  5
17459
  8
0
 10
253.24112996459999
 20
168.83865427219999
 30
0.0
  0
VERTEX
  5
1745A
  8
0
 10
252.7888424693999
 20
169.63770482690001
 30
0.0
  0
VERTEX
  5
1745B
  8
0
 10
252.13886685669991
 20
171.1259080097
 30
0.0
  0
VERTEX
  5
1745C
  8
0
 10
251.7968218773
 20
172.13655598459999
 30
0.0
  0
SEQEND
  5
1745D
  8
0
  0
LINE
  5
164AD
  8
0
 10
250.30803434070191
 20
178.8772750579856
 30
0.0
 11
258.14713425929989
 21
179.4853346422
 31
0.0
  0
ARC
  5
164BB
  8
0
 10
246.31887986140001
 20
161.74200319939999
 30
0.0
 40
0.1999991763737615
 50
180.7195083457996
 51
270.7730791826998
  0
ARC
  5
164BD
  8
0
 10
246.09763636459991
 20
179.35308831099999
 30
0.0
 40
0.2000000000000228
 50
94.435410322298395
 51
180.71975424269991
  0
ARC
  5
164C2
  8
0
 10
288.5023983131
 20
158.57350829489999
 30
0.0
 40
2.4051294596866701
 50
327.96172431390079
 51
349.0540514517877
  0
ARC
  5
164C5
  8
0
 10
269.81568490576637
 20
165.56752473716421
 30
0.0
 40
11.603648729380501
 50
333.03481616691721
 51
336.9989866582971
  0
ARC
  5
164C7
  8
0
 10
279.96677867900002
 20
160.3650742145
 30
0.0
 40
0.199998432158107
 50
253.21778617339729
 51
342.7786687001996
  0
ARC
  5
164C8
  8
0
 10
290.34144337729992
 20
157.29395352220001
 30
0.0
 40
0.1998021835284949
 50
270.00742590290002
 51
1.051918956699653
  0
ARC
  5
164C9
  8
0
 10
170.9475375712
 20
164.65546574550001
 30
0.0
 40
11.24565873688492
 50
59.734176714796497
 51
120.2658232852035
  0
ARC
  5
164CB
  8
0
 10
170.9475375712
 20
163.6554601343
 30
0.0
 40
11.245664246028021
 50
59.734193094299542
 51
120.2658069057004
  0
ARC
  5
164CD
  8
0
 10
179.47848928959999
 20
175.4066533578
 30
0.0
 40
3.5144905111808118
 50
215.44950180849949
 51
255.76986337390059
  0
LINE
  5
164CE
  8
0
 10
160.9475415200001
 20
172.00000081210001
 30
0.0
 11
180.94753734769989
 21
172.00000081210001
 31
0.0
  0
ARC
  5
164CF
  8
0
 10
162.64854049819991
 20
175.06776758340001
 30
0.0
 40
3.132184695671218
 50
281.64030766359753
 51
327.14042668630191
  0
ARC
  5
164D0
  8
0
 10
178.9745894406
 20
181.56364189929999
 30
0.0
 40
7.5722052198942764
 50
251.84750556510019
 51
267.27482891460022
  0
ARC
  5
164D3
  8
0
 10
162.90178589199991
 20
181.66513782440001
 30
0.0
 40
7.6744881360183941
 50
272.82862197659819
 51
288.0490815941028
  0
LINE
  5
164D5
  8
0
 10
178.6145668476999
 20
174.0000002086
 30
0.0
 11
178.94754074510001
 21
174.0000002086
 31
0.0
  0
LINE
  5
164D7
  8
0
 10
162.94753812249991
 20
174.0000002086
 30
0.0
 11
163.28051201999989
 21
174.0000002086
 31
0.0
  0
ARC
  5
164D8
  8
0
 10
170.9475375712
 20
196.3445349399
 30
0.0
 40
11.2456587368849
 50
239.73417671479649
 51
300.26582328520351
  0
ARC
  5
164DA
  8
0
 10
170.9475375712
 20
197.34453510380001
 30
0.0
 40
11.2456587368849
 50
239.73417671479649
 51
300.26582328520351
  0
ARC
  5
164DC
  8
0
 10
179.24650472650001
 20
185.93227393430001
 30
0.0
 40
3.1321379151955009
 50
101.6398556013025
 51
147.14074286230189
  0
ARC
  5
164DE
  8
0
 10
178.99321730599991
 20
179.33523015099999
 30
0.0
 40
7.6741166293520404
 50
92.828193376399554
 51
108.0494205110015
  0
ARC
  5
164DF
  8
0
 10
162.4165754574
 20
185.5933331048
 30
0.0
 40
3.514507768606089
 50
35.449604772500827
 51
75.769697231599011
  0
ARC
  5
164E1
  8
0
 10
162.92049932829991
 20
179.43641726429999
 30
0.0
 40
7.5721454068694118
 50
71.847465686198021
 51
87.274882375998033
  0
LINE
  5
164E3
  8
0
 10
180.94753734769989
 20
188.9999998733
 30
0.0
 11
160.9475415199999
 21
188.9999998733
 31
0.0
  0
LINE
  5
164E4
  8
0
 10
178.94754074510001
 20
186.9999995455
 30
0.0
 11
178.6145668476999
 21
186.9999995455
 31
0.0
  0
LINE
  5
164E6
  8
0
 10
163.28051201999989
 20
186.9999995455
 30
0.0
 11
162.94753812249991
 21
186.9999995455
 31
0.0
  0
ARC
  5
164FD
  8
0
 10
170.82669564289989
 20
195.22449299249999
 30
0.0
 40
6.2256660537537316
 50
271.11221417860321
 51
298.88779452600249
  0
ARC
  5
164FE
  8
0
 10
171.10787947060001
 20
195.37190961909999
 30
0.0
 40
6.3739267909112227
 50
241.44149078539931
 51
268.55853747940222
  0
LINE
  5
164FF
  8
0
 10
168.06078590449999
 20
193.07649750260001
 30
0.0
 11
168.06078590449999
 21
189.7735023871
 31
0.0
  0
ARC
  5
16500
  8
0
 10
171.06835486549991
 20
187.62559825049999
 30
0.0
 40
6.2255741671822271
 50
91.111969548599632
 51
118.88800218659721
  0
ARC
  5
16501
  8
0
 10
170.78720747829991
 20
187.47813510540001
 30
0.0
 40
6.3738817669961341
 50
61.441391333703557
 51
88.558599961602226
  0
LINE
  5
16502
  8
0
 10
173.83428923779999
 20
193.07649750260001
 30
0.0
 11
173.83428923779999
 21
189.7735023871
 31
0.0
  0
ARC
  5
16503
  8
0
 10
175.42869269749991
 20
191.83473828449999
 30
0.0
 40
2.02091275122002
 50
94.285766409498365
 51
142.0876958179
  0
ARC
  5
16505
  8
0
 10
175.4780836425999
 20
191.10742657340001
 30
0.0
 40
2.11693499664523
 50
219.059015031401
 51
264.56752274119771
  0
ARC
  5
16506
  8
0
 10
166.41699566209991
 20
191.7425820487
 30
0.0
 40
2.1169262620597711
 50
39.058902496201902
 51
84.567512143698067
  0
ARC
  5
16508
  8
0
 10
166.46637372640001
 20
191.0152771466
 30
0.0
 40
2.0209291791403241
 50
274.28608528930249
 51
322.0875000709006
  0
ARC
  5
16509
  8
0
 10
175.1266216757999
 20
191.01529377910001
 30
0.0
 40
2.020946431224218
 50
274.2863020414984
 51
322.0872833187014
  0
ARC
  5
1650A
  8
0
 10
175.0772525248
 20
191.7425820487
 30
0.0
 40
2.1169262620597711
 50
39.058902496201902
 51
84.567512143698067
  0
LINE
  5
1650B
  8
0
 10
176.72104276709999
 20
193.07649750260001
 30
0.0
 11
176.72104276709999
 21
189.7735023871
 31
0.0
  0
ARC
  5
1650C
  8
0
 10
166.81783215830001
 20
191.1074286926
 30
0.0
 40
2.1169376155570441
 50
219.05903137940021
 51
264.56738326039869
  0
LINE
  5
1650D
  8
0
 10
165.1740361004999
 20
189.7735023871
 30
0.0
 11
165.1740361004999
 21
193.07649750260001
 31
0.0
  0
ARC
  5
1650E
  8
0
 10
166.7684409858999
 20
191.83473635140001
 30
0.0
 40
2.020915063813836
 50
94.285907943699584
 51
142.08767741639679
  0
LINE
  5
16510
  8
0
 10
175.94753839069989
 20
193.8500000164
 30
0.0
 11
165.94754047689989
 21
193.8500000164
 31
0.0
  0
LINE
  5
16511
  8
0
 10
173.94753806289989
 20
195.50000000739999
 30
0.0
 11
167.9475408047
 21
195.50000000739999
 31
0.0
  0
LINE
  5
16513
  8
0
 10
173.44754077489989
 20
196.00000102070001
 30
0.0
 11
168.44753809269989
 21
196.00000102070001
 31
0.0
  0
LINE
  5
16514
  8
0
 10
176.1090225163999
 20
163.00000043140821
 30
0.0
 11
165.78719653190001
 21
163.0000004428
 31
0.0
  0
LINE
  5
16517
  8
0
 10
165.8390600233999
 20
150.0
 30
0.0
 11
176.05715079389989
 21
150.0000004314
 31
0.0
  0
CIRCLE
  5
16518
  8
0
 10
206.19999908159991
 20
181.29000043139999
 30
0.0
 40
3.9999999999999911
  0
CIRCLE
  5
16519
  8
0
 10
221.40999908159989
 20
169.08729991070001
 30
0.0
 40
3.9999999999999818
  0
CIRCLE
  5
1651A
  8
0
 10
235.5786957496
 20
159.6932573979
 30
0.0
 40
3.9999999999999951
  0
CIRCLE
  5
1651B
  8
0
 10
206.19999908159991
 20
166.29000043139999
 30
0.0
 40
4.0000000000000151
  0
LINE
  5
1651C
  8
0
 10
212.49999925489999
 20
169.18434537940001
 30
0.0
 11
216.21054299170001
 21
166.2074447144
 31
0.0
  0
LINE
  5
1651D
  8
0
 10
224.6904108171
 20
178.17689906800001
 30
0.0
 11
212.49999925489999
 21
183.67602173239999
 31
0.0
  0
ARC
  5
1651E
  8
0
 10
230.85841237369991
 20
191.85007600739999
 30
0.0
 40
15.0
 50
245.71975424270201
 51
270.7197542426992
  0
LINE
  5
1651F
  8
0
 10
245.92670127749989
 20
177.03819144510001
 30
0.0
 11
231.0468384996
 21
176.85125917190001
 31
0.0
  0
LINE
  5
16520
  8
0
 10
241.3917675614
 20
163.98019441689999
 30
0.0
 11
246.0900049656
 21
164.03921714520001
 31
0.0
  0
LINE
  5
16522
  8
0
 10
239.1311459243
 20
164.23694484399999
 30
0.0
 11
224.21234210489999
 21
174.1283187642
 31
0.0
  0
LINE
  5
16523
  8
0
 10
217.8575487807
 20
164.54361242940001
 30
0.0
 11
232.77635294940001
 21
154.6522384509
 31
0.0
  0
ARC
  5
16524
  8
0
 10
221.03494534629999
 20
169.3359657419
 30
0.0
 40
5.7499999999999956
 50
56.455069525998503
 51
236.45506952599851
  0
ARC
  5
16525
  8
0
 10
235.9537494848999
 20
159.4445915666
 30
0.0
 40
5.7500000000000133
 50
236.45506952599851
 51
56.455069525998503
  0
ARC
  5
16526
  8
0
 10
205.99999908160001
 20
167.0000004314
 30
0.0
 40
6.5
 50
180.0
 51
0.0
  0
LINE
  5
16527
  8
0
 10
199.49999898670001
 20
171.0000006482
 30
0.0
 11
199.49999898670001
 21
167.00000045819999
 31
0.0
  0
ARC
  5
16528
  8
0
 10
196.49999908160001
 20
171.0000004314
 30
0.0
 40
3.0
 50
0.0
 51
90.0
  0
LINE
  5
16529
  8
0
 10
147.99999706449989
 20
174.0000002086
 30
0.0
 11
162.94753812249991
 21
174.0000002086
 31
0.0
  0
LINE
  5
1652A
  8
0
 10
178.94754074510001
 20
174.0000002086
 30
0.0
 11
196.499998495
 21
174.0000002086
 31
0.0
  0
LINE
  5
1652B
  8
0
 10
210.49999892709991
 20
186.9999995455
 30
0.0
 11
178.94754074510001
 21
186.9999995455
 31
0.0
  0
LINE
  5
1652C
  8
0
 10
162.94753812249991
 20
186.9999995455
 30
0.0
 11
147.99999706449989
 21
186.9999995455
 31
0.0
  0
LINE
  5
1652D
  8
0
 10
212.49999925489999
 20
167.00000045819999
 30
0.0
 11
212.49999925489999
 21
185.0000010803
 31
0.0
  0
ARC
  5
1652E
  8
0
 10
210.49999908160001
 20
185.0000004314
 30
0.0
 40
2.0
 50
0.0
 51
90.0
  0
LINE
  5
1652F
  8
0
 10
147.99999706450001
 20
186.9999995455
 30
0.0
 11
147.99999706450001
 21
174.0000002086
 31
0.0
  0
LINE
  5
16535
  8
0
 10
241.9999994337
 20
153.00000049170001
 30
0.0
 11
200.00000000000011
 21
153.00000049170001
 31
0.0
  0
LINE
  5
16536
  8
0
 10
200.0
 20
150.0
 30
0.0
 11
241.9999994337
 21
150.0
 31
0.0
  0
LINE
  5
1653A
  8
0
 10
200.0
 20
153.200000152
 30
0.0
 11
200.0
 21
153.00000049170001
 31
0.0
  0
LINE
  5
1653B
  8
0
 10
241.9999994337
 20
153.00000049170001
 30
0.0
 11
241.9999994337
 21
153.200000152
 31
0.0
  0
LINE
  5
1653C
  8
0
 10
212.4736148863999
 20
166.41493546769999
 30
0.0
 11
213.6278299615
 21
159.8690558225
 31
0.0
  0
ARC
  5
1653D
  8
0
 10
216.58225309720001
 20
160.39000043140001
 30
0.0
 40
3.0
 50
190.0000000000002
 51
270.0
  0
LINE
  5
1653E
  8
0
 10
216.58225338899999
 20
157.3900003917
 30
0.0
 11
226.43015596549989
 21
157.3900003917
 31
0.0
  0
ARC
  5
1653F
  8
0
 10
226.43015601100001
 20
160.39000043140001
 30
0.0
 40
3.0
 50
270.0
 51
301.29799005860377
  0
ARC
  5
16540
  8
0
 10
236.99999908160001
 20
161.5900004314
 30
0.0
 40
5.0000000000000284
 50
0.0
 51
103.86479205870241
  0
LINE
  5
16541
  8
0
 10
200.0
 20
150.0
 30
0.0
 11
200.0
 21
164.50000045589999
 31
0.0
  0
LINE
  5
16542
  8
0
 10
241.9999994337
 20
161.59000047480001
 30
0.0
 11
241.9999994337
 21
150.0
 31
0.0
  0
POLYLINE
  5
16546
  8
0
 66
     1
 10
0.0
 20
0.0
 30
0.0
 70
   128
  0
VERTEX
  5
1745E
  8
0
 10
286.20007149870003
 20
157.85522349179999
 30
0.0
  0
VERTEX
  5
1745F
  8
0
 10
286.14790253339987
 20
157.975241635
 30
0.0
  0
VERTEX
  5
17460
  8
0
 10
286.06800250709989
 20
158.3989361301
 30
0.0
  0
VERTEX
  5
17461
  8
0
 10
285.9357323497
 20
159.09406691789999
 30
0.0
  0
VERTEX
  5
17462
  8
0
 10
285.75676195319988
 20
160.0025841966
 30
0.0
  0
VERTEX
  5
17463
  8
0
 10
285.52868477999999
 20
161.0642127692
 30
0.0
  0
VERTEX
  5
17464
  8
0
 10
285.1937327533999
 20
162.2078378917
 30
0.0
  0
VERTEX
  5
17465
  8
0
 10
284.70969460900011
 20
163.38571996889999
 30
0.0
  0
VERTEX
  5
17466
  8
0
 10
284.3741986899999
 20
163.9536492643
 30
0.0
  0
VERTEX
  5
17467
  8
0
 10
283.92121456559988
 20
164.45025351129999
 30
0.0
  0
VERTEX
  5
17468
  8
0
 10
283.64093489940001
 20
164.64118668809999
 30
0.0
  0
VERTEX
  5
17469
  8
0
 10
283.3204966038
 20
164.76432953490001
 30
0.0
  0
VERTEX
  5
1746A
  8
0
 10
282.97937549649998
 20
164.79111122899999
 30
0.0
  0
VERTEX
  5
1746B
  8
0
 10
282.64711312949999
 20
164.72772203849999
 30
0.0
  0
VERTEX
  5
1746C
  8
0
 10
282.0840094237999
 20
164.40044702029999
 30
0.0
  0
VERTEX
  5
1746D
  8
0
 10
281.64873160420001
 20
163.94972261909999
 30
0.0
  0
VERTEX
  5
1746E
  8
0
 10
281.01172558960002
 20
162.97429914119999
 30
0.0
  0
VERTEX
  5
1746F
  8
0
 10
280.55376447739991
 20
162.0535789756
 30
0.0
  0
VERTEX
  5
17470
  8
0
 10
280.22953383620001
 20
161.26354001460001
 30
0.0
  0
VERTEX
  5
17471
  8
0
 10
280.02272434529999
 20
160.66727144640001
 30
0.0
  0
VERTEX
  5
17472
  8
0
 10
279.91814427079998
 20
160.29926934279999
 30
0.0
  0
VERTEX
  5
17473
  8
0
 10
279.90895397960003
 20
160.17361669799999
 30
0.0
  0
SEQEND
  5
17474
  8
0
  0
LINE
  5
16559
  8
0
 10
178.38749550279999
 20
158.15011374650001
 30
0.0
 11
163.50758336480001
 21
158.15011374650001
 31
0.0
  0
LINE
  5
1655A
  8
0
 10
178.4083265786021
 20
157.84315075719999
 30
0.0
 11
163.48675154150001
 21
157.84315075719999
 31
0.0
  0
LINE
  5
16571
  8
0
 10
252.64274217190001
 20
281.24683052289998
 30
0.0
 11
249.1124726831091
 21
281.1035418882164
 31
0.0
  0
POLYLINE
  5
16578
  8
0
 66
     1
 10
0.0
 20
0.0
 30
0.0
 70
   128
  0
VERTEX
  5
17475
  8
0
 10
257.71069414909988
 20
280.4719612932999
 30
0.0
  0
VERTEX
  5
17476
  8
0
 10
255.3449783474
 20
280.37567418060002
 30
0.0
  0
VERTEX
  5
17477
  8
0
 10
252.54023149610001
 20
280.26175294059999
 30
0.0
  0
SEQEND
  5
17478
  8
0
  0
ARC
  5
1657A
  8
0
 10
202.39999908159999
 20
266.69900222439992
 30
0.0
 40
0.2000000000000171
 50
180.0
 51
270.0
  0
ARC
  5
1657B
  8
0
 10
209.99999908160001
 20
266.69900222439992
 30
0.0
 40
0.2000000000000171
 50
270.0
 51
0.0
  0
ARC
  5
1657C
  8
0
 10
203.19999908159991
 20
279.99900222439999
 30
0.0
 40
1.0
 50
90.0
 51
180.0
  0
ARC
  5
1657D
  8
0
 10
209.19999908159991
 20
279.99900222439999
 30
0.0
 40
1.0
 50
0.0
 51
90.0
  0
LINE
  5
1657E
  8
0
 10
209.19999927279989
 20
280.9990023261999
 30
0.0
 11
203.1999982893
 21
280.9990023261999
 31
0.0
  0
LINE
  5
1657F
  8
0
 10
210.19999943670001
 20
266.69900286939992
 30
0.0
 11
210.19999943670001
 21
267.99900252359998
 31
0.0
  0
LINE
  5
16580
  8
0
 10
202.19999998809999
 20
267.99900252359998
 30
0.0
 11
202.19999998809999
 21
266.69900286939992
 31
0.0
  0
ARC
  5
16581
  8
0
 10
217.60999908159999
 20
266.69900222439992
 30
0.0
 40
0.2000000000000171
 50
180.0
 51
270.0
  0
ARC
  5
16582
  8
0
 10
225.20999908159999
 20
266.69900222439992
 30
0.0
 40
0.2000000000000171
 50
270.0
 51
0.0
  0
ARC
  5
16583
  8
0
 10
218.40999908160001
 20
279.99900222439999
 30
0.0
 40
1.0
 50
90.0
 51
180.0
  0
ARC
  5
16584
  8
0
 10
224.40999908160001
 20
279.99900222439999
 30
0.0
 40
1.0
 50
0.0
 51
90.0
  0
LINE
  5
16585
  8
0
 10
224.4099990814
 20
280.9990023261999
 30
0.0
 11
218.40999908739991
 21
280.9990023261999
 31
0.0
  0
LINE
  5
16586
  8
0
 10
225.4099990707
 20
266.69900286939992
 30
0.0
 11
225.4099990707
 21
267.99900252359998
 31
0.0
  0
LINE
  5
16587
  8
0
 10
217.40999892350001
 20
267.99900252359998
 30
0.0
 11
217.40999892350001
 21
266.69900286939992
 31
0.0
  0
ARC
  5
16588
  8
0
 10
231.7786957495999
 20
266.69900222439992
 30
0.0
 40
0.2000000000000171
 50
180.0
 51
270.0
  0
ARC
  5
16589
  8
0
 10
239.37869574960001
 20
266.69900222439992
 30
0.0
 40
0.2000000000000171
 50
270.0
 51
0.0
  0
ARC
  5
1658A
  8
0
 10
232.5786957496
 20
279.99900222439999
 30
0.0
 40
1.0
 50
90.0
 51
180.0
  0
ARC
  5
1658B
  8
0
 10
238.5786957496
 20
279.99900222439999
 30
0.0
 40
1.0
 50
0.0
 51
90.0
  0
LINE
  5
1658C
  8
0
 10
238.57869561760009
 20
280.9990023261999
 30
0.0
 11
232.5786955653999
 21
280.9990023261999
 31
0.0
  0
LINE
  5
1658D
  8
0
 10
239.5786957814999
 20
266.69900286939992
 30
0.0
 11
239.5786957814999
 21
267.99900252359998
 31
0.0
  0
LINE
  5
1658E
  8
0
 10
231.57869586719991
 20
267.99900252359998
 30
0.0
 11
231.57869586719991
 21
266.69900286939992
 31
0.0
  0
LINE
  5
16591
  8
0
 10
215.28494525699989
 20
270.99900301539998
 30
0.0
 11
215.28494525699989
 21
267.99900252359998
 31
0.0
  0
LINE
  5
16592
  8
0
 10
241.70374944799991
 20
267.99900252359998
 30
0.0
 11
241.70374944799991
 21
270.99900301539998
 31
0.0
  0
LINE
  5
16593
  8
0
 10
215.28494525699989
 20
279.99900262800003
 30
0.0
 11
215.28494525699989
 21
276.99900213620009
 31
0.0
  0
LINE
  5
16594
  8
0
 10
241.70374944799991
 20
276.99900213620009
 30
0.0
 11
241.70374944799991
 21
279.99900262800003
 31
0.0
  0
POLYLINE
  5
165B4
  8
0
 66
     1
 10
0.0
 20
0.0
 30
0.0
 70
   128
  0
VERTEX
  5
17479
  8
0
 10
298.78781251610002
 20
280.16785420470001
 30
0.0
  0
VERTEX
  5
1747A
  8
0
 10
298.48590008909991
 20
280.31889330590002
 30
0.0
  0
VERTEX
  5
1747B
  8
0
 10
298.21608476339998
 20
280.50895854819998
 30
0.0
  0
VERTEX
  5
1747C
  8
0
 10
298.00402633840002
 20
280.72361396619999
 30
0.0
  0
VERTEX
  5
1747D
  8
0
 10
297.88884036239989
 20
280.91993769620001
 30
0.0
  0
VERTEX
  5
1747E
  8
0
 10
297.86569140850003
 20
281.10187482079988
 30
0.0
  0
VERTEX
  5
1747F
  8
0
 10
297.95208089049987
 20
281.23363228509987
 30
0.0
  0
VERTEX
  5
17480
  8
0
 10
298.12531433999999
 20
281.30316855379999
 30
0.0
  0
VERTEX
  5
17481
  8
0
 10
298.3858313410999
 20
281.30945637809998
 30
0.0
  0
VERTEX
  5
17482
  8
0
 10
298.68274442849997
 20
281.24510617919998
 30
0.0
  0
VERTEX
  5
17483
  8
0
 10
298.78185205160003
 20
281.21104491869988
 30
0.0
  0
VERTEX
  5
17484
  8
0
 10
299.09184090790001
 20
281.06557466079988
 30
0.0
  0
VERTEX
  5
17485
  8
0
 10
299.36643205579998
 20
280.87335899459993
 30
0.0
  0
VERTEX
  5
17486
  8
0
 10
299.56678561859991
 20
280.66656300789998
 30
0.0
  0
VERTEX
  5
17487
  8
0
 10
299.6889378875
 20
280.44687332580003
 30
0.0
  0
VERTEX
  5
17488
  8
0
 10
299.69943575560001
 20
280.27104567729998
 30
0.0
  0
VERTEX
  5
17489
  8
0
 10
299.61580298839999
 20
280.13949077569998
 30
0.0
  0
VERTEX
  5
1748A
  8
0
 10
299.43170659239991
 20
280.06296958770002
 30
0.0
  0
VERTEX
  5
1748B
  8
0
 10
299.18261878189992
 20
280.0622748209999
 30
0.0
  0
VERTEX
  5
1748C
  8
0
 10
298.87765906750002
 20
280.13443462539999
 30
0.0
  0
VERTEX
  5
1748D
  8
0
 10
298.78781251610002
 20
280.16785420470001
 30
0.0
  0
SEQEND
  5
1748E
  8
0
  0
POLYLINE
  5
165B5
  8
0
 66
     1
 10
0.0
 20
0.0
 30
0.0
 70
   128
  0
VERTEX
  5
1748F
  8
0
 10
289.74399976429987
 20
279.040733166
 30
0.0
  0
VERTEX
  5
17490
  8
0
 10
289.35477398329999
 20
279.0846468879999
 30
0.0
  0
VERTEX
  5
17491
  8
0
 10
289.0698637813
 20
279.20700125389999
 30
0.0
  0
VERTEX
  5
17492
  8
0
 10
288.86364661160002
 20
279.39351536330003
 30
0.0
  0
VERTEX
  5
17493
  8
0
 10
288.76413665709993
 20
279.59944289169999
 30
0.0
  0
VERTEX
  5
17494
  8
0
 10
288.76513503489991
 20
279.83145210879991
 30
0.0
  0
VERTEX
  5
17495
  8
0
 10
288.88025395570003
 20
280.03879245360002
 30
0.0
  0
VERTEX
  5
17496
  8
0
 10
289.08707462249993
 20
280.2063671871
 30
0.0
  0
VERTEX
  5
17497
  8
0
 10
289.38433788709989
 20
280.33066429190001
 30
0.0
  0
VERTEX
  5
17498
  8
0
 10
289.7096004336999
 20
280.38599137210002
 30
0.0
  0
VERTEX
  5
17499
  8
0
 10
289.77166377010002
 20
280.3893730044
 30
0.0
  0
VERTEX
  5
1749A
  8
0
 10
290.15983156859988
 20
280.3589373826
 30
0.0
  0
VERTEX
  5
1749B
  8
0
 10
290.44600091869989
 20
280.25909680869989
 30
0.0
  0
VERTEX
  5
1749C
  8
0
 10
290.65161459149999
 20
280.10531682509998
 30
0.0
  0
VERTEX
  5
1749D
  8
0
 10
290.75899235899999
 20
279.89816926409998
 30
0.0
  0
VERTEX
  5
1749E
  8
0
 10
290.74797295029998
 20
279.69132997089997
 30
0.0
  0
VERTEX
  5
1749F
  8
0
 10
290.63879214230002
 20
279.47415206570003
 30
0.0
  0
VERTEX
  5
174A0
  8
0
 10
290.42068384589987
 20
279.26563546049999
 30
0.0
  0
VERTEX
  5
174A1
  8
0
 10
290.13319574289989
 20
279.11839801809992
 30
0.0
  0
VERTEX
  5
174A2
  8
0
 10
289.79048393659991
 20
279.04356718060001
 30
0.0
  0
VERTEX
  5
174A3
  8
0
 10
289.74399976429987
 20
279.040733166
 30
0.0
  0
SEQEND
  5
174A4
  8
0
  0
POLYLINE
  5
165B6
  8
0
 66
     1
 10
0.0
 20
0.0
 30
0.0
 70
   128
  0
VERTEX
  5
174A5
  8
0
 10
295.83605639629991
 20
282.27191073810002
 30
0.0
  0
VERTEX
  5
174A6
  8
0
 10
295.50638310609997
 20
282.31199532739993
 30
0.0
  0
VERTEX
  5
174A7
  8
0
 10
295.20923905069998
 20
282.36930333069989
 30
0.0
  0
VERTEX
  5
174A8
  8
0
 10
294.96999345720002
 20
282.4402747675
 30
0.0
  0
VERTEX
  5
174A9
  8
0
 10
294.83576379710001
 20
282.51174166790003
 30
0.0
  0
VERTEX
  5
174AA
  8
0
 10
294.79958377780002
 20
282.58739439760001
 30
0.0
  0
VERTEX
  5
174AB
  8
0
 10
294.88346241409999
 20
282.65867549919989
 30
0.0
  0
VERTEX
  5
174AC
  8
0
 10
295.0698759407
 20
282.71649619559992
 30
0.0
  0
VERTEX
  5
174AD
  8
0
 10
295.350889489
 20
282.75702036910002
 30
0.0
  0
VERTEX
  5
174AE
  8
0
 10
295.65980546169999
 20
282.76896458110002
 30
0.0
  0
VERTEX
  5
174AF
  8
0
 10
295.75965814289998
 20
282.76713732619999
 30
0.0
  0
VERTEX
  5
174B0
  8
0
 10
296.09201364220002
 20
282.74122001599989
 30
0.0
  0
VERTEX
  5
174B1
  8
0
 10
296.39034233989992
 20
282.68489921460002
 30
0.0
  0
VERTEX
  5
174B2
  8
0
 10
296.61013446750002
 20
282.60988444079999
 30
0.0
  0
VERTEX
  5
174B3
  8
0
 10
296.75933234389993
 20
282.51440571609999
 30
0.0
  0
VERTEX
  5
174B4
  8
0
 10
296.7942606658001
 20
282.41959800939998
 30
0.0
  0
VERTEX
  5
174B5
  8
0
 10
296.71376459299989
 20
282.3374520987
 30
0.0
  0
VERTEX
  5
174B6
  8
0
 10
296.52024321260001
 20
282.28135295200002
 30
0.0
  0
VERTEX
  5
174B7
  8
0
 10
296.26433067020002
 20
282.25912973280009
 30
0.0
  0
VERTEX
  5
174B8
  8
0
 10
295.94254754479999
 20
282.26426830510002
 30
0.0
  0
VERTEX
  5
174B9
  8
0
 10
295.88952921330002
 20
282.26773375639999
 30
0.0
  0
VERTEX
  5
174BA
  8
0
 10
295.83605639629991
 20
282.27191073810002
 30
0.0
  0
SEQEND
  5
174BB
  8
0
  0
POLYLINE
  5
165B7
  8
0
 66
     1
 10
0.0
 20
0.0
 30
0.0
 70
   128
  0
VERTEX
  5
174BC
  8
0
 10
295.78496776520001
 20
278.90373375259992
 30
0.0
  0
VERTEX
  5
174BD
  8
0
 10
295.4579617828
 20
279.0065294131
 30
0.0
  0
VERTEX
  5
174BE
  8
0
 10
295.17238102850001
 20
279.17778845869998
 30
0.0
  0
VERTEX
  5
174BF
  8
0
 10
294.95644085110001
 20
279.4045794754
 30
0.0
  0
VERTEX
  5
174C0
  8
0
 10
294.84705887730001
 20
279.6405663713
 30
0.0
  0
VERTEX
  5
174C1
  8
0
 10
294.83982436359997
 20
279.88885231310002
 30
0.0
  0
VERTEX
  5
174C2
  8
0
 10
294.95015256099998
 20
280.10116592039998
 30
0.0
  0
VERTEX
  5
174C3
  8
0
 10
295.15191428360009
 20
280.2550157531
 30
0.0
  0
VERTEX
  5
174C4
  8
0
 10
295.4438131302
 20
280.34785464399999
 30
0.0
  0
VERTEX
  5
174C5
  8
0
 10
295.7648586482
 20
280.35630546499999
 30
0.0
  0
VERTEX
  5
174C6
  8
0
 10
295.86599282920002
 20
280.34350909289998
 30
0.0
  0
VERTEX
  5
174C7
  8
0
 10
296.19429521260003
 20
280.25204855940001
 30
0.0
  0
VERTEX
  5
174C8
  8
0
 10
296.48120217019999
 20
280.0885567441
 30
0.0
  0
VERTEX
  5
174C9
  8
0
 10
296.68710641559989
 20
279.88195866339998
 30
0.0
  0
VERTEX
  5
174CA
  8
0
 10
296.81105427440002
 20
279.62815649800001
 30
0.0
  0
VERTEX
  5
174CB
  8
0
 10
296.81580774479988
 20
279.38182540230002
 30
0.0
  0
VERTEX
  5
174CC
  8
0
 10
296.71091847119988
 20
279.16040997940001
 30
0.0
  0
VERTEX
  5
174CD
  8
0
 10
296.49818949399992
 20
278.98835465299999
 30
0.0
  0
VERTEX
  5
174CE
  8
0
 10
296.22696600850003
 20
278.90018634490002
 30
0.0
  0
VERTEX
  5
174CF
  8
0
 10
295.8980824798
 20
278.88805121180002
 30
0.0
  0
VERTEX
  5
174D0
  8
0
 10
295.78496776520001
 20
278.90373375259992
 30
0.0
  0
SEQEND
  5
174D1
  8
0
  0
POLYLINE
  5
165B8
  8
0
 66
     1
 10
0.0
 20
0.0
 30
0.0
 70
   128
  0
VERTEX
  5
174D2
  8
0
 10
280.7283874600999
 20
280.47682326279988
 30
0.0
  0
VERTEX
  5
174D3
  8
0
 10
280.3980957716999
 20
280.48808993760002
 30
0.0
  0
VERTEX
  5
174D4
  8
0
 10
280.1053252070999
 20
280.55524015790002
 30
0.0
  0
VERTEX
  5
174D5
  8
0
 10
279.8790212720001
 20
280.67245595150001
 30
0.0
  0
VERTEX
  5
174D6
  8
0
 10
279.76069115099989
 20
280.80967748530003
 30
0.0
  0
VERTEX
  5
174D7
  8
0
 10
279.74443770940002
 20
280.96563816060001
 30
0.0
  0
VERTEX
  5
174D8
  8
0
 10
279.8455532640001
 20
281.10821945589998
 30
0.0
  0
VERTEX
  5
174D9
  8
0
 10
280.03819175059988
 20
281.22377423559999
 30
0.0
  0
VERTEX
  5
174DA
  8
0
 10
280.32173849639997
 20
281.31407480680002
 30
0.0
  0
VERTEX
  5
174DB
  8
0
 10
280.6401688604999
 20
281.36145118619987
 30
0.0
  0
VERTEX
  5
174DC
  8
0
 10
280.74597828089998
 20
281.3683425076
 30
0.0
  0
VERTEX
  5
174DD
  8
0
 10
281.07834123069989
 20
281.36333990830002
 30
0.0
  0
VERTEX
  5
174DE
  8
0
 10
281.3714507967
 20
281.3147611915
 30
0.0
  0
VERTEX
  5
174DF
  8
0
 10
281.58674277360001
 20
281.22956985600001
 30
0.0
  0
VERTEX
  5
174E0
  8
0
 10
281.71655051409988
 20
281.10307389859997
 30
0.0
  0
VERTEX
  5
174E1
  8
0
 10
281.72612078489999
 20
280.9617219491999
 30
0.0
  0
VERTEX
  5
174E2
  8
0
 10
281.63170702749989
 20
280.81118576220001
 30
0.0
  0
VERTEX
  5
174E3
  8
0
 10
281.42933063209989
 20
280.66351478910002
 30
0.0
  0
VERTEX
  5
174E4
  8
0
 10
281.1638738960001
 20
280.55500593030001
 30
0.0
  0
VERTEX
  5
174E5
  8
0
 10
280.83756454289988
 20
280.48641774800001
 30
0.0
  0
VERTEX
  5
174E6
  8
0
 10
280.7283874600999
 20
280.47682326279988
 30
0.0
  0
SEQEND
  5
174E7
  8
0
  0
POLYLINE
  5
165B9
  8
0
 66
     1
 10
0.0
 20
0.0
 30
0.0
 70
   128
  0
VERTEX
  5
174E8
  8
0
 10
292.81790070229999
 20
281.05629589400002
 30
0.0
  0
VERTEX
  5
174E9
  8
0
 10
292.48113445939998
 20
281.07245853159998
 30
0.0
  0
VERTEX
  5
174EA
  8
0
 10
292.18304418029987
 20
281.1410942114
 30
0.0
  0
VERTEX
  5
174EB
  8
0
 10
291.95256792009991
 20
281.25571440900001
 30
0.0
  0
VERTEX
  5
174EC
  8
0
 10
291.82973019780002
 20
281.38897968449999
 30
0.0
  0
VERTEX
  5
174ED
  8
0
 10
291.81428514420003
 20
281.53707627199998
 30
0.0
  0
VERTEX
  5
174EE
  8
0
 10
291.91807918249992
 20
281.66845049699998
 30
0.0
  0
VERTEX
  5
174EF
  8
0
 10
292.11391024289992
 20
281.77479216819989
 30
0.0
  0
VERTEX
  5
174F0
  8
0
 10
292.40181557829999
 20
281.85766218219999
 30
0.0
  0
VERTEX
  5
174F1
  8
0
 10
292.7219670266
 20
281.90055796870001
 30
0.0
  0
VERTEX
  5
174F2
  8
0
 10
292.82594732939992
 20
281.90662786360002
 30
0.0
  0
VERTEX
  5
174F3
  8
0
 10
293.16409192980001
 20
281.90113771699998
 30
0.0
  0
VERTEX
  5
174F4
  8
0
 10
293.4622567147
 20
281.8533753044
 30
0.0
  0
VERTEX
  5
174F5
  8
0
 10
293.68169866499989
 20
281.76938071839999
 30
0.0
  0
VERTEX
  5
174F6
  8
0
 10
293.81459467109988
 20
281.64489129549997
 30
0.0
  0
VERTEX
  5
174F7
  8
0
 10
293.82661990819997
 20
281.50487113740002
 30
0.0
  0
VERTEX
  5
174F8
  8
0
 10
293.72900240119998
 20
281.35589398439998
 30
0.0
  0
VERTEX
  5
174F9
  8
0
 10
293.5221519320998
 20
281.21801493679999
 30
0.0
  0
VERTEX
  5
174FA
  8
0
 10
293.25855039060002
 20
281.12246729430001
 30
0.0
  0
VERTEX
  5
174FB
  8
0
 10
292.93201379480001
 20
281.06386801219992
 30
0.0
  0
VERTEX
  5
174FC
  8
0
 10
292.81790070229999
 20
281.05629589400002
 30
0.0
  0
SEQEND
  5
174FD
  8
0
  0
POLYLINE
  5
165BA
  8
0
 66
     1
 10
0.0
 20
0.0
 30
0.0
 70
   128
  0
VERTEX
  5
174FE
  8
0
 10
289.7855963557999
 20
282.08110835399998
 30
0.0
  0
VERTEX
  5
174FF
  8
0
 10
289.45351652799991
 20
282.08171138530003
 30
0.0
  0
VERTEX
  5
17500
  8
0
 10
289.15947191419991
 20
282.11144525549997
 30
0.0
  0
VERTEX
  5
17501
  8
0
 10
288.92828039819989
 20
282.16687524679998
 30
0.0
  0
VERTEX
  5
17502
  8
0
 10
288.80270831280001
 20
282.23418751719998
 30
0.0
  0
VERTEX
  5
17503
  8
0
 10
288.78614567219989
 20
282.30923535289998
 30
0.0
  0
VERTEX
  5
17504
  8
0
 10
288.8889264314999
 20
282.37615460519999
 30
0.0
  0
VERTEX
  5
17505
  8
0
 10
289.08149413759998
 20
282.43098761879992
 30
0.0
  0
VERTEX
  5
17506
  8
0
 10
289.3654357641999
 20
282.4761609546
 30
0.0
  0
VERTEX
  5
17507
  8
0
 10
289.6810349077
 20
282.50331133600002
 30
0.0
  0
VERTEX
  5
17508
  8
0
 10
289.77807126940002
 20
282.50832604239997
 30
0.0
  0
VERTEX
  5
17509
  8
0
 10
290.11252038179998
 20
282.51448534420001
 30
0.0
  0
VERTEX
  5
1750A
  8
0
 10
290.40792845189998
 20
282.50061934809992
 30
0.0
  0
VERTEX
  5
1750B
  8
0
 10
290.62486700710002
 20
282.46777579180002
 30
0.0
  0
VERTEX
  5
1750C
  8
0
 10
290.75914137059999
 20
282.41199422620008
 30
0.0
  0
VERTEX
  5
1750D
  8
0
 10
290.77365510160001
 20
282.34216272819998
 30
0.0
  0
VERTEX
  5
1750E
  8
0
 10
290.6775500624999
 20
282.26281544189999
 30
0.0
  0
VERTEX
  5
1750F
  8
0
 10
290.47295711930002
 20
282.18482555809999
 30
0.0
  0
VERTEX
  5
17510
  8
0
 10
290.2141537517
 20
282.12730707590009
 30
0.0
  0
VERTEX
  5
17511
  8
0
 10
289.89336155349997
 20
282.08772493520001
 30
0.0
  0
VERTEX
  5
17512
  8
0
 10
289.7855963557999
 20
282.08110835399998
 30
0.0
  0
SEQEND
  5
17513
  8
0
  0
POLYLINE
  5
165BB
  8
0
 66
     1
 10
0.0
 20
0.0
 30
0.0
 70
   128
  0
VERTEX
  5
17514
  8
0
 10
271.76093570889998
 20
281.3091974704999
 30
0.0
  0
VERTEX
  5
17515
  8
0
 10
271.43176533280001
 20
281.31352765479988
 30
0.0
  0
VERTEX
  5
17516
  8
0
 10
271.1413715034999
 20
281.35280804700011
 30
0.0
  0
VERTEX
  5
17517
  8
0
 10
270.9173176436999
 20
281.42251335079987
 30
0.0
  0
VERTEX
  5
17518
  8
0
 10
270.8008538931
 20
281.50376472609997
 30
0.0
  0
VERTEX
  5
17519
  8
0
 10
270.78794948749999
 20
281.59389812490002
 30
0.0
  0
VERTEX
  5
1751A
  8
0
 10
270.89238055049998
 20
281.67434437190002
 30
0.0
  0
VERTEX
  5
1751B
  8
0
 10
271.08826376500002
 20
281.7387769929
 30
0.0
  0
VERTEX
  5
1751C
  8
0
 10
271.37403823429997
 20
281.78942464279999
 30
0.0
  0
VERTEX
  5
1751D
  8
0
 10
271.6919060795999
 20
281.81812101970002
 30
0.0
  0
VERTEX
  5
1751E
  8
0
 10
271.7948880045999
 20
281.82317670430001
 30
0.0
  0
VERTEX
  5
1751F
  8
0
 10
272.12566398080003
 20
281.82631013909997
 30
0.0
  0
VERTEX
  5
17520
  8
0
 10
272.41647876799988
 20
281.80638961490001
 30
0.0
  0
VERTEX
  5
17521
  8
0
 10
272.62814603739997
 20
281.76502166310001
 30
0.0
  0
VERTEX
  5
17522
  8
0
 10
272.75672443209999
 20
281.69717248519999
 30
0.0
  0
VERTEX
  5
17523
  8
0
 10
272.76535220440002
 20
281.61519980050002
 30
0.0
  0
VERTEX
  5
17524
  8
0
 10
272.66806624830002
 20
281.52371784659999
 30
0.0
  0
VERTEX
  5
17525
  8
0
 10
272.46263511479992
 20
281.4314046874
 30
0.0
  0
VERTEX
  5
17526
  8
0
 10
272.19634763889991
 20
281.3618991523
 30
0.0
  0
VERTEX
  5
17527
  8
0
 10
271.87070883809997
 20
281.31621358910002
 30
0.0
  0
VERTEX
  5
17528
  8
0
 10
271.81598059829997
 20
281.3121977260999
 30
0.0
  0
VERTEX
  5
17529
  8
0
 10
271.76093570889998
 20
281.3091974704999
 30
0.0
  0
SEQEND
  5
1752A
  8
0
  0
POLYLINE
  5
165BC
  8
0
 66
     1
 10
0.0
 20
0.0
 30
0.0
 70
   128
  0
VERTEX
  5
1752B
  8
0
 10
274.73419420419998
 20
280.1276238634
 30
0.0
  0
VERTEX
  5
1752C
  8
0
 10
274.40504245459988
 20
280.14079835259997
 30
0.0
  0
VERTEX
  5
1752D
  8
0
 10
274.1129461676
 20
280.21271321910001
 30
0.0
  0
VERTEX
  5
1752E
  8
0
 10
273.88552092009991
 20
280.33767994489989
 30
0.0
  0
VERTEX
  5
1752F
  8
0
 10
273.76546971499999
 20
280.48417372620003
 30
0.0
  0
VERTEX
  5
17530
  8
0
 10
273.7474355846
 20
280.6507370434
 30
0.0
  0
VERTEX
  5
17531
  8
0
 10
273.84729199110001
 20
280.80340921869998
 30
0.0
  0
VERTEX
  5
17532
  8
0
 10
274.03917796909991
 20
280.92704834409989
 30
0.0
  0
VERTEX
  5
17533
  8
0
 10
274.32202436030002
 20
281.02351101110003
 30
0.0
  0
VERTEX
  5
17534
  8
0
 10
274.6401604264999
 20
281.07393281529988
 30
0.0
  0
VERTEX
  5
17535
  8
0
 10
274.74634237589999
 20
281.08119200909999
 30
0.0
  0
VERTEX
  5
17536
  8
0
 10
275.07742010060002
 20
281.07526320959988
 30
0.0
  0
VERTEX
  5
17537
  8
0
 10
275.36980323490002
 20
281.0226104221
 30
0.0
  0
VERTEX
  5
17538
  8
0
 10
275.5844842642
 20
280.9311685152
 30
0.0
  0
VERTEX
  5
17539
  8
0
 10
275.71606896819992
 20
280.79558564339999
 30
0.0
  0
VERTEX
  5
1753A
  8
0
 10
275.72842948139998
 20
280.6432636454
 30
0.0
  0
VERTEX
  5
1753B
  8
0
 10
275.6358820945
 20
280.48162050539997
 30
0.0
  0
VERTEX
  5
1753C
  8
0
 10
275.43482817709992
 20
280.32424189139999
 30
0.0
  0
VERTEX
  5
1753D
  8
0
 10
275.1705300063
 20
280.20952716459999
 30
0.0
  0
VERTEX
  5
1753E
  8
0
 10
274.84517060219991
 20
280.13761322940002
 30
0.0
  0
VERTEX
  5
1753F
  8
0
 10
274.73419420419998
 20
280.1276238634
 30
0.0
  0
SEQEND
  5
17540
  8
0
  0
POLYLINE
  5
165BD
  8
0
 66
     1
 10
0.0
 20
0.0
 30
0.0
 70
   128
  0
VERTEX
  5
17541
  8
0
 10
280.80543391399999
 20
282.30480784539998
 30
0.0
  0
VERTEX
  5
17542
  8
0
 10
280.47614805400002
 20
282.29930186640001
 30
0.0
  0
VERTEX
  5
17543
  8
0
 10
280.18676750359998
 20
282.30510912829988
 30
0.0
  0
VERTEX
  5
17544
  8
0
 10
279.96392436320002
 20
282.31948642049991
 30
0.0
  0
VERTEX
  5
17545
  8
0
 10
279.84792627389987
 20
282.33617898070003
 30
0.0
  0
VERTEX
  5
17546
  8
0
 10
279.83771897849999
 20
282.35258283090002
 30
0.0
  0
VERTEX
  5
17547
  8
0
 10
279.94535751640001
 20
282.36557571209988
 30
0.0
  0
VERTEX
  5
17548
  8
0
 10
280.14401234680003
 20
282.37599395209998
 30
0.0
  0
VERTEX
  5
17549
  8
0
 10
280.43207414449989
 20
282.38697610790001
 30
0.0
  0
VERTEX
  5
1754A
  8
0
 10
280.7460453361
 20
282.39895710709987
 30
0.0
  0
VERTEX
  5
1754B
  8
0
 10
280.84345422679991
 20
282.40288542579992
 30
0.0
  0
VERTEX
  5
1754C
  8
0
 10
281.17435686289991
 20
282.41678867479999
 30
0.0
  0
VERTEX
  5
1754D
  8
0
 10
281.46446011960001
 20
282.4284069238999
 30
0.0
  0
VERTEX
  5
1754E
  8
0
 10
281.67503587900001
 20
282.43350312109999
 30
0.0
  0
VERTEX
  5
1754F
  8
0
 10
281.80234767489992
 20
282.42875942950002
 30
0.0
  0
VERTEX
  5
17550
  8
0
 10
281.8101447075
 20
282.41290179999999
 30
0.0
  0
VERTEX
  5
17551
  8
0
 10
281.70886896550002
 20
282.38758239890001
 30
0.0
  0
VERTEX
  5
17552
  8
0
 10
281.49956353009998
 20
282.35678868359997
 30
0.0
  0
VERTEX
  5
17553
  8
0
 10
281.2350008636999
 20
282.33026787630001
 30
0.0
  0
VERTEX
  5
17554
  8
0
 10
280.91173879799999
 20
282.30919577169988
 30
0.0
  0
VERTEX
  5
17555
  8
0
 10
280.85871301589998
 20
282.30685023580003
 30
0.0
  0
VERTEX
  5
17556
  8
0
 10
280.80543391399999
 20
282.30480784539998
 30
0.0
  0
SEQEND
  5
17557
  8
0
  0
POLYLINE
  5
165BE
  8
0
 66
     1
 10
0.0
 20
0.0
 30
0.0
 70
   128
  0
VERTEX
  5
17558
  8
0
 10
277.75719650089991
 20
281.57422533250002
 30
0.0
  0
VERTEX
  5
17559
  8
0
 10
277.42679677899991
 20
281.5777136012
 30
0.0
  0
VERTEX
  5
1755A
  8
0
 10
277.13554240759998
 20
281.61427639419992
 30
0.0
  0
VERTEX
  5
1755B
  8
0
 10
276.91214047369999
 20
281.67953370129999
 30
0.0
  0
VERTEX
  5
1755C
  8
0
 10
276.79641060530003
 20
281.7558332346
 30
0.0
  0
VERTEX
  5
1755D
  8
0
 10
276.78439281879992
 20
281.84078661719991
 30
0.0
  0
VERTEX
  5
1755E
  8
0
 10
276.88974775369991
 20
281.91668475040001
 30
0.0
  0
VERTEX
  5
1755F
  8
0
 10
277.08651758729991
 20
281.97757229199999
 30
0.0
  0
VERTEX
  5
17560
  8
0
 10
277.37277261909998
 20
282.02529931430001
 30
0.0
  0
VERTEX
  5
17561
  8
0
 10
277.68926955760003
 20
282.05206785339999
 30
0.0
  0
VERTEX
  5
17562
  8
0
 10
277.78971828520002
 20
282.05666858699999
 30
0.0
  0
VERTEX
  5
17563
  8
0
 10
278.12086679039999
 20
282.05941226329992
 30
0.0
  0
VERTEX
  5
17564
  8
0
 10
278.41186784209992
 20
282.04033877689989
 30
0.0
  0
VERTEX
  5
17565
  8
0
 10
278.62365432079991
 20
282.00113940979992
 30
0.0
  0
VERTEX
  5
17566
  8
0
 10
278.7520874290999
 20
281.93730982009993
 30
0.0
  0
VERTEX
  5
17567
  8
0
 10
278.7606220692
 20
281.86017256219998
 30
0.0
  0
VERTEX
  5
17568
  8
0
 10
278.66212911899993
 20
281.77407924080001
 30
0.0
  0
VERTEX
  5
17569
  8
0
 10
278.45572941
 20
281.68803295110001
 30
0.0
  0
VERTEX
  5
1756A
  8
0
 10
278.19115556769998
 20
281.62374421950011
 30
0.0
  0
VERTEX
  5
1756B
  8
0
 10
277.86707766349991
 20
281.58097369590001
 30
0.0
  0
VERTEX
  5
1756C
  8
0
 10
277.75719650089991
 20
281.57422533250002
 30
0.0
  0
SEQEND
  5
1756D
  8
0
  0
POLYLINE
  5
165BF
  8
0
 66
     1
 10
0.0
 20
0.0
 30
0.0
 70
   128
  0
VERTEX
  5
1756E
  8
0
 10
265.79886563119999
 20
277.47152261429989
 30
0.0
  0
VERTEX
  5
1756F
  8
0
 10
265.47227315600003
 20
277.49764528119999
 30
0.0
  0
VERTEX
  5
17570
  8
0
 10
265.17902202900001
 20
277.6105178519
 30
0.0
  0
VERTEX
  5
17571
  8
0
 10
264.94328193360002
 20
277.80508324499999
 30
0.0
  0
VERTEX
  5
17572
  8
0
 10
264.81223367149988
 20
278.03646661329992
 30
0.0
  0
VERTEX
  5
17573
  8
0
 10
264.78282622989991
 20
278.30015290519998
 30
0.0
  0
VERTEX
  5
17574
  8
0
 10
264.8716893047
 20
278.545234166
 30
0.0
  0
VERTEX
  5
17575
  8
0
 10
265.05425833160001
 20
278.74558772879999
 30
0.0
  0
VERTEX
  5
17576
  8
0
 10
265.3305072336999
 20
278.90250906339998
 30
0.0
  0
VERTEX
  5
17577
  8
0
 10
265.64573384819988
 20
278.98217998439998
 30
0.0
  0
VERTEX
  5
17578
  8
0
 10
265.75797684489999
 20
278.9929246529
 30
0.0
  0
VERTEX
  5
17579
  8
0
 10
266.0879630595
 20
278.9754986762
 30
0.0
  0
VERTEX
  5
1757A
  8
0
 10
266.38206355269989
 20
278.8805205374
 30
0.0
  0
VERTEX
  5
1757B
  8
0
 10
266.60011596980002
 20
278.72522994870002
 30
0.0
  0
VERTEX
  5
1757C
  8
0
 10
266.74132309849989
 20
278.50100100029999
 30
0.0
  0
VERTEX
  5
1757D
  8
0
 10
266.76472537220002
 20
278.25346291059998
 30
0.0
  0
VERTEX
  5
1757E
  8
0
 10
266.68264605100001
 20
278.00024747840001
 30
0.0
  0
VERTEX
  5
1757F
  8
0
 10
266.49237684899998
 20
277.7607578782999
 30
0.0
  0
VERTEX
  5
17580
  8
0
 10
266.2353280932
 20
277.58944947259999
 30
0.0
  0
VERTEX
  5
17581
  8
0
 10
265.91355241830001
 20
277.48512644309989
 30
0.0
  0
VERTEX
  5
17582
  8
0
 10
265.85647724569992
 20
277.4768777191
 30
0.0
  0
VERTEX
  5
17583
  8
0
 10
265.79886563119999
 20
277.47152261429989
 30
0.0
  0
SEQEND
  5
17584
  8
0
  0
POLYLINE
  5
165C0
  8
0
 66
     1
 10
0.0
 20
0.0
 30
0.0
 70
   128
  0
VERTEX
  5
17585
  8
0
 10
283.73644389209989
 20
278.70514784
 30
0.0
  0
VERTEX
  5
17586
  8
0
 10
283.40637944640002
 20
278.72862275679989
 30
0.0
  0
VERTEX
  5
17587
  8
0
 10
283.11126194889988
 20
278.8338817655
 30
0.0
  0
VERTEX
  5
17588
  8
0
 10
282.88077823819998
 20
279.01364378619991
 30
0.0
  0
VERTEX
  5
17589
  8
0
 10
282.75868557389992
 20
279.22127004710001
 30
0.0
  0
VERTEX
  5
1758A
  8
0
 10
282.73498527700002
 20
279.45983670639998
 30
0.0
  0
VERTEX
  5
1758B
  8
0
 10
282.82879553729992
 20
279.68204002819988
 30
0.0
  0
VERTEX
  5
1758C
  8
0
 10
283.01527984440003
 20
279.86230496309997
 30
0.0
  0
VERTEX
  5
1758D
  8
0
 10
283.29407311969999
 20
280.00387158239988
 30
0.0
  0
VERTEX
  5
1758E
  8
0
 10
283.61625485119998
 20
280.07824607190003
 30
0.0
  0
VERTEX
  5
1758F
  8
0
 10
283.73140357429997
 20
280.08861914269988
 30
0.0
  0
VERTEX
  5
17590
  8
0
 10
284.0631071478
 20
280.07443603119998
 30
0.0
  0
VERTEX
  5
17591
  8
0
 10
284.3574758618999
 20
279.99030593769999
 30
0.0
  0
VERTEX
  5
17592
  8
0
 10
284.57464911039989
 20
279.8504194244
 30
0.0
  0
VERTEX
  5
17593
  8
0
 10
284.7096461802999
 20
279.64797411109998
 30
0.0
  0
VERTEX
  5
17594
  8
0
 10
284.7249533980999
 20
279.4291254132001
 30
0.0
  0
VERTEX
  5
17595
  8
0
 10
284.6387762576
 20
279.20175418249988
 30
0.0
  0
VERTEX
  5
17596
  8
0
 10
284.44478921590002
 20
278.97985074659988
 30
0.0
  0
VERTEX
  5
17597
  8
0
 10
284.1799620539
 20
278.8167873397
 30
0.0
  0
VERTEX
  5
17598
  8
0
 10
283.85271392760001
 20
278.71817145490002
 30
0.0
  0
VERTEX
  5
17599
  8
0
 10
283.79483036689999
 20
278.71030643569998
 30
0.0
  0
VERTEX
  5
1759A
  8
0
 10
283.73644389209989
 20
278.70514784
 30
0.0
  0
SEQEND
  5
1759B
  8
0
  0
POLYLINE
  5
165C1
  8
0
 66
     1
 10
0.0
 20
0.0
 30
0.0
 70
   128
  0
VERTEX
  5
1759C
  8
0
 10
277.75392942129997
 20
278.2855190336
 30
0.0
  0
VERTEX
  5
1759D
  8
0
 10
277.42247916759987
 20
278.30791268489997
 30
0.0
  0
VERTEX
  5
1759E
  8
0
 10
277.12554372849991
 20
278.41514796009989
 30
0.0
  0
VERTEX
  5
1759F
  8
0
 10
276.89480297269989
 20
278.59871536489987
 30
0.0
  0
VERTEX
  5
175A0
  8
0
 10
276.77128724749991
 20
278.81282269949997
 30
0.0
  0
VERTEX
  5
175A1
  8
0
 10
276.74583606419992
 20
279.05902806660009
 30
0.0
  0
VERTEX
  5
175A2
  8
0
 10
276.83785818519988
 20
279.29154671719999
 30
0.0
  0
VERTEX
  5
175A3
  8
0
 10
277.02443562449997
 20
279.48180567470001
 30
0.0
  0
VERTEX
  5
175A4
  8
0
 10
277.30395533139989
 20
279.6303395180999
 30
0.0
  0
VERTEX
  5
175A5
  8
0
 10
277.62132771310002
 20
279.70679085689989
 30
0.0
  0
VERTEX
  5
175A6
  8
0
 10
277.730609104
 20
279.71735764289991
 30
0.0
  0
VERTEX
  5
175A7
  8
0
 10
278.05988378820001
 20
279.70426045350001
 30
0.0
  0
VERTEX
  5
175A8
  8
0
 10
278.35276238620003
 20
279.6188311651
 30
0.0
  0
VERTEX
  5
175A9
  8
0
 10
278.5689447074999
 20
279.47646360840002
 30
0.0
  0
VERTEX
  5
175AA
  8
0
 10
278.70791293680003
 20
279.2685970663
 30
0.0
  0
VERTEX
  5
175AB
  8
0
 10
278.72962020339992
 20
279.03723698099998
 30
0.0
  0
VERTEX
  5
175AC
  8
0
 10
278.64643074569989
 20
278.79720069460001
 30
0.0
  0
VERTEX
  5
175AD
  8
0
 10
278.45472358169991
 20
278.56753002839997
 30
0.0
  0
VERTEX
  5
175AE
  8
0
 10
278.19679565730002
 20
278.4025210886
 30
0.0
  0
VERTEX
  5
175AF
  8
0
 10
277.87577621640003
 20
278.30049563189999
 30
0.0
  0
VERTEX
  5
175B0
  8
0
 10
277.81515084209991
 20
278.29148694870003
 30
0.0
  0
VERTEX
  5
175B1
  8
0
 10
277.75392942129997
 20
278.2855190336
 30
0.0
  0
SEQEND
  5
175B2
  8
0
  0
POLYLINE
  5
165C2
  8
0
 66
     1
 10
0.0
 20
0.0
 30
0.0
 70
   128
  0
VERTEX
  5
175B3
  8
0
 10
271.77570275959988
 20
277.87265721699998
 30
0.0
  0
VERTEX
  5
175B4
  8
0
 10
271.44379429519989
 20
277.8976352885
 30
0.0
  0
VERTEX
  5
175B5
  8
0
 10
271.14637829359992
 20
278.00944056349999
 30
0.0
  0
VERTEX
  5
175B6
  8
0
 10
270.91471366579998
 20
278.19943688799998
 30
0.0
  0
VERTEX
  5
175B7
  8
0
 10
270.78993879260003
 20
278.42098921529998
 30
0.0
  0
VERTEX
  5
175B8
  8
0
 10
270.7641299814
 20
278.67588941000002
 30
0.0
  0
VERTEX
  5
175B9
  8
0
 10
270.85592113429988
 20
278.91410496079988
 30
0.0
  0
VERTEX
  5
175BA
  8
0
 10
271.04197703300002
 20
279.1092989966001
 30
0.0
  0
VERTEX
  5
175BB
  8
0
 10
271.32121734319992
 20
279.2611567303
 30
0.0
  0
VERTEX
  5
175BC
  8
0
 10
271.63664884859998
 20
279.33764066539999
 30
0.0
  0
VERTEX
  5
175BD
  8
0
 10
271.74371741710002
 20
279.34767659750003
 30
0.0
  0
VERTEX
  5
175BE
  8
0
 10
272.07349129019991
 20
279.33188509189989
 30
0.0
  0
VERTEX
  5
175BF
  8
0
 10
272.36695475869988
 20
279.24097776410002
 30
0.0
  0
VERTEX
  5
175C0
  8
0
 10
272.58312962949992
 20
279.09197825929999
 30
0.0
  0
VERTEX
  5
175C1
  8
0
 10
272.7235134691
 20
278.87499406929999
 30
0.0
  0
VERTEX
  5
175C2
  8
0
 10
272.74640537800002
 20
278.63390725099998
 30
0.0
  0
VERTEX
  5
175C3
  8
0
 10
272.66295515000002
 20
278.38559150690003
 30
0.0
  0
VERTEX
  5
175C4
  8
0
 10
272.4711325019
 20
278.1525159254
 30
0.0
  0
VERTEX
  5
175C5
  8
0
 10
272.21592776480003
 20
277.98824273039997
 30
0.0
  0
VERTEX
  5
175C6
  8
0
 10
271.89705781639998
 20
277.88712903850001
 30
0.0
  0
VERTEX
  5
175C7
  8
0
 10
271.83667086060001
 20
277.87835318589998
 30
0.0
  0
VERTEX
  5
175C8
  8
0
 10
271.80623151359998
 20
277.87511683989999
 30
0.0
  0
VERTEX
  5
175C9
  8
0
 10
271.77570275959988
 20
277.87265721699998
 30
0.0
  0
SEQEND
  5
175CA
  8
0
  0
ARC
  5
165C3
  8
0
 10
274.4445929789685
 20
285.01019912064908
 30
0.0
 40
2.947671602317401
 50
258.38278087096103
 51
277.20256302247918
  0
POLYLINE
  5
165C4
  8
0
 66
     1
 10
0.0
 20
0.0
 30
0.0
 70
   128
  0
VERTEX
  5
175CB
  8
0
 10
273.85101355609987
 20
282.12291123339998
 30
0.0
  0
VERTEX
  5
175CC
  8
0
 10
273.95843975240001
 20
282.13094947849987
 30
0.0
  0
VERTEX
  5
175CD
  8
0
 10
274.15668480099998
 20
282.13624916959998
 30
0.0
  0
VERTEX
  5
175CE
  8
0
 10
274.44484718140001
 20
282.14263524850003
 30
0.0
  0
VERTEX
  5
175CF
  8
0
 10
274.76141117510002
 20
282.15257665129991
 30
0.0
  0
VERTEX
  5
175D0
  8
0
 10
274.86253790559999
 20
282.15656410899999
 30
0.0
  0
VERTEX
  5
175D1
  8
0
 10
275.19298978149988
 20
282.17222290109999
 30
0.0
  0
VERTEX
  5
175D2
  8
0
 10
275.4824709147
 20
282.18858344469999
 30
0.0
  0
VERTEX
  5
175D3
  8
0
 10
275.6922196596999
 20
282.1998389437
 30
0.0
  0
VERTEX
  5
175D4
  8
0
 10
275.81816054879988
 20
282.20178401089998
 30
0.0
  0
VERTEX
  5
175D5
  8
0
 10
275.82419179380003
 20
282.1911427192
 30
0.0
  0
VERTEX
  5
175D6
  8
0
 10
275.72347857059998
 20
282.16938609250002
 30
0.0
  0
VERTEX
  5
175D7
  8
0
 10
275.51490329199999
 20
282.1398631669
 30
0.0
  0
VERTEX
  5
175D8
  8
0
 10
275.24755038320001
 20
282.11273513729998
 30
0.0
  0
VERTEX
  5
175D9
  8
0
 10
274.92176629599999
 20
282.09055941539998
 30
0.0
  0
VERTEX
  5
175DA
  8
0
 10
274.86809603869989
 20
282.08801969879988
 30
0.0
  0
VERTEX
  5
175DB
  8
0
 10
274.814165011
 20
282.08578731860001
 30
0.0
  0
VERTEX
  5
175DC
  8
0
 10
274.814165011
 20
282.08578731860001
 30
0.0
  0
SEQEND
  5
175DD
  8
0
  0
POLYLINE
  5
165C5
  8
0
 66
     1
 10
0.0
 20
0.0
 30
0.0
 70
   128
  0
VERTEX
  5
175DE
  8
0
 10
268.74503009019998
 20
279.79365810740001
 30
0.0
  0
VERTEX
  5
175DF
  8
0
 10
268.4149432927
 20
279.80890385800001
 30
0.0
  0
VERTEX
  5
175E0
  8
0
 10
268.12176667149993
 20
279.88542318340001
 30
0.0
  0
VERTEX
  5
175E1
  8
0
 10
267.89394654329999
 20
280.01697342839998
 30
0.0
  0
VERTEX
  5
175E2
  8
0
 10
267.77363829310002
 20
280.17035387449999
 30
0.0
  0
VERTEX
  5
175E3
  8
0
 10
267.75474734599987
 20
280.34479338669991
 30
0.0
  0
VERTEX
  5
175E4
  8
0
 10
267.85382516679999
 20
280.5050036868999
 30
0.0
  0
VERTEX
  5
175E5
  8
0
 10
268.045804277
 20
280.6348221376
 30
0.0
  0
VERTEX
  5
175E6
  8
0
 10
268.3286543934999
 20
280.735398922
 30
0.0
  0
VERTEX
  5
175E7
  8
0
 10
268.6457473783999
 20
280.78721491610003
 30
0.0
  0
VERTEX
  5
175E8
  8
0
 10
268.75073350960002
 20
280.79445175820001
 30
0.0
  0
VERTEX
  5
175E9
  8
0
 10
269.08168084919998
 20
280.78724006180011
 30
0.0
  0
VERTEX
  5
175EA
  8
0
 10
269.37422044570002
 20
280.73080237950001
 30
0.0
  0
VERTEX
  5
175EB
  8
0
 10
269.58839111029999
 20
280.63417999069998
 30
0.0
  0
VERTEX
  5
175EC
  8
0
 10
269.72184590989991
 20
280.49070928240002
 30
0.0
  0
VERTEX
  5
175ED
  8
0
 10
269.73618827759992
 20
280.32922353589998
 30
0.0
  0
VERTEX
  5
175EE
  8
0
 10
269.6445126086
 20
280.15884086480008
 30
0.0
  0
VERTEX
  5
175EF
  8
0
 10
269.4441143423
 20
279.99493740489987
 30
0.0
  0
VERTEX
  5
175F0
  8
0
 10
269.1813994199
 20
279.87701147790011
 30
0.0
  0
VERTEX
  5
175F1
  8
0
 10
268.85788775980001
 20
279.80378251519988
 30
0.0
  0
VERTEX
  5
175F2
  8
0
 10
268.74503009019998
 20
279.79365810740001
 30
0.0
  0
SEQEND
  5
175F3
  8
0
  0
POLYLINE
  5
165C6
  8
0
 66
     1
 10
0.0
 20
0.0
 30
0.0
 70
   128
  0
VERTEX
  5
175F4
  8
0
 10
265.76626561580002
 20
281.04280941180002
 30
0.0
  0
VERTEX
  5
175F5
  8
0
 10
265.43669663370002
 20
281.04811655349999
 30
0.0
  0
VERTEX
  5
175F6
  8
0
 10
265.14589674769991
 20
281.08989149320001
 30
0.0
  0
VERTEX
  5
175F7
  8
0
 10
264.92236442860002
 20
281.16313908239999
 30
0.0
  0
VERTEX
  5
175F8
  8
0
 10
264.8068059236
 20
281.24772179860003
 30
0.0
  0
VERTEX
  5
175F9
  8
0
 10
264.79346565899988
 20
281.34159538889998
 30
0.0
  0
VERTEX
  5
175FA
  8
0
 10
264.89768065509998
 20
281.42587030300001
 30
0.0
  0
VERTEX
  5
175FB
  8
0
 10
265.09413011369998
 20
281.49314112949997
 30
0.0
  0
VERTEX
  5
175FC
  8
0
 10
265.38110785179992
 20
281.545736175
 30
0.0
  0
VERTEX
  5
175FD
  8
0
 10
265.69833494720001
 20
281.5752013586
 30
0.0
  0
VERTEX
  5
175FE
  8
0
 10
265.80074317750001
 20
281.58035576340001
 30
0.0
  0
VERTEX
  5
175FF
  8
0
 10
266.13029725849992
 20
281.58344822000009
 30
0.0
  0
VERTEX
  5
17600
  8
0
 10
266.42012111839989
 20
281.56266110009989
 30
0.0
  0
VERTEX
  5
17601
  8
0
 10
266.63070432839987
 20
281.51972340409998
 30
0.0
  0
VERTEX
  5
17602
  8
0
 10
266.76048971709997
 20
281.44895313299997
 30
0.0
  0
VERTEX
  5
17603
  8
0
 10
266.77091680469988
 20
281.36257855209999
 30
0.0
  0
VERTEX
  5
17604
  8
0
 10
266.67446158820002
 20
281.26634592179988
 30
0.0
  0
VERTEX
  5
17605
  8
0
 10
266.4695817976999
 20
281.16971375410009
 30
0.0
  0
VERTEX
  5
17606
  8
0
 10
266.20410270989998
 20
281.09741983930002
 30
0.0
  0
VERTEX
  5
17607
  8
0
 10
265.87899290019988
 20
281.05013333249991
 30
0.0
  0
VERTEX
  5
17608
  8
0
 10
265.76626561580002
 20
281.04280941180002
 30
0.0
  0
SEQEND
  5
17609
  8
0
  0
POLYLINE
  5
165C7
  8
0
 66
     1
 10
0.0
 20
0.0
 30
0.0
 70
   128
  0
VERTEX
  5
1760A
  8
0
 10
262.76110373440002
 20
279.47000581759988
 30
0.0
  0
VERTEX
  5
1760B
  8
0
 10
262.43499182160002
 20
279.48684133580002
 30
0.0
  0
VERTEX
  5
1760C
  8
0
 10
262.14504502710002
 20
279.5659534632
 30
0.0
  0
VERTEX
  5
1760D
  8
0
 10
261.91548891359997
 20
279.70224041479997
 30
0.0
  0
VERTEX
  5
1760E
  8
0
 10
261.79156713189991
 20
279.8630770295
 30
0.0
  0
VERTEX
  5
1760F
  8
0
 10
261.77024357019991
 20
280.04434499879989
 30
0.0
  0
VERTEX
  5
17610
  8
0
 10
261.86705641449998
 20
280.21142520000001
 30
0.0
  0
VERTEX
  5
17611
  8
0
 10
262.05773167310002
 20
280.34700062119998
 30
0.0
  0
VERTEX
  5
17612
  8
0
 10
262.34042160209992
 20
280.45173995189998
 30
0.0
  0
VERTEX
  5
17613
  8
0
 10
262.65573017299988
 20
280.50489099689997
 30
0.0
  0
VERTEX
  5
17614
  8
0
 10
262.76193074880001
 20
280.51229920230008
 30
0.0
  0
VERTEX
  5
17615
  8
0
 10
263.09100054200002
 20
280.50411613649999
 30
0.0
  0
VERTEX
  5
17616
  8
0
 10
263.38223256169999
 20
280.44506236900003
 30
0.0
  0
VERTEX
  5
17617
  8
0
 10
263.59557248649998
 20
280.34487720570002
 30
0.0
  0
VERTEX
  5
17618
  8
0
 10
263.73101659119988
 20
280.19569795569998
 30
0.0
  0
VERTEX
  5
17619
  8
0
 10
263.74781019979991
 20
280.0267513840999
 30
0.0
  0
VERTEX
  5
1761A
  8
0
 10
263.65801207719988
 20
279.8496957868
 30
0.0
  0
VERTEX
  5
1761B
  8
0
 10
263.4592417627
 20
279.6792637556
 30
0.0
  0
VERTEX
  5
1761C
  8
0
 10
263.19591961799989
 20
279.55581694829988
 30
0.0
  0
VERTEX
  5
1761D
  8
0
 10
262.8706533461999
 20
279.47982568290001
 30
0.0
  0
VERTEX
  5
1761E
  8
0
 10
262.81607411800002
 20
279.47397138920002
 30
0.0
  0
VERTEX
  5
1761F
  8
0
 10
262.78861500319999
 20
279.47175018479987
 30
0.0
  0
VERTEX
  5
17620
  8
0
 10
262.76110373440002
 20
279.47000581759988
 30
0.0
  0
SEQEND
  5
17621
  8
0
  0
ARC
  5
165C8
  8
0
 10
286.42070686689999
 20
284.95096968559989
 30
0.0
 40
2.4602390333510891
 50
255.8092547119964
 51
278.65617795039691
  0
ARC
  5
165C9
  8
0
 10
287.32837784899988
 20
269.49664862010002
 30
0.0
 40
13.164888560501479
 50
88.093272279097405
 51
96.61425527320165
  0
POLYLINE
  5
165CA
  8
0
 66
     1
 10
0.0
 20
0.0
 30
0.0
 70
   128
  0
VERTEX
  5
17622
  8
0
 10
287.76640705761338
 20
282.65424799167317
 30
0.0
  0
VERTEX
  5
17623
  8
0
 10
287.7789240329999
 20
282.63455703850002
 30
0.0
  0
VERTEX
  5
17624
  8
0
 10
287.68033795060001
 20
282.60617172339988
 30
0.0
  0
VERTEX
  5
17625
  8
0
 10
287.47342787679997
 20
282.573309075
 30
0.0
  0
VERTEX
  5
17626
  8
0
 10
287.21211366350002
 20
282.5455049052
 30
0.0
  0
VERTEX
  5
17627
  8
0
 10
286.8913773447
 20
282.52325654020001
 30
0.0
  0
VERTEX
  5
17628
  8
0
 10
286.84130199249989
 20
282.52086490390002
 30
0.0
  0
VERTEX
  5
17629
  8
0
 10
286.816156283
 20
282.51977385949999
 30
0.0
  0
VERTEX
  5
1762A
  8
0
 10
286.79098449650002
 20
282.51875452690001
 30
0.0
  0
SEQEND
  5
1762B
  8
0
  0
POLYLINE
  5
165CB
  8
0
 66
     1
 10
0.0
 20
0.0
 30
0.0
 70
   128
  0
VERTEX
  5
1762C
  8
0
 10
283.76155234869998
 20
281.82703470799993
 30
0.0
  0
VERTEX
  5
1762D
  8
0
 10
283.42843689019992
 20
281.82973554349991
 30
0.0
  0
VERTEX
  5
1762E
  8
0
 10
283.13479460769997
 20
281.86323381950001
 30
0.0
  0
VERTEX
  5
1762F
  8
0
 10
282.91099779310002
 20
281.92322636019998
 30
0.0
  0
VERTEX
  5
17630
  8
0
 10
282.79473893339991
 20
281.99378009880002
 30
0.0
  0
VERTEX
  5
17631
  8
0
 10
282.78330601750002
 20
282.0722654461
 30
0.0
  0
VERTEX
  5
17632
  8
0
 10
282.88928307589998
 20
282.14251603920002
 30
0.0
  0
VERTEX
  5
17633
  8
0
 10
283.08649621900003
 20
282.19919959079988
 30
0.0
  0
VERTEX
  5
17634
  8
0
 10
283.37291516359988
 20
282.24377082649988
 30
0.0
  0
VERTEX
  5
17635
  8
0
 10
283.68699066339991
 20
282.26864738379987
 30
0.0
  0
VERTEX
  5
17636
  8
0
 10
283.7844144552999
 20
282.27286813770002
 30
0.0
  0
VERTEX
  5
17637
  8
0
 10
284.11816321309988
 20
282.27562950919997
 30
0.0
  0
VERTEX
  5
17638
  8
0
 10
284.41145159299992
 20
282.25785475219988
 30
0.0
  0
VERTEX
  5
17639
  8
0
 10
284.62632261210001
 20
282.22087845200002
 30
0.0
  0
VERTEX
  5
1763A
  8
0
 10
284.75402183829999
 20
282.16139767309988
 30
0.0
  0
VERTEX
  5
1763B
  8
0
 10
284.76169966160001
 20
282.08977384489992
 30
0.0
  0
VERTEX
  5
1763C
  8
0
 10
284.66149307789999
 20
282.00953761109997
 30
0.0
  0
VERTEX
  5
1763D
  8
0
 10
284.45377089079989
 20
281.9304590113
 30
0.0
  0
VERTEX
  5
1763E
  8
0
 10
284.19128693639988
 20
281.87223412089998
 30
0.0
  0
VERTEX
  5
1763F
  8
0
 10
283.86865817009988
 20
281.83318283400001
 30
0.0
  0
VERTEX
  5
17640
  8
0
 10
283.76155234869998
 20
281.82703470799993
 30
0.0
  0
SEQEND
  5
17641
  8
0
  0
POLYLINE
  5
165CC
  8
0
 66
     1
 10
0.0
 20
0.0
 30
0.0
 70
   128
  0
VERTEX
  5
17642
  8
0
 10
286.74601651730001
 20
280.80019243050009
 30
0.0
  0
VERTEX
  5
17643
  8
0
 10
286.41031198199988
 20
280.8135997503
 30
0.0
  0
VERTEX
  5
17644
  8
0
 10
286.11335046589988
 20
280.88063215829987
 30
0.0
  0
VERTEX
  5
17645
  8
0
 10
285.88873408730001
 20
280.99356759329999
 30
0.0
  0
VERTEX
  5
17646
  8
0
 10
285.77299304299987
 20
281.12341025839999
 30
0.0
  0
VERTEX
  5
17647
  8
0
 10
285.75999923049989
 20
281.26990543670001
 30
0.0
  0
VERTEX
  5
17648
  8
0
 10
285.86381934579998
 20
281.40163542699997
 30
0.0
  0
VERTEX
  5
17649
  8
0
 10
286.05824597180009
 20
281.50827372439988
 30
0.0
  0
VERTEX
  5
1764A
  8
0
 10
286.3437373191
 20
281.59158937629991
 30
0.0
  0
VERTEX
  5
1764B
  8
0
 10
286.66300959879999
 20
281.63496106859998
 30
0.0
  0
VERTEX
  5
1764C
  8
0
 10
286.76586113870002
 20
281.64103142909988
 30
0.0
  0
VERTEX
  5
1764D
  8
0
 10
287.1012005954999
 20
281.63577737280002
 30
0.0
  0
VERTEX
  5
1764E
  8
0
 10
287.39653043449988
 20
281.58910460760001
 30
0.0
  0
VERTEX
  5
1764F
  8
0
 10
287.61375211180001
 20
281.50693075719988
 30
0.0
  0
VERTEX
  5
17650
  8
0
 10
287.74216286839987
 20
281.38547465200003
 30
0.0
  0
VERTEX
  5
17651
  8
0
 10
287.74944208559998
 20
281.25091157849999
 30
0.0
  0
VERTEX
  5
17652
  8
0
 10
287.65221945939987
 20
281.10739476970002
 30
0.0
  0
VERTEX
  5
17653
  8
0
 10
287.44760416449998
 20
280.96927776929999
 30
0.0
  0
VERTEX
  5
17654
  8
0
 10
287.18340657649992
 20
280.87030285959997
 30
0.0
  0
VERTEX
  5
17655
  8
0
 10
286.85799129309999
 20
280.80862928169989
 30
0.0
  0
VERTEX
  5
17656
  8
0
 10
286.74601651730001
 20
280.80019243050009
 30
0.0
  0
SEQEND
  5
17657
  8
0
  0
POLYLINE
  5
165CD
  8
0
 66
     1
 10
0.0
 20
0.0
 30
0.0
 70
   128
  0
VERTEX
  5
17658
  8
0
 10
292.76297502220001
 20
282.77555275700001
 30
0.0
  0
VERTEX
  5
17659
  8
0
 10
292.44084917009991
 20
282.76581577949997
 30
0.0
  0
VERTEX
  5
1765A
  8
0
 10
292.15427003799988
 20
282.76725839819989
 30
0.0
  0
VERTEX
  5
1765B
  8
0
 10
291.91901795559988
 20
282.7785111032
 30
0.0
  0
VERTEX
  5
1765C
  8
0
 10
291.7848553508
 20
282.79533870509999
 30
0.0
  0
VERTEX
  5
1765D
  8
0
 10
291.7591508477999
 20
282.8148322179
 30
0.0
  0
VERTEX
  5
1765E
  8
0
 10
291.85395948590002
 20
282.83315924919998
 30
0.0
  0
VERTEX
  5
1765F
  8
0
 10
292.04439632589992
 20
282.84923154849997
 30
0.0
  0
VERTEX
  5
17660
  8
0
 10
292.32625178990003
 20
282.86463515830002
 30
0.0
  0
VERTEX
  5
17661
  8
0
 10
292.63071976600003
 20
282.87797775109999
 30
0.0
  0
VERTEX
  5
17662
  8
0
 10
292.72479079660002
 20
282.88183016689987
 30
0.0
  0
VERTEX
  5
17663
  8
0
 10
293.0532943456999
 20
282.89469452569989
 30
0.0
  0
VERTEX
  5
17664
  8
0
 10
293.34523789579998
 20
282.9047528095
 30
0.0
  0
VERTEX
  5
17665
  8
0
 10
293.56131963429988
 20
282.90919614950002
 30
0.0
  0
VERTEX
  5
17666
  8
0
 10
293.7023218720999
 20
282.90524641040003
 30
0.0
  0
VERTEX
  5
17667
  8
0
 10
293.7023218720999
 20
282.90524641040003
 30
0.0
  0
SEQEND
  5
17668
  8
0
  0
POLYLINE
  5
165CE
  8
0
 66
     1
 10
0.0
 20
0.0
 30
0.0
 70
   128
  0
VERTEX
  5
17669
  8
0
 10
293.7023218720999
 20
282.90524641040003
 30
0.0
  0
VERTEX
  5
1766A
  8
0
 10
293.72657351189991
 20
282.89042813700001
 30
0.0
  0
VERTEX
  5
1766B
  8
0
 10
293.63728575409999
 20
282.86536997180002
 30
0.0
  0
VERTEX
  5
1766C
  8
0
 10
293.43787096440002
 20
282.83387636759988
 30
0.0
  0
VERTEX
  5
1766D
  8
0
 10
293.17943267519991
 20
282.80523866409999
 30
0.0
  0
VERTEX
  5
1766E
  8
0
 10
292.85946004089988
 20
282.78072951349998
 30
0.0
  0
VERTEX
  5
1766F
  8
0
 10
292.81135909260001
 20
282.77801983049989
 30
0.0
  0
VERTEX
  5
17670
  8
0
 10
292.76297502220001
 20
282.77555275700001
 30
0.0
  0
SEQEND
  5
17671
  8
0
  0
POLYLINE
  5
165CF
  8
0
 66
     1
 10
0.0
 20
0.0
 30
0.0
 70
   128
  0
VERTEX
  5
17672
  8
0
 10
252.3802861570999
 20
281.21238322919999
 30
0.0
  0
VERTEX
  5
17673
  8
0
 10
252.64274217190001
 20
281.24683052289998
 30
0.0
  0
VERTEX
  5
17674
  8
0
 10
253.1397107988
 20
281.15352783340001
 30
0.0
  0
VERTEX
  5
17675
  8
0
 10
253.744809702
 20
280.97660075869999
 30
0.0
  0
VERTEX
  5
17676
  8
0
 10
254.52264286580001
 20
280.7566614820999
 30
0.0
  0
VERTEX
  5
17677
  8
0
 10
255.01473322509989
 20
280.66877350200002
 30
0.0
  0
VERTEX
  5
17678
  8
0
 10
255.29031157489999
 20
280.64665878179989
 30
0.0
  0
VERTEX
  5
17679
  8
0
 10
255.5731486528999
 20
280.64663410179998
 30
0.0
  0
VERTEX
  5
1767A
  8
0
 10
255.85449002679999
 20
280.67266829300002
 30
0.0
  0
VERTEX
  5
1767B
  8
0
 10
256.11600913109999
 20
280.72141045699999
 30
0.0
  0
VERTEX
  5
1767C
  8
0
 10
256.54984526330003
 20
280.85859287519997
 30
0.0
  0
VERTEX
  5
1767D
  8
0
 10
257.1335684508
 20
281.1500148847
 30
0.0
  0
VERTEX
  5
1767E
  8
0
 10
257.50903673469998
 20
281.36363094659998
 30
0.0
  0
VERTEX
  5
1767F
  8
0
 10
257.7748883514999
 20
281.4696839078
 30
0.0
  0
VERTEX
  5
17680
  8
0
 10
257.7748883514999
 20
281.4696839078
 30
0.0
  0
SEQEND
  5
17681
  8
0
  0
ARC
  5
165D1
  8
0
 10
302.21979044095661
 20
223.2742616088251
 30
0.0
 40
78.515048602579171
 50
132.56270412118079
 51
135.8091466734669
  0
ARC
  5
165E1
  8
0
 10
152.3674768073999
 20
276.6106851175
 30
0.0
 40
105.85481816870031
 50
358.5862374977998
 51
1.7375224374001439
  0
POLYLINE
  5
165E5
  8
0
 66
     1
 10
0.0
 20
0.0
 30
0.0
 70
   128
  0
VERTEX
  5
17682
  8
0
 10
258.17362479860031
 20
279.82029207049561
 30
0.0
  0
VERTEX
  5
17683
  8
0
 10
257.9393375665
 20
280.36387711759988
 30
0.0
  0
VERTEX
  5
17684
  8
0
 10
257.71069414909988
 20
280.4719612932999
 30
0.0
  0
SEQEND
  5
17685
  8
0
  0
POLYLINE
  5
165E6
  8
0
 66
     1
 10
0.0
 20
0.0
 30
0.0
 70
   128
  0
VERTEX
  5
17686
  8
0
 10
252.54023149610001
 20
280.26175294059999
 30
0.0
  0
VERTEX
  5
17687
  8
0
 10
252.4171218276
 20
280.24811651549999
 30
0.0
  0
VERTEX
  5
17688
  8
0
 10
251.8398564309
 20
280.02784941339991
 30
0.0
  0
VERTEX
  5
17689
  8
0
 10
251.3635519892
 20
279.55569308240001
 30
0.0
  0
VERTEX
  5
1768A
  8
0
 10
250.9628690779
 20
278.7837104871
 30
0.0
  0
VERTEX
  5
1768B
  8
0
 10
250.74718594549989
 20
278.11248302450002
 30
0.0
  0
VERTEX
  5
1768C
  8
0
 10
250.56299269199999
 20
277.28502154339998
 30
0.0
  0
VERTEX
  5
1768D
  8
0
 10
250.36186613139989
 20
275.73683746149987
 30
0.0
  0
VERTEX
  5
1768E
  8
0
 10
250.30763335520001
 20
274.8997032641999
 30
0.0
  0
VERTEX
  5
1768F
  8
0
 10
250.27631297709991
 20
273.99900257579998
 30
0.0
  0
SEQEND
  5
17690
  8
0
  0
ARC
  5
165EE
  8
0
 10
592.16202493089986
 20
273.82806995300001
 30
0.0
 40
346.26441565743181
 50
179.3091271745366
 51
180.63360301029971
  0
ARC
  5
165FC
  8
0
 10
169.86448303889989
 20
276.89352122410003
 30
0.0
 40
7.4684572676373424
 50
127.8721559814004
 51
151.83238651150171
  0
ARC
  5
165FD
  8
0
 10
172.72527127250001
 20
277.47947586650002
 30
0.0
 40
6.582154186575222
 50
26.525357396598629
 51
53.770205353801408
  0
ARC
  5
165FE
  8
0
 10
170.94753899709991
 20
273.99900222439999
 30
0.0
 40
10.000000000000011
 50
140.05870958650249
 51
219.94129041349751
  0
ARC
  5
165FF
  8
0
 10
170.94753899709991
 20
273.99900222439999
 30
0.0
 40
10.000000000000011
 50
320.05870958650252
 51
39.941290413497462
  0
ARC
  5
16600
  8
0
 10
169.1698150144999
 20
270.51852734189993
 30
0.0
 40
6.5821599571855973
 50
206.52531342000171
 51
233.7701218938995
  0
ARC
  5
16601
  8
0
 10
172.03018819210001
 20
271.10483266080001
 30
0.0
 40
7.4689812492933481
 50
307.87295516950212
 51
331.83150427340252
  0
ARC
  5
16602
  8
0
 10
170.9475375712
 20
265.27395036820002
 30
0.0
 40
18.409300118961688
 50
72.068165257198231
 51
107.9318347428017
  0
ARC
  5
16603
  8
0
 10
170.9475375712
 20
282.72405052260001
 30
0.0
 40
18.40929695120326
 50
252.0681620668002
 51
287.93183793319992
  0
LINE
  5
1660A
  8
0
 10
173.83428923779999
 20
278.999002464
 30
0.0
 11
168.06078590449999
 21
278.999002464
 31
0.0
  0
LINE
  5
16615
  8
0
 10
168.06078590449999
 20
268.9990026875999
 30
0.0
 11
173.83428923779999
 21
268.9990026875999
 31
0.0
  0
CIRCLE
  5
16617
  8
0
 10
170.94753899709991
 20
273.99900222439999
 30
0.0
 40
2.9999999999999769
  0
LINE
  5
16619
  8
0
 10
202.39999908159999
 20
266.49900222439999
 30
0.0
 11
209.99996904279999
 21
266.49900134649999
 31
0.0
  0
LINE
  5
1661A
  8
0
 10
225.20999908159999
 20
266.49900222439999
 30
0.0
 11
217.60999908159999
 21
266.49900222439987
 31
0.0
  0
LINE
  5
1661C
  8
0
 10
231.7786957495999
 20
266.49900222439999
 30
0.0
 11
239.37805630259999
 21
266.49900134649999
 31
0.0
  0
LINE
  5
16622
  8
0
 10
245.90910300609991
 20
270.99900301539998
 30
0.0
 11
180.4869312600274
 21
270.99900301539998
 31
0.0
  0
LINE
  5
16623
  8
0
 10
200.0
 20
273.99900257579998
 30
0.0
 11
245.8976514636999
 21
273.99900257579998
 31
0.0
  0
LINE
  5
16626
  8
0
 10
180.486931039007
 20
276.99900213620009
 30
0.0
 11
245.90910300609991
 21
276.99900213620009
 31
0.0
  0
LINE
  5
16629
  8
0
 10
241.70374944799991
 20
267.99900252359998
 30
0.0
 11
215.2849452569998
 21
267.99900252359998
 31
0.0
  0
LINE
  5
1662C
  8
0
 10
241.70374944799991
 20
279.99900262800003
 30
0.0
 11
215.28494525699989
 21
279.99900262800003
 31
0.0
  0
ARC
  5
1662D
  8
0
 10
153.49999908160001
 20
273.49900222439999
 30
0.0
 40
5.5000000000000284
 50
180.0
 51
270.0
  0
LINE
  5
1662E
  8
0
 10
147.99999706450001
 20
273.49900249379988
 30
0.0
 11
147.99999706450001
 21
273.91581684340002
 31
0.0
  0
LINE
  5
1662F
  8
0
 10
150.9999956934999
 20
273.91581684340002
 30
0.0
 11
147.99999706450001
 21
273.91581684340002
 31
0.0
  0
LINE
  5
16630
  8
0
 10
150.9999956934999
 20
273.91581684340002
 30
0.0
 11
150.9999956934999
 21
273.49900249379988
 31
0.0
  0
ARC
  5
16631
  8
0
 10
153.49999908160001
 20
273.49900222439999
 30
0.0
 40
2.5
 50
180.0
 51
270.0
  0
LINE
  5
16633
  8
0
 10
161.40814386310001
 20
270.99900301539998
 30
0.0
 11
153.50000075989999
 21
270.99900301539998
 31
0.0
  0
LINE
  5
16634
  8
0
 10
212.49999925489999
 20
267.99900252359998
 30
0.0
 11
178.94754074510001
 21
267.99900252359998
 31
0.0
  0
LINE
  5
16635
  8
0
 10
162.94753812249991
 20
267.99900252359998
 30
0.0
 11
153.50000075989999
 21
267.99900252359998
 31
0.0
  0
LINE
  5
16636
  8
0
 10
212.49999925489999
 20
267.99900252359998
 30
0.0
 11
212.49999925489999
 21
270.99900301539998
 31
0.0
  0
ARC
  5
16639
  8
0
 10
153.49999908160001
 20
274.49900222439999
 30
0.0
 40
2.5
 50
90.0
 51
180.0
  0
LINE
  5
1663A
  8
0
 10
150.9999956934999
 20
274.49900265780002
 30
0.0
 11
150.9999956934999
 21
274.08218737679999
 31
0.0
  0
LINE
  5
1663B
  8
0
 10
150.9999956934999
 20
274.08218737679999
 30
0.0
 11
147.99999706450001
 21
274.08218737679999
 31
0.0
  0
LINE
  5
1663C
  8
0
 10
147.99999706450001
 20
274.49900265780002
 30
0.0
 11
147.99999706450001
 21
274.08218737679999
 31
0.0
  0
ARC
  5
1663D
  8
0
 10
153.49999908160001
 20
274.49900222439999
 30
0.0
 40
5.5000000000000133
 50
90.0
 51
180.0
  0
LINE
  5
1663E
  8
0
 10
212.4999992548999
 20
279.99900262800003
 30
0.0
 11
178.94754074510001
 21
279.99900262800003
 31
0.0
  0
LINE
  5
1663F
  8
0
 10
162.94753812249991
 20
279.99900262800003
 30
0.0
 11
153.50000075989999
 21
279.99900262800003
 31
0.0
  0
LINE
  5
16641
  8
0
 10
161.40814386310001
 20
276.99900213620009
 30
0.0
 11
153.50000075989999
 21
276.99900213620009
 31
0.0
  0
LINE
  5
16642
  8
0
 10
212.49999925489999
 20
276.99900213620009
 30
0.0
 11
212.49999925489999
 21
279.99900262800003
 31
0.0
  0
LINE
  5
16645
  8
0
 10
200.0
 20
270.99900301539998
 30
0.0
 11
199.99999999999989
 21
276.99900213620009
 31
0.0
  0
LINE
  5
16647
  8
0
 10
241.9999994337
 20
270.7990014925
 30
0.0
 11
241.9999994337
 21
270.99900301539998
 31
0.0
  0
ARC
  5
1664A
  8
0
 10
239.99999908160001
 20
248.00000222439991
 30
0.0
 40
2.0
 50
270.0
 51
0.0
  0
LINE
  5
1664B
  8
0
 10
239.9999991059
 20
246.00000102070001
 30
0.0
 11
201.99999846519989
 21
246.00000102070001
 31
0.0
  0
ARC
  5
1664C
  8
0
 10
201.99999908160001
 20
248.00000222439991
 30
0.0
 40
2.0
 50
180.0
 51
270.0
  0
LINE
  5
1664D
  8
0
 10
241.9999994337
 20
270.7990014925
 30
0.0
 11
241.9999994337
 21
248.00000134849989
 31
0.0
  0
LINE
  5
1664E
  8
0
 10
200.0
 20
248.00000134849989
 30
0.0
 11
200.0
 21
267.99900252359998
 31
0.0
  0
CIRCLE
  5
1664F
  8
0
 10
232.99999908160001
 20
256.99900222439999
 30
0.0
 40
4.2499999999604361
  0
CIRCLE
  5
16650
  8
0
 10
208.99999908160001
 20
256.99900222439999
 30
0.0
 40
4.2500000000172804
  0
LINE
  5
16652
  8
0
 10
241.9999994337
 20
277.19900179649989
 30
0.0
 11
241.9999994337
 21
276.99900213620009
 31
0.0
  0
ARC
  5
16655
  8
0
 10
239.99999908160001
 20
299.99800222440001
 30
0.0
 40
2.0
 50
0.0
 51
90.0
  0
ARC
  5
16656
  8
0
 10
201.99999908160001
 20
299.99800222440001
 30
0.0
 40
2.0
 50
90.0
 51
180.0
  0
LINE
  5
16657
  8
0
 10
201.99999846519989
 20
301.99800226830001
 30
0.0
 11
239.9999991059
 21
301.99800226830001
 31
0.0
  0
LINE
  5
16658
  8
0
 10
241.9999994337
 20
299.99800194049999
 30
0.0
 11
241.9999994337
 21
277.19900179649989
 31
0.0
  0
LINE
  5
16659
  8
0
 10
200.0
 20
279.99900262800003
 30
0.0
 11
200.0
 21
299.99800194049999
 31
0.0
  0
CIRCLE
  5
1665A
  8
0
 10
232.99999908160001
 20
290.99900222439999
 30
0.0
 40
4.25
  0
CIRCLE
  5
1665B
  8
0
 10
208.99999908160001
 20
290.99900222439999
 30
0.0
 40
4.25
  0
POLYLINE
  5
16661
  8
0
 66
     1
 10
0.0
 20
0.0
 30
0.0
 70
   128
  0
VERTEX
  5
17691
  8
0
 10
249.99960586430001
 20
273.99899978180002
 30
0.0
  0
VERTEX
  5
17692
  8
0
 10
250.03495700659991
 20
275.16486383969999
 30
0.0
  0
VERTEX
  5
17693
  8
0
 10
250.10224506259999
 20
276.27867441619998
 30
0.0
  0
VERTEX
  5
17694
  8
0
 10
250.20763911299991
 20
277.3044237865999
 30
0.0
  0
VERTEX
  5
17695
  8
0
 10
250.3467004746
 20
278.2119398936
 30
0.0
  0
VERTEX
  5
17696
  8
0
 10
250.51733180880001
 20
278.99829652149992
 30
0.0
  0
VERTEX
  5
17697
  8
0
 10
250.7156793028
 20
279.6560682356
 30
0.0
  0
VERTEX
  5
17698
  8
0
 10
251.20795592659999
 20
280.6225808337
 30
0.0
  0
VERTEX
  5
17699
  8
0
 10
251.83480679990001
 20
281.14079013460008
 30
0.0
  0
VERTEX
  5
1769A
  8
0
 10
252.3802861570999
 20
281.21238322919999
 30
0.0
  0
SEQEND
  5
1769B
  8
0
  0
POLYLINE
  5
16662
  8
0
 66
     1
 10
0.0
 20
0.0
 30
0.0
 70
   128
  0
VERTEX
  5
1769C
  8
0
 10
257.7748883514999
 20
281.4696839078
 30
0.0
  0
VERTEX
  5
1769D
  8
0
 10
258.11189673839999
 20
281.33879909279989
 30
0.0
  0
VERTEX
  5
1769E
  8
0
 10
258.29604528839991
 20
280.76360076660001
 30
0.0
  0
VERTEX
  5
1769F
  8
0
 10
258.3853889257
 20
279.73427418610009
 30
0.0
  0
VERTEX
  5
176A0
  8
0
 10
258.40422771869999
 20
279.04957607379993
 30
0.0
  0
VERTEX
  5
176A1
  8
0
 10
258.4106612949999
 20
278.24047096070001
 30
0.0
  0
VERTEX
  5
176A2
  8
0
 10
258.40864591299999
 20
277.31739431609998
 30
0.0
  0
VERTEX
  5
176A3
  8
0
 10
258.40010382229991
 20
276.28020737309998
 30
0.0
  0
VERTEX
  5
176A4
  8
0
 10
258.38513933119998
 20
275.16741566349992
 30
0.0
  0
VERTEX
  5
176A5
  8
0
 10
258.37402679019999
 20
273.9990258589001
 30
0.0
  0
SEQEND
  5
176A6
  8
0
  0
POLYLINE
  5
1668C
  8
0
 66
     1
 10
0.0
 20
0.0
 30
0.0
 70
   128
  0
VERTEX
  5
176A7
  8
0
 10
259.65944938360002
 20
72.001122310800014
 30
0.0
  0
VERTEX
  5
176A8
  8
0
 10
259.6795249729999
 20
72.896617837300013
 30
0.0
  0
VERTEX
  5
176A9
  8
0
 10
259.7106199710999
 20
73.643569275800019
 30
0.0
  0
SEQEND
  5
176AA
  8
0
  0
CIRCLE
  5
16690
  8
0
 10
170.94753899709991
 20
72.00099879630001
 30
0.0
 40
7.4757163054473112
  0
POLYLINE
  5
16693
  8
0
 66
     1
 10
0.0
 20
0.0
 30
0.0
 70
   128
  0
VERTEX
  5
176AB
  8
0
 10
246.09778523439991
 20
76.00100375720001
 30
0.0
  0
VERTEX
  5
176AC
  8
0
 10
247.19681851559989
 20
77.111851796500005
 30
0.0
  0
VERTEX
  5
176AD
  8
0
 10
247.98339493569989
 20
77.914286777399994
 30
0.0
  0
VERTEX
  5
176AE
  8
0
 10
248.57734404499999
 20
78.525936603600016
 30
0.0
  0
VERTEX
  5
176AF
  8
0
 10
248.98059740659991
 20
78.949392214500008
 30
0.0
  0
VERTEX
  5
176B0
  8
0
 10
249.1279810666999
 20
79.114560410400017
 30
0.0
  0
VERTEX
  5
176B1
  8
0
 10
249.1102281958
 20
79.127632454100009
 30
0.0
  0
SEQEND
  5
176B2
  8
0
  0
POLYLINE
  5
16694
  8
0
 66
     1
 10
0.0
 20
0.0
 30
0.0
 70
   128
  0
VERTEX
  5
176B3
  8
0
 10
252.0701948553
 20
79.247294366400013
 30
0.0
  0
VERTEX
  5
176B4
  8
0
 10
252.33020521700001
 20
79.233458638200005
 30
0.0
  0
VERTEX
  5
176B5
  8
0
 10
252.8130810708
 20
79.132568463700011
 30
0.0
  0
VERTEX
  5
176B6
  8
0
 10
253.40263620019991
 20
78.948723524800016
 30
0.0
  0
VERTEX
  5
176B7
  8
0
 10
254.1794374584999
 20
78.724086657200004
 30
0.0
  0
VERTEX
  5
176B8
  8
0
 10
254.67842519280001
 20
78.63933630290002
 30
0.0
  0
VERTEX
  5
176B9
  8
0
 10
254.95850928129991
 20
78.62165980040001
 30
0.0
  0
VERTEX
  5
176BA
  8
0
 10
255.24366535239989
 20
78.627720847800006
 30
0.0
  0
VERTEX
  5
176BB
  8
0
 10
255.52027747029999
 20
78.660052642300016
 30
0.0
  0
VERTEX
  5
176BC
  8
0
 10
255.77366612849991
 20
78.712502867000012
 30
0.0
  0
VERTEX
  5
176BD
  8
0
 10
256.1980437487
 20
78.852745145600011
 30
0.0
  0
VERTEX
  5
176BE
  8
0
 10
256.78175203500001
 20
79.141876101500003
 30
0.0
  0
VERTEX
  5
176BF
  8
0
 10
257.1732763201
 20
79.354299604900007
 30
0.0
  0
VERTEX
  5
176C0
  8
0
 10
257.45994858440002
 20
79.45933975280002
 30
0.0
  0
VERTEX
  5
176C1
  8
0
 10
257.5218033045
 20
79.468327015700012
 30
0.0
  0
SEQEND
  5
176C2
  8
0
  0
POLYLINE
  5
1669E
  8
0
 66
     1
 10
0.0
 20
0.0
 30
0.0
 70
   128
  0
VERTEX
  5
176C3
  8
0
 10
290.54110758000002
 20
72.005550749600019
 30
0.0
  0
VERTEX
  5
176C4
  8
0
 10
290.5158426612
 20
73.349877633199995
 30
0.0
  0
VERTEX
  5
176C5
  8
0
 10
290.5176680534999
 20
74.201120436200014
 30
0.0
  0
SEQEND
  5
176C6
  8
0
  0
POLYLINE
  5
166A0
  8
0
 66
     1
 10
0.0
 20
0.0
 30
0.0
 70
   128
  0
VERTEX
  5
176C7
  8
0
 10
295.90578638020003
 20
72.00099844490002
 30
0.0
  0
VERTEX
  5
176C8
  8
0
 10
295.83283029489991
 20
73.758537322300015
 30
0.0
  0
VERTEX
  5
176C9
  8
0
 10
295.59390507640001
 20
75.404620170600012
 30
0.0
  0
VERTEX
  5
176CA
  8
0
 10
295.36530636249989
 20
76.25193744900001
 30
0.0
  0
VERTEX
  5
176CB
  8
0
 10
295.04411928349998
 20
77.011920884300011
 30
0.0
  0
VERTEX
  5
176CC
  8
0
 10
294.64493952689998
 20
77.642960846500017
 30
0.0
  0
VERTEX
  5
176CD
  8
0
 10
294.10297684369988
 20
78.164220228800019
 30
0.0
  0
VERTEX
  5
176CE
  8
0
 10
293.39779429139998
 20
78.506965562700003
 30
0.0
  0
VERTEX
  5
176CF
  8
0
 10
293.09320710599991
 20
78.571560233900016
 30
0.0
  0
VERTEX
  5
176D0
  8
0
 10
292.76139549909999
 20
78.58968004590001
 30
0.0
  0
VERTEX
  5
176D1
  8
0
 10
292.46054850519999
 20
78.563608601700011
 30
0.0
  0
VERTEX
  5
176D2
  8
0
 10
292.1574663371
 20
78.482451289900013
 30
0.0
  0
VERTEX
  5
176D3
  8
0
 10
291.68748371299989
 20
78.220907971300022
 30
0.0
  0
VERTEX
  5
176D4
  8
0
 10
291.31934307509999
 20
77.833617478600019
 30
0.0
  0
VERTEX
  5
176D5
  8
0
 10
291.04884229599998
 20
77.35396586360001
 30
0.0
  0
VERTEX
  5
176D6
  8
0
 10
290.82910232239999
 20
76.712284609700006
 30
0.0
  0
VERTEX
  5
176D7
  8
0
 10
290.67050181330001
 20
75.937509909300005
 30
0.0
  0
VERTEX
  5
176D8
  8
0
 10
290.57630412279991
 20
75.163800641900011
 30
0.0
  0
VERTEX
  5
176D9
  8
0
 10
290.51902405919998
 20
74.28272664550002
 30
0.0
  0
VERTEX
  5
176DA
  8
0
 10
290.5176680534999
 20
74.201120436200014
 30
0.0
  0
SEQEND
  5
176DB
  8
0
  0
ARC
  5
166A2
  8
0
 10
262.17250356782102
 20
71.965494166219599
 30
0.0
 40
23.912687711907449
 50
0.0850742005744377
 51
12.163215282768361
  0
POLYLINE
  5
166A5
  8
0
 66
     1
 10
0.0
 20
0.0
 30
0.0
 70
   128
  0
VERTEX
  5
176DC
  8
0
 10
285.54838411509991
 20
77.003831416400004
 30
0.0
  0
VERTEX
  5
176DD
  8
0
 10
285.20826138550001
 20
77.590689435600012
 30
0.0
  0
VERTEX
  5
176DE
  8
0
 10
284.72724445159997
 20
78.068178519600011
 30
0.0
  0
VERTEX
  5
176DF
  8
0
 10
284.166271612
 20
78.342678397900016
 30
0.0
  0
VERTEX
  5
176E0
  8
0
 10
283.81737582379992
 20
78.413270786400005
 30
0.0
  0
VERTEX
  5
176E1
  8
0
 10
283.46649073060001
 20
78.430617600700018
 30
0.0
  0
VERTEX
  5
176E2
  8
0
 10
283.07701535519988
 20
78.389224037600002
 30
0.0
  0
VERTEX
  5
176E3
  8
0
 10
282.75832422079998
 20
78.311158716700021
 30
0.0
  0
VERTEX
  5
176E4
  8
0
 10
282.35746808350001
 20
78.139963001100014
 30
0.0
  0
VERTEX
  5
176E5
  8
0
 10
281.73845149570002
 20
77.661671117000012
 30
0.0
  0
VERTEX
  5
176E6
  8
0
 10
281.28806017340003
 20
77.051680907600002
 30
0.0
  0
VERTEX
  5
176E7
  8
0
 10
280.93594200910002
 20
76.310070604100019
 30
0.0
  0
VERTEX
  5
176E8
  8
0
 10
280.67702315749989
 20
75.440807640600013
 30
0.0
  0
VERTEX
  5
176E9
  8
0
 10
280.50108887250002
 20
74.44142960020001
 30
0.0
  0
VERTEX
  5
176EA
  8
0
 10
280.4102402179999
 20
73.434953019100007
 30
0.0
  0
VERTEX
  5
176EB
  8
0
 10
280.38850687439998
 20
72.359646111800004
 30
0.0
  0
VERTEX
  5
176EC
  8
0
 10
280.39489202200002
 20
72.00099844490002
 30
0.0
  0
SEQEND
  5
176ED
  8
0
  0
ARC
  5
166A7
  8
0
 10
243.45552883552401
 20
71.821104292751926
 30
0.0
 40
33.23505258265785
 50
0.3101327836445555
 51
7.2045214464018494
  0
POLYLINE
  5
166AD
  8
0
 66
     1
 10
0.0
 20
0.0
 30
0.0
 70
   128
  0
VERTEX
  5
176EE
  8
0
 10
276.4281842856999
 20
75.989162921900004
 30
0.0
  0
VERTEX
  5
176EF
  8
0
 10
276.07503421600001
 20
77.179126814000014
 30
0.0
  0
VERTEX
  5
176F0
  8
0
 10
275.71824826300002
 20
77.79204510160001
 30
0.0
  0
VERTEX
  5
176F1
  8
0
 10
275.20689256489987
 20
78.267969563600019
 30
0.0
  0
VERTEX
  5
176F2
  8
0
 10
274.49628971519991
 20
78.555183857700015
 30
0.0
  0
VERTEX
  5
176F3
  8
0
 10
274.09193925559998
 20
78.615103289500013
 30
0.0
  0
VERTEX
  5
176F4
  8
0
 10
273.62297736110003
 20
78.625498712100011
 30
0.0
  0
VERTEX
  5
176F5
  8
0
 10
273.2073578982999
 20
78.589175268999995
 30
0.0
  0
VERTEX
  5
176F6
  8
0
 10
272.69504480059987
 20
78.485429659500014
 30
0.0
  0
VERTEX
  5
176F7
  8
0
 10
271.97354175150002
 20
78.194445371700013
 30
0.0
  0
VERTEX
  5
176F8
  8
0
 10
271.43801264459989
 20
77.810841053800019
 30
0.0
  0
VERTEX
  5
176F9
  8
0
 10
270.99958695469991
 20
77.315047755900011
 30
0.0
  0
VERTEX
  5
176FA
  8
0
 10
270.3357812017
 20
75.922552868800011
 30
0.0
  0
VERTEX
  5
176FB
  8
0
 10
270.0882580130999
 20
74.955268204300012
 30
0.0
  0
VERTEX
  5
176FC
  8
0
 10
269.91977430880002
 20
73.835948854700007
 30
0.0
  0
VERTEX
  5
176FD
  8
0
 10
269.82789002359988
 20
72.00099844490002
 30
0.0
  0
SEQEND
  5
176FE
  8
0
  0
LINE
  5
166B0
  8
0
 10
246.0900049656
 20
75.000998005300005
 30
0.0
 11
246.0900049656
 21
69.000998884500007
 31
0.0
  0
POLYLINE
  5
166B3
  8
0
 66
     1
 10
0.0
 20
0.0
 30
0.0
 70
   128
  0
VERTEX
  5
176FF
  8
0
 10
245.90910300609991
 20
75.000998005300005
 30
0.0
  0
VERTEX
  5
17700
  8
0
 10
245.90990580619999
 20
75.117933005100014
 30
0.0
  0
VERTEX
  5
17701
  8
0
 10
245.91878131030001
 20
76.00100375720001
 30
0.0
  0
SEQEND
  5
17702
  8
0
  0
LINE
  5
166B4
  8
0
 10
246.09778523439991
 20
76.00100375720001
 30
0.0
 11
245.91878131030001
 21
76.00100375720001
 31
0.0
  0
POLYLINE
  5
166B5
  8
0
 66
     1
 10
0.0
 20
0.0
 30
0.0
 70
   128
  0
VERTEX
  5
17703
  8
0
 10
266.98265112929988
 20
75.46850144870001
 30
0.0
  0
VERTEX
  5
17704
  8
0
 10
267.0523066072999
 20
73.805487156000012
 30
0.0
  0
VERTEX
  5
17705
  8
0
 10
267.07314960659988
 20
72.000999376200014
 30
0.0
  0
SEQEND
  5
17706
  8
0
  0
POLYLINE
  5
166BA
  8
0
 66
     1
 10
0.0
 20
0.0
 30
0.0
 70
   128
  0
VERTEX
  5
17707
  8
0
 10
266.98265112929988
 20
75.46850144870001
 30
0.0
  0
VERTEX
  5
17708
  8
0
 10
266.95069931450001
 20
75.751359015700018
 30
0.0
  0
VERTEX
  5
17709
  8
0
 10
266.7314026505
 20
77.186994627199994
 30
0.0
  0
VERTEX
  5
1770A
  8
0
 10
266.55088253319991
 20
77.794704958800011
 30
0.0
  0
VERTEX
  5
1770B
  8
0
 10
266.30558706819988
 20
78.259455412700007
 30
0.0
  0
VERTEX
  5
1770C
  8
0
 10
266.01583771409992
 20
78.542516008100009
 30
0.0
  0
VERTEX
  5
1770D
  8
0
 10
265.61147980390001
 20
78.711225092400014
 30
0.0
  0
VERTEX
  5
1770E
  8
0
 10
265.02119265490001
 20
78.764286264800006
 30
0.0
  0
VERTEX
  5
1770F
  8
0
 10
264.65941108760001
 20
78.757107630400014
 30
0.0
  0
VERTEX
  5
17710
  8
0
 10
264.21543844040002
 20
78.739038109800006
 30
0.0
  0
VERTEX
  5
17711
  8
0
 10
263.77909891309992
 20
78.721261024500009
 30
0.0
  0
VERTEX
  5
17712
  8
0
 10
263.30932863049998
 20
78.702476248200014
 30
0.0
  0
VERTEX
  5
17713
  8
0
 10
262.66429834069987
 20
78.66046242420002
 30
0.0
  0
VERTEX
  5
17714
  8
0
 10
262.12754733859992
 20
78.579305112400007
 30
0.0
  0
VERTEX
  5
17715
  8
0
 10
261.67522631579988
 20
78.440796956500009
 30
0.0
  0
VERTEX
  5
17716
  8
0
 10
261.07124872499992
 20
78.064533323100008
 30
0.0
  0
VERTEX
  5
17717
  8
0
 10
260.59000827369999
 20
77.466184645900015
 30
0.0
  0
VERTEX
  5
17718
  8
0
 10
260.2339785545999
 20
76.667463779500011
 30
0.0
  0
VERTEX
  5
17719
  8
0
 10
259.956504032
 20
75.607655942500017
 30
0.0
  0
VERTEX
  5
1771A
  8
0
 10
259.8240029067
 20
74.808150902400016
 30
0.0
  0
VERTEX
  5
1771B
  8
0
 10
259.72560308869993
 20
73.903657868500005
 30
0.0
  0
VERTEX
  5
1771C
  8
0
 10
259.7106199710999
 20
73.643569275800019
 30
0.0
  0
SEQEND
  5
1771D
  8
0
  0
ARC
  5
166BE
  8
0
 10
172.03016013189989
 20
69.106854515699993
 30
0.0
 40
7.4690182532362437
 50
307.87300709349682
 51
331.8314301560992
  0
ARC
  5
166BF
  8
0
 10
169.16981578409991
 20
68.520525946700019
 30
0.0
 40
6.5821618675133324
 50
206.5253317345018
 51
233.7701257725993
  0
ARC
  5
166C0
  8
0
 10
170.94753899709991
 20
72.00099879630001
 30
0.0
 40
9.9999999999999982
 50
140.05870958650249
 51
219.94129041349751
  0
ARC
  5
166C1
  8
0
 10
170.94753899709991
 20
72.00099879630001
 30
0.0
 40
10.000000000000011
 50
320.05870958650252
 51
39.941290413497462
  0
ARC
  5
166C2
  8
0
 10
172.725262184
 20
75.481466155900023
 30
0.0
 40
6.5821648102928583
 50
26.525365522601689
 51
53.770175034502458
  0
ARC
  5
166C3
  8
0
 10
169.8644686410999
 20
74.89553155450001
 30
0.0
 40
7.4684377484492099
 50
127.87213251129759
 51
151.8324321748004
  0
ARC
  5
166C4
  8
0
 10
170.9475375712
 20
80.726050652500021
 30
0.0
 40
18.409300118961688
 50
252.0681652573009
 51
287.93183474280181
  0
ARC
  5
166C5
  8
0
 10
170.9475375712
 20
63.275950498100002
 30
0.0
 40
18.40929695120327
 50
72.068162066800156
 51
107.9318379331998
  0
LINE
  5
166C6
  8
0
 10
241.9999994337
 20
75.000998005300005
 30
0.0
 11
246.0900049656
 21
75.000998005300005
 31
0.0
  0
LINE
  5
166C7
  8
0
 10
246.0900049656
 20
72.00099844490002
 30
0.0
 11
241.9999994337
 21
72.00099844490002
 31
0.0
  0
LINE
  5
166C8
  8
0
 10
246.0900049656
 20
69.000998884500007
 30
0.0
 11
241.9999994337
 21
69.000998884500007
 31
0.0
  0
ARC
  5
166CE
  8
0
 10
153.49999908160001
 20
72.50099879630001
 30
0.0
 40
2.5
 50
90.0
 51
180.0
  0
LINE
  5
166CF
  8
0
 10
150.9999956934999
 20
72.084184177300017
 30
0.0
 11
150.9999956934999
 21
72.500998526900005
 31
0.0
  0
ARC
  5
166D0
  8
0
 10
153.49999908160001
 20
72.50099879630001
 30
0.0
 40
5.5000000000000133
 50
90.0
 51
180.0
  0
LINE
  5
166D1
  8
0
 10
150.9999956934999
 20
72.084184177300017
 30
0.0
 11
147.99999706450001
 21
72.084184177300017
 31
0.0
  0
LINE
  5
166D2
  8
0
 10
147.99999706450001
 20
72.084184177300017
 30
0.0
 11
147.99999706450001
 21
72.500998526900005
 31
0.0
  0
LINE
  5
166D3
  8
0
 10
153.50000075989999
 20
78.000998497000012
 30
0.0
 11
162.94753812249991
 21
78.000998497000012
 31
0.0
  0
LINE
  5
166D4
  8
0
 10
178.94754074510001
 20
78.000998497000012
 30
0.0
 11
199.99999964677329
 21
78.000998497000012
 31
0.0
  0
LINE
  5
166D5
  8
0
 10
153.50000075989999
 20
75.000998005300005
 30
0.0
 11
161.40814386310001
 21
75.000998005300005
 31
0.0
  0
LINE
  5
166D6
  8
0
 10
180.48693127929991
 20
75.000998005300005
 30
0.0
 11
199.9999995937867
 21
75.000998005300005
 31
0.0
  0
ARC
  5
166DC
  8
0
 10
153.49999908160001
 20
71.50099879630001
 30
0.0
 40
5.5000000000000133
 50
180.0
 51
270.0
  0
LINE
  5
166DD
  8
0
 10
147.99999706450001
 20
71.50099836290002
 30
0.0
 11
147.99999706450001
 21
71.917813643900004
 31
0.0
  0
LINE
  5
166DE
  8
0
 10
150.9999956934999
 20
71.917813643900004
 30
0.0
 11
147.99999706450001
 21
71.917813643900004
 31
0.0
  0
LINE
  5
166DF
  8
0
 10
150.9999956934999
 20
71.917813643900004
 30
0.0
 11
150.9999956934999
 21
71.50099836290002
 31
0.0
  0
ARC
  5
166E0
  8
0
 10
153.49999908160001
 20
71.50099879630001
 30
0.0
 40
2.5
 50
180.0
 51
270.0
  0
LINE
  5
166E1
  8
0
 10
153.50000075989999
 20
69.000998884500007
 30
0.0
 11
161.40814386310001
 21
69.000998884500007
 31
0.0
  0
LINE
  5
166E2
  8
0
 10
180.48693127929991
 20
69.000998884500007
 30
0.0
 11
199.9999994878134
 21
69.000998884500007
 31
0.0
  0
LINE
  5
166E3
  8
0
 10
153.50000075989999
 20
66.000998392700012
 30
0.0
 11
162.94753812249991
 21
66.000998392700012
 31
0.0
  0
LINE
  5
166E4
  8
0
 10
178.94754074510001
 20
66.000998392700012
 30
0.0
 11
199.99999943482669
 21
66.000998392700026
 31
0.0
  0
ARC
  5
166E7
  8
0
 10
239.99999908160001
 20
97.999998796300019
 30
0.0
 40
2.0
 50
0.0
 51
90.0
  0
LINE
  5
166E8
  8
0
 10
241.9999994337
 20
97.999999672200033
 30
0.0
 11
241.99999908160001
 21
46.001998796300008
 31
0.0
  0
LINE
  5
166E9
  8
0
 10
199.9999990815999
 20
46.001998796300008
 30
0.0
 11
200.0
 21
97.999999672200033
 31
0.0
  0
ARC
  5
166EA
  8
0
 10
201.99999908160001
 20
97.999998796300019
 30
0.0
 40
1.9999999999999849
 50
90.0
 51
180.0
  0
LINE
  5
166EB
  8
0
 10
201.99999846519989
 20
100.0
 30
0.0
 11
239.9999991059
 21
100.0
 31
0.0
  0
CIRCLE
  5
166EC
  8
0
 10
232.99999908160001
 20
89.00099879630001
 30
0.0
 40
4.25
  0
CIRCLE
  5
166ED
  8
0
 10
208.99999908160001
 20
89.00099879630001
 30
0.0
 40
4.25
  0
LINE
  5
166EE
  8
0
 10
200.0
 20
72.00099844490002
 30
0.0
 11
241.9999994337
 21
72.00099844490002
 31
0.0
  0
ARC
  5
166F4
  8
0
 10
239.99999908160001
 20
46.001998796300008
 30
0.0
 40
2.0
 50
270.0
 51
0.0
  0
LINE
  5
166F5
  8
0
 10
239.9999991059
 20
44.001998752400013
 30
0.0
 11
201.99999846519989
 21
44.001998752400013
 31
0.0
  0
ARC
  5
166F6
  8
0
 10
201.99999908160001
 20
46.001998796300008
 30
0.0
 40
1.9999999999999849
 50
180.0
 51
270.0
  0
CIRCLE
  5
166F8
  8
0
 10
208.99999908160001
 20
55.000998796300031
 30
0.0
 40
4.249999999946346
  0
CIRCLE
  5
166F9
  8
0
 10
232.99999908160001
 20
55.000998796300031
 30
0.0
 40
4.2499999999463531
  0
CIRCLE
  5
1672D
  8
0
 10
170.94753899709991
 20
72.00099879630001
 30
0.0
 40
5.5946830468514026
  0
ARC
  5
16733
  8
0
 10
68.854285087273411
 20
173.46082686525111
 30
0.0
 40
9.8392072557115586
 50
13.18982255286236
 51
27.136836329268181
  0
ARC
  5
16734
  8
0
 10
56.726463004800053
 20
171.13048709660001
 30
0.0
 40
22.255585894028972
 50
338.97956699459809
 51
6.068350165200024
  0
ARC
  5
16735
  8
0
 10
82.908849525899996
 20
171.08649356800001
 30
0.0
 40
21.89232590409777
 50
173.72801169969981
 51
204.58389688470149
  0
POLYLINE
  5
16736
  8
0
 66
     1
 10
0.0
 20
0.0
 30
0.0
 70
   128
  0
VERTEX
  5
1771E
  8
0
 10
63.000995759000027
 20
179.0910992771
 30
0.0
  0
VERTEX
  5
1771F
  8
0
 10
62.907760590400017
 20
178.94916571670001
 30
0.0
  0
VERTEX
  5
17720
  8
0
 10
62.792472634500093
 20
178.72272394589999
 30
0.0
  0
SEQEND
  5
17721
  8
0
  0
ARC
  5
16737
  8
0
 10
71.018309909953814
 20
173.46392505382559
 30
0.0
 40
9.7164818381189448
 50
153.2267294751673
 51
167.3567411037989
  0
LINE
  5
16739
  8
0
 10
79.67169173069999
 20
174.89372901620001
 30
0.0
 11
77.939640358199995
 21
175.8937291801
 31
0.0
  0
LINE
  5
1673A
  8
0
 10
62.062351591900097
 20
175.8937291801
 30
0.0
 11
60.330300685100042
 21
174.89372901620001
 31
0.0
  0
LINE
  5
1673B
  8
0
 10
77.939640358199995
 20
185.10627243659999
 30
0.0
 11
79.67169173069999
 21
186.10627073789999
 31
0.0
  0
LINE
  5
1673C
  8
0
 10
60.330300685100042
 20
186.10627073789999
 30
0.0
 11
62.062351591900097
 21
185.10627243659999
 31
0.0
  0
LINE
  5
16741
  8
0
 10
67.000995949000071
 20
195.50000000739999
 30
0.0
 11
67.000995949000071
 21
193.8500000164
 31
0.0
  0
LINE
  5
16742
  8
0
 10
67.000995949000071
 20
167.1500004362
 30
0.0
 11
67.000995949000071
 21
163.0000004428
 31
0.0
  0
LINE
  5
16743
  8
0
 10
73.000995069800069
 20
163.0000004428
 30
0.0
 11
73.000995069800069
 21
167.1500004362
 31
0.0
  0
LINE
  5
16744
  8
0
 10
73.000995069800069
 20
193.8500000164
 30
0.0
 11
73.000995069800069
 21
195.50000000739999
 31
0.0
  0
LINE
  5
16745
  8
0
 10
73.000995069800069
 20
195.50000000739999
 30
0.0
 11
72.500995919200022
 21
196.00000102070001
 31
0.0
  0
LINE
  5
16746
  8
0
 10
67.500996030900055
 20
196.00000102070001
 30
0.0
 11
67.000995949000071
 21
195.50000000739999
 31
0.0
  0
ARC
  5
16747
  8
0
 10
76.976712166200059
 20
157.96441846600001
 30
0.0
 40
0.4999999999999958
 50
345.96375653379931
 51
21.801409486398999
  0
ARC
  5
16748
  8
0
 10
63.025279555300017
 20
157.96441846600001
 30
0.0
 40
0.4999999999999984
 50
158.19859051370219
 51
194.03624346619969
  0
LINE
  5
16749
  8
0
 10
62.540208082700019
 20
157.84315075719999
 30
0.0
 11
64.406312629600052
 21
150.37873256949999
 31
0.0
  0
LINE
  5
1674A
  8
0
 10
75.595678389100044
 20
150.37873256949999
 30
0.0
 11
77.461784333100013
 21
157.84315075719999
 31
0.0
  0
LINE
  5
1674B
  8
0
 10
77.440950647100067
 20
158.15011374650001
 30
0.0
 11
75.626717507900025
 21
162.68569577950001
 31
0.0
  0
LINE
  5
1674C
  8
0
 10
64.375274442200066
 20
162.68569577950001
 30
0.0
 11
62.561041303000017
 21
158.15011374650001
 31
0.0
  0
ARC
  5
1674D
  8
0
 10
75.162479380100081
 20
162.5000004314
 30
0.0
 40
0.5000000000082344
 50
21.801409481901871
 51
90.0
  0
ARC
  5
1674E
  8
0
 10
64.83951234150004
 20
162.5000004314
 30
0.0
 40
0.5000000000082212
 50
90.0
 51
158.198590518098
  0
ARC
  5
1674F
  8
0
 10
75.110607657599985
 20
150.5000004314
 30
0.0
 40
0.5
 50
270.0
 51
345.96375652670088
  0
ARC
  5
16750
  8
0
 10
64.891384064000022
 20
150.5000004314
 30
0.0
 40
0.5
 50
194.03624347329901
 51
270.0
  0
ARC
  5
16751
  8
0
 10
77.300995860800072
 20
177.49000043140001
 30
0.0
 40
0.2000000000000028
 50
270.0
 51
0.0
  0
ARC
  5
16752
  8
0
 10
77.300995860800072
 20
185.0900004314
 30
0.0
 40
0.2000000000000171
 50
0.0
 51
90.0
  0
LINE
  5
16753
  8
0
 10
77.300995215800071
 20
185.29000002890001
 30
0.0
 11
76.000995561500076
 21
185.29000002890001
 31
0.0
  0
LINE
  5
16754
  8
0
 10
76.000995561500076
 20
177.2900005802
 30
0.0
 11
77.300995215800071
 21
177.2900005802
 31
0.0
  0
ARC
  5
16755
  8
0
 10
64.000995860800003
 20
178.29000043139999
 30
0.0
 40
1.0
 50
180.0
 51
270.0
  0
ARC
  5
16756
  8
0
 10
64.000995860800003
 20
184.29000043139999
 30
0.0
 40
1.0
 50
90.0
 51
180.0
  0
LINE
  5
16757
  8
0
 10
63.000995759000027
 20
184.289999865
 30
0.0
 11
63.000995759000027
 21
178.29000074410001
 31
0.0
  0
ARC
  5
1675A
  8
0
 10
77.300995860800072
 20
155.89325739789999
 30
0.0
 40
0.2000000000000171
 50
270.0
 51
0.0
  0
LINE
  5
1675C
  8
0
 10
76.924310624700055
 20
155.69325778629999
 30
0.0
 11
77.300995215800071
 21
155.69325778629999
 31
0.0
  0
POLYLINE
  5
1675D
  8
0
 66
     1
 10
0.0
 20
0.0
 30
0.0
 70
   128
  0
VERTEX
  5
17722
  8
0
 10
63.046546280400086
 20
162.99162890060001
 30
0.0
 42
0.0758908994461136
  0
VERTEX
  5
17723
  8
0
 10
63.000995759000027
 20
162.6932574203
 30
0.0
  0
SEQEND
  5
17724
  8
0
  0
LINE
  5
1675E
  8
0
 10
63.000995759000027
 20
162.6932574203
 30
0.0
 11
63.000995759000027
 21
159.25000058480001
 31
0.0
  0
ARC
  5
1675F
  8
0
 10
77.300995860800072
 20
162.49000043140001
 30
0.0
 40
0.2000000000000171
 50
270.0
 51
0.0
  0
ARC
  5
16760
  8
0
 10
77.300995860800072
 20
170.0900004314
 30
0.0
 40
0.2000000000000028
 50
0.0
 51
90.0
  0
LINE
  5
16761
  8
0
 10
77.300995215800071
 20
170.29000036420001
 30
0.0
 11
76.000995561500076
 21
170.29000036420001
 31
0.0
  0
LINE
  5
16762
  8
0
 10
76.000995561500076
 20
162.2900004498
 30
0.0
 11
77.300995215800071
 21
162.2900004498
 31
0.0
  0
ARC
  5
16763
  8
0
 10
64.000995860800003
 20
163.29000043139999
 30
0.0
 40
1.0
 50
180.0
 51
270.0
  0
ARC
  5
16764
  8
0
 10
64.000995860800003
 20
169.29000043139999
 30
0.0
 40
1.0
 50
90.0
 51
180.0
  0
LINE
  5
16765
  8
0
 10
63.000995759000027
 20
172.0621649382833
 30
0.0
 11
63.000995759000027
 21
163.2900004391
 31
0.0
  0
POLYLINE
  5
16766
  8
0
 66
     1
 10
0.0
 20
0.0
 30
0.0
 70
   128
  0
VERTEX
  5
17725
  8
0
 10
78.780730813800005
 20
173.14026560630001
 30
0.0
  0
VERTEX
  5
17726
  8
0
 10
78.770467639000003
 20
173.0836523696
 30
0.0
  0
VERTEX
  5
17727
  8
0
 10
78.7722855807001
 20
172.9174047708
 30
0.0
  0
VERTEX
  5
17728
  8
0
 10
78.783049806999998
 20
172.67375495280001
 30
0.0
  0
VERTEX
  5
17729
  8
0
 10
78.800247609700023
 20
172.35162910069999
 30
0.0
  0
VERTEX
  5
1772A
  8
0
 10
78.818928077900068
 20
172.01426681129999
 30
0.0
  0
VERTEX
  5
1772B
  8
0
 10
78.836688399400032
 20
171.69234491879999
 30
0.0
  0
VERTEX
  5
1772C
  8
0
 10
78.85352112359999
 20
171.40763867640001
 30
0.0
  0
VERTEX
  5
1772D
  8
0
 10
78.868021816100054
 20
171.22130850330001
 30
0.0
  0
VERTEX
  5
1772E
  8
0
 10
78.882233798600055
 20
171.13085426390001
 30
0.0
  0
VERTEX
  5
1772F
  8
0
 10
78.885443136200024
 20
171.12696506079999
 30
0.0
  0
VERTEX
  5
17730
  8
0
 10
78.886262700000088
 20
171.12704329190001
 30
0.0
  0
VERTEX
  5
17731
  8
0
 10
78.889507427900071
 20
171.13180840390001
 30
0.0
  0
VERTEX
  5
17732
  8
0
 10
78.901318460799985
 20
171.21669054029999
 30
0.0
  0
VERTEX
  5
17733
  8
0
 10
78.910145536100003
 20
171.39208279549999
 30
0.0
  0
VERTEX
  5
17734
  8
0
 10
78.913246840300076
 20
171.66405040769999
 30
0.0
  0
VERTEX
  5
17735
  8
0
 10
78.90736274430003
 20
171.9723777845
 30
0.0
  0
VERTEX
  5
17736
  8
0
 10
78.890330717000083
 20
172.3205834627
 30
0.0
  0
VERTEX
  5
17737
  8
0
 10
78.863596171200015
 20
172.64642529189999
 30
0.0
  0
VERTEX
  5
17738
  8
0
 10
78.83193865420003
 20
172.91243989020001
 30
0.0
  0
VERTEX
  5
17739
  8
0
 10
78.801534697500074
 20
173.08707404879999
 30
0.0
  0
VERTEX
  5
1773A
  8
0
 10
78.780730813800005
 20
173.14026560630001
 30
0.0
  0
SEQEND
  5
1773B
  8
0
  0
POLYLINE
  5
16767
  8
0
 66
     1
 10
0.0
 20
0.0
 30
0.0
 70
   128
  0
VERTEX
  5
1773C
  8
0
 10
77.437944381763486
 20
177.34424343291991
 30
0.0
  0
VERTEX
  5
1773D
  8
0
 10
77.534103393600049
 20
177.1327374503
 30
0.0
  0
VERTEX
  5
1773E
  8
0
 10
77.606575191100092
 20
176.98343712830001
 30
0.0
  0
VERTEX
  5
1773F
  8
0
 10
77.647951990400074
 20
176.92096401000001
 30
0.0
  0
VERTEX
  5
17740
  8
0
 10
77.651021629599995
 20
176.9211390987
 30
0.0
  0
VERTEX
  5
17741
  8
0
 10
77.640933543500068
 20
177.0054405555
 30
0.0
  0
VERTEX
  5
17742
  8
0
 10
77.590161562000034
 20
177.18073967839999
 30
0.0
  0
VERTEX
  5
17743
  8
0
 10
77.498692646700079
 20
177.4393297732
 30
0.0
  0
VERTEX
  5
17744
  8
0
 10
77.49605457588882
 20
177.44581788204019
 30
0.0
  0
SEQEND
  5
17745
  8
0
  0
POLYLINE
  5
16768
  8
0
 66
     1
 10
0.0
 20
0.0
 30
0.0
 70
   128
  0
VERTEX
  5
17746
  8
0
 10
78.517888652372449
 20
172.9781582781273
 30
0.0
  0
VERTEX
  5
17747
  8
0
 10
78.516941145100077
 20
172.96872250729999
 30
0.0
  0
VERTEX
  5
17748
  8
0
 10
78.52285690610006
 20
172.7936794981
 30
0.0
  0
VERTEX
  5
17749
  8
0
 10
78.53731848310008
 20
172.5420873612
 30
0.0
  0
VERTEX
  5
1774A
  8
0
 10
78.557543084100075
 20
172.2149817273
 30
0.0
  0
VERTEX
  5
1774B
  8
0
 10
78.577791899500085
 20
171.87988348299999
 30
0.0
  0
VERTEX
  5
1774C
  8
0
 10
78.596420213600027
 20
171.5617124922
 30
0.0
  0
VERTEX
  5
1774D
  8
0
 10
78.613670170400042
 20
171.2892354466
 30
0.0
  0
VERTEX
  5
1774E
  8
0
 10
78.628275171000041
 20
171.12064184619999
 30
0.0
  0
VERTEX
  5
1774F
  8
0
 10
78.642686456500087
 20
171.0424112156
 30
0.0
  0
VERTEX
  5
17750
  8
0
 10
78.646184504100006
 20
171.04067150500001
 30
0.0
  0
VERTEX
  5
17751
  8
0
 10
78.658233955600053
 20
171.10707433889999
 30
0.0
  0
VERTEX
  5
17752
  8
0
 10
78.66597138350005
 20
171.2750812061
 30
0.0
  0
VERTEX
  5
17753
  8
0
 10
78.666505962700043
 20
171.54268091540001
 30
0.0
  0
VERTEX
  5
17754
  8
0
 10
78.657276556000056
 20
171.85577061020001
 30
0.0
  0
VERTEX
  5
17755
  8
0
 10
78.637014701999973
 20
172.20361400389999
 30
0.0
  0
VERTEX
  5
17756
  8
0
 10
78.60861681410006
 20
172.52395078539999
 30
0.0
  0
VERTEX
  5
17757
  8
0
 10
78.578007966299992
 20
172.7778023109
 30
0.0
  0
VERTEX
  5
17758
  8
0
 10
78.547590971100021
 20
172.96398580069999
 30
0.0
  0
VERTEX
  5
17759
  8
0
 10
78.536833964798333
 20
173.0010001952667
 30
0.0
  0
SEQEND
  5
1775A
  8
0
  0
POLYLINE
  5
16769
  8
0
 66
     1
 10
0.0
 20
0.0
 30
0.0
 70
   128
  0
VERTEX
  5
1775B
  8
0
 10
78.433928638800012
 20
175.70591680699999
 30
0.0
  0
VERTEX
  5
1775C
  8
0
 10
78.458008915200026
 20
175.62088798729999
 30
0.0
  0
VERTEX
  5
1775D
  8
0
 10
78.465420380300074
 20
175.59017017479999
 30
0.0
  0
SEQEND
  5
1775E
  8
0
  0
POLYLINE
  5
1676A
  8
0
 66
     1
 10
0.0
 20
0.0
 30
0.0
 70
   128
  0
VERTEX
  5
1775F
  8
0
 10
77.500996738699996
 20
177.9604624957
 30
0.0
  0
VERTEX
  5
17760
  8
0
 10
77.536312490800015
 20
177.8840530663
 30
0.0
  0
VERTEX
  5
17761
  8
0
 10
77.669240161800076
 20
177.5875916704
 30
0.0
  0
VERTEX
  5
17762
  8
0
 10
77.783813327600001
 20
177.3298844695
 30
0.0
  0
VERTEX
  5
17763
  8
0
 10
77.859127521600044
 20
177.1689780056
 30
0.0
  0
VERTEX
  5
17764
  8
0
 10
77.905257791300073
 20
177.09017321459999
 30
0.0
  0
VERTEX
  5
17765
  8
0
 10
77.912585437400026
 20
177.08683256059999
 30
0.0
  0
VERTEX
  5
17766
  8
0
 10
77.914144471300006
 20
177.08872687069999
 30
0.0
  0
VERTEX
  5
17767
  8
0
 10
77.914038300600055
 20
177.1134106442
 30
0.0
  0
VERTEX
  5
17768
  8
0
 10
77.883105352600069
 20
177.24080439650001
 30
0.0
  0
VERTEX
  5
17769
  8
0
 10
77.808523178200062
 20
177.46602427209999
 30
0.0
  0
VERTEX
  5
1776A
  8
0
 10
77.700653672300064
 20
177.74345874779999
 30
0.0
  0
VERTEX
  5
1776B
  8
0
 10
77.564850077100004
 20
178.05218566209999
 30
0.0
  0
VERTEX
  5
1776C
  8
0
 10
77.500996738699996
 20
178.18171028040001
 30
0.0
  0
SEQEND
  5
1776D
  8
0
  0
ARC
  5
1676B
  8
0
 10
79.424268458000029
 20
176.1151013285
 30
0.0
 40
1.336548376172797
 50
182.5079528402002
 51
194.3337173588981
  0
ARC
  5
1676C
  8
0
 10
77.417772404700031
 20
175.60966545799999
 30
0.0
 40
0.8064193454835648
 50
8.9491984870002828
 51
33.658490596500151
  0
ARC
  5
1676D
  8
0
 10
82.11282212390006
 20
176.31614949109999
 30
0.0
 40
5.161617194563715
 50
190.86809382999911
 51
198.75618288890061
  0
ARC
  5
1676E
  8
0
 10
75.796447980399989
 20
174.47310145329999
 30
0.0
 40
1.520676342217044
 50
11.11036622410024
 51
34.890063131199163
  0
POLYLINE
  5
1676F
  8
0
 66
     1
 10
0.0
 20
0.0
 30
0.0
 70
   128
  0
VERTEX
  5
1776E
  8
0
 10
76.240524277200052
 20
177.2900005802
 30
0.0
  0
VERTEX
  5
1776F
  8
0
 10
76.376247778600032
 20
177.05708425489999
 30
0.0
  0
VERTEX
  5
17770
  8
0
 10
76.532262936300071
 20
176.78311429909999
 30
0.0
  0
VERTEX
  5
17771
  8
0
 10
76.664207130699992
 20
176.5511274337
 30
0.0
  0
VERTEX
  5
17772
  8
0
 10
76.749905571400063
 20
176.40973683440001
 30
0.0
  0
VERTEX
  5
17773
  8
0
 10
76.79877579219999
 20
176.3548754155
 30
0.0
  0
VERTEX
  5
17774
  8
0
 10
76.790175959500061
 20
176.41786914319999
 30
0.0
  0
VERTEX
  5
17775
  8
0
 10
76.734924316500042
 20
176.5731960535
 30
0.0
  0
VERTEX
  5
17776
  8
0
 10
76.629995927300001
 20
176.8140994012
 30
0.0
  0
VERTEX
  5
17777
  8
0
 10
76.495866850100015
 20
177.08307281130001
 30
0.0
  0
VERTEX
  5
17778
  8
0
 10
76.379630342200016
 20
177.2900005802
 30
0.0
  0
SEQEND
  5
17779
  8
0
  0
POLYLINE
  5
16770
  8
0
 66
     1
 10
0.0
 20
0.0
 30
0.0
 70
   128
  0
VERTEX
  5
1777A
  8
0
 10
78.083893714182963
 20
172.56316338792811
 30
0.0
  0
VERTEX
  5
1777B
  8
0
 10
78.087139502199989
 20
172.44603727009999
 30
0.0
  0
VERTEX
  5
1777C
  8
0
 10
78.098818287299991
 20
172.19713386149999
 30
0.0
  0
VERTEX
  5
1777D
  8
0
 10
78.11334319420007
 20
171.87203429639999
 30
0.0
  0
VERTEX
  5
1777E
  8
0
 10
78.124981001100082
 20
171.54083363710001
 30
0.0
  0
VERTEX
  5
1777F
  8
0
 10
78.132589906500016
 20
171.2278063409
 30
0.0
  0
VERTEX
  5
17780
  8
0
 10
78.137939423399985
 20
170.9535434842
 30
0.0
  0
VERTEX
  5
17781
  8
0
 10
78.143894299900012
 20
170.7797097973
 30
0.0
  0
VERTEX
  5
17782
  8
0
 10
78.153866902100035
 20
170.69829311219999
 30
0.0
  0
VERTEX
  5
17783
  8
0
 10
78.157839924200061
 20
170.69605188439999
 30
0.0
  0
VERTEX
  5
17784
  8
0
 10
78.17365936940007
 20
170.76429734000001
 30
0.0
  0
VERTEX
  5
17785
  8
0
 10
78.190091624899992
 20
170.9351973608
 30
0.0
  0
VERTEX
  5
17786
  8
0
 10
78.202178329300068
 20
171.2039430625
 30
0.0
  0
VERTEX
  5
17787
  8
0
 10
78.203796967900075
 20
171.51014516129999
 30
0.0
  0
VERTEX
  5
17788
  8
0
 10
78.192947059900007
 20
171.85291983179999
 30
0.0
  0
VERTEX
  5
17789
  8
0
 10
78.170643746900055
 20
172.17209897929999
 30
0.0
  0
VERTEX
  5
1778A
  8
0
 10
78.143292665499985
 20
172.42446970189999
 30
0.0
  0
VERTEX
  5
1778B
  8
0
 10
78.117619797108773
 20
172.58938673312741
 30
0.0
  0
SEQEND
  5
1778C
  8
0
  0
ARC
  5
16771
  8
0
 10
80.932104054500087
 20
176.1113487364
 30
0.0
 40
3.6658400765804151
 50
189.32072134609879
 51
197.3698307116008
  0
ARC
  5
16772
  8
0
 10
76.481445243500048
 20
174.9125889501
 30
0.0
 40
1.0297198534292871
 50
11.41177904799993
 51
35.98511601249767
  0
POLYLINE
  5
16773
  8
0
 66
     1
 10
0.0
 20
0.0
 30
0.0
 70
   128
  0
VERTEX
  5
1778D
  8
0
 10
77.080094814400013
 20
177.2900005802
 30
0.0
  0
VERTEX
  5
1778E
  8
0
 10
77.137779072000058
 20
177.17343904079999
 30
0.0
  0
VERTEX
  5
1778F
  8
0
 10
77.255596965600034
 20
176.9361017272
 30
0.0
  0
VERTEX
  5
17790
  8
0
 10
77.332811057599983
 20
176.79108735170001
 30
0.0
  0
VERTEX
  5
17791
  8
0
 10
77.375793457100031
 20
176.73395443699999
 30
0.0
  0
VERTEX
  5
17792
  8
0
 10
77.378082648000031
 20
176.7344955355
 30
0.0
  0
VERTEX
  5
17793
  8
0
 10
77.372138947300073
 20
176.79944690310001
 30
0.0
  0
VERTEX
  5
17794
  8
0
 10
77.324866876100032
 20
176.9597386941
 30
0.0
  0
VERTEX
  5
17795
  8
0
 10
77.233612164900023
 20
177.20813080670001
 30
0.0
  0
VERTEX
  5
17796
  8
0
 10
77.198900562333165
 20
177.2900005802
 30
0.0
  0
SEQEND
  5
17797
  8
0
  0
ARC
  5
16774
  8
0
 10
79.05253764430006
 20
175.8218670453
 30
0.0
 40
1.4757668394060131
 50
184.79257355620001
 51
197.3568764502017
  0
POLYLINE
  5
16775
  8
0
 66
     1
 10
0.0
 20
0.0
 30
0.0
 70
   128
  0
VERTEX
  5
17798
  8
0
 10
78.304845662510388
 20
172.7516122238801
 30
0.0
  0
VERTEX
  5
17799
  8
0
 10
78.309349343199983
 20
172.62122742829999
 30
0.0
  0
VERTEX
  5
1779A
  8
0
 10
78.322723135399997
 20
172.36980758600001
 30
0.0
  0
VERTEX
  5
1779B
  8
0
 10
78.339937701899999
 20
172.04347867519999
 30
0.0
  0
VERTEX
  5
1779C
  8
0
 10
78.355310112300003
 20
171.71162702140001
 30
0.0
  0
VERTEX
  5
1779D
  8
0
 10
78.367728367500035
 20
171.3970239274
 30
0.0
  0
VERTEX
  5
1779E
  8
0
 10
78.378505632300062
 20
171.12405421209999
 30
0.0
  0
VERTEX
  5
1779F
  8
0
 10
78.388642147200017
 20
170.9534005262
 30
0.0
  0
VERTEX
  5
177A0
  8
0
 10
78.400915116100009
 20
170.87440947069999
 30
0.0
  0
VERTEX
  5
177A1
  8
0
 10
78.402785211899982
 20
170.8723926916
 30
0.0
  0
VERTEX
  5
177A2
  8
0
 10
78.404690697799992
 20
170.87265346199999
 30
0.0
  0
VERTEX
  5
177A3
  8
0
 10
78.41863259680008
 20
170.9408965893
 30
0.0
  0
VERTEX
  5
177A4
  8
0
 10
78.43036726119999
 20
171.11148973920001
 30
0.0
  0
VERTEX
  5
177A5
  8
0
 10
78.435888141500072
 20
171.38009015470001
 30
0.0
  0
VERTEX
  5
177A6
  8
0
 10
78.431265056200004
 20
171.6898471117
 30
0.0
  0
VERTEX
  5
177A7
  8
0
 10
78.415061906000005
 20
172.034920752
 30
0.0
  0
VERTEX
  5
177A8
  8
0
 10
78.389612585400073
 20
172.3539555445
 30
0.0
  0
VERTEX
  5
177A9
  8
0
 10
78.361149504800096
 20
172.605814971
 30
0.0
  0
VERTEX
  5
177AA
  8
0
 10
78.334148046239761
 20
172.77983822124531
 30
0.0
  0
SEQEND
  5
177AB
  8
0
  0
POLYLINE
  5
16776
  8
0
 66
     1
 10
0.0
 20
0.0
 30
0.0
 70
   128
  0
VERTEX
  5
177AC
  8
0
 10
76.663536578500043
 20
177.2900005802
 30
0.0
  0
VERTEX
  5
177AD
  8
0
 10
76.807472482400044
 20
177.02250145369999
 30
0.0
  0
VERTEX
  5
177AE
  8
0
 10
76.939599216000033
 20
176.77578944710001
 30
0.0
  0
VERTEX
  5
177AF
  8
0
 10
77.028421312600017
 20
176.61824412639999
 30
0.0
  0
VERTEX
  5
177B0
  8
0
 10
77.081296220500008
 20
176.54397767029999
 30
0.0
  0
VERTEX
  5
177B1
  8
0
 10
77.08906345080004
 20
176.54191479080001
 30
0.0
  0
VERTEX
  5
177B2
  8
0
 10
77.081862464600022
 20
176.60639025270001
 30
0.0
  0
VERTEX
  5
177B3
  8
0
 10
77.029855549400054
 20
176.76547039299999
 30
0.0
  0
VERTEX
  5
177B4
  8
0
 10
76.930837333300019
 20
177.0102676004
 30
0.0
  0
VERTEX
  5
177B5
  8
0
 10
76.804754883100031
 20
177.2814845666
 30
0.0
  0
VERTEX
  5
177B6
  8
0
 10
76.800282672100025
 20
177.2900005802
 30
0.0
  0
SEQEND
  5
177B7
  8
0
  0
POLYLINE
  5
16777
  8
0
 66
     1
 10
0.0
 20
0.0
 30
0.0
 70
   128
  0
VERTEX
  5
177B8
  8
0
 10
76.000995561500076
 20
176.99276339260001
 30
0.0
  0
VERTEX
  5
177B9
  8
0
 10
76.073508337199996
 20
176.87472756950001
 30
0.0
  0
VERTEX
  5
177BA
  8
0
 10
76.23618431400007
 20
176.60275064410001
 30
0.0
  0
VERTEX
  5
177BB
  8
0
 10
76.372993737499996
 20
176.37281827629999
 30
0.0
  0
VERTEX
  5
177BC
  8
0
 10
76.46167241040007
 20
176.23212058089999
 30
0.0
  0
VERTEX
  5
177BD
  8
0
 10
76.511738449400013
 20
176.17705333980001
 30
0.0
  0
VERTEX
  5
177BE
  8
0
 10
76.501866430099994
 20
176.23887360090001
 30
0.0
  0
VERTEX
  5
177BF
  8
0
 10
76.443764940000051
 20
176.3914493844
 30
0.0
  0
VERTEX
  5
177C0
  8
0
 10
76.333922892900091
 20
176.6290362924
 30
0.0
  0
VERTEX
  5
177C1
  8
0
 10
76.193494349800062
 20
176.8951393664
 30
0.0
  0
VERTEX
  5
177C2
  8
0
 10
76.019722595900021
 20
177.18798816200001
 30
0.0
  0
VERTEX
  5
177C3
  8
0
 10
76.000995561500076
 20
177.2159917264502
 30
0.0
  0
SEQEND
  5
177C4
  8
0
  0
ARC
  5
16778
  8
0
 10
71.472124572799999
 20
172.6590830264
 30
0.0
 40
5.288618521434814
 50
14.88997932121951
 51
31.09158784529777
  0
POLYLINE
  5
16779
  8
0
 66
     1
 10
0.0
 20
0.0
 30
0.0
 70
   128
  0
VERTEX
  5
177C5
  8
0
 10
76.000995561500076
 20
175.6078932433999
 30
0.0
  0
VERTEX
  5
177C6
  8
0
 10
76.618892699500066
 20
174.301642552
 30
0.0
  0
VERTEX
  5
177C7
  8
0
 10
76.679917999324573
 20
174.04699832970459
 30
0.0
  0
SEQEND
  5
177C8
  8
0
  0
POLYLINE
  5
1677A
  8
0
 66
     1
 10
0.0
 20
0.0
 30
0.0
 70
   128
  0
VERTEX
  5
177C9
  8
0
 10
77.630579099100032
 20
167.80731277539999
 30
0.0
  0
VERTEX
  5
177CA
  8
0
 10
77.627762779699992
 20
167.8109179251
 30
0.0
  0
VERTEX
  5
177CB
  8
0
 10
77.586717531100021
 20
167.7349159494
 30
0.0
  0
VERTEX
  5
177CC
  8
0
 10
77.500996738699996
 20
167.5285171717
 30
0.0
  0
SEQEND
  5
177CD
  8
0
  0
ARC
  5
1677B
  8
0
 10
97.604430307800044
 20
168.19562034290001
 30
0.0
 40
20.141831779023821
 50
170.8370230937993
 51
176.46155331610041
  0
POLYLINE
  5
1677D
  8
0
 66
     1
 10
0.0
 20
0.0
 30
0.0
 70
   128
  0
VERTEX
  5
177CE
  8
0
 10
63.155642801430638
 20
177.75579241478579
 30
0.0
  0
VERTEX
  5
177CF
  8
0
 10
63.034359924600039
 20
177.51670218999999
 30
0.0
  0
VERTEX
  5
177D0
  8
0
 10
62.891778629299999
 20
177.23065484310001
 30
0.0
  0
VERTEX
  5
177D1
  8
0
 10
62.776223849600001
 20
176.99823025609999
 30
0.0
  0
VERTEX
  5
177D2
  8
0
 10
62.685923278400082
 20
176.82500891379999
 30
0.0
  0
VERTEX
  5
177D3
  8
0
 10
62.638546899000062
 20
176.7555313185
 30
0.0
  0
VERTEX
  5
177D4
  8
0
 10
62.631655577599979
 20
176.7541771754
 30
0.0
  0
VERTEX
  5
177D5
  8
0
 10
62.636658176799983
 20
176.81668940930001
 30
0.0
  0
VERTEX
  5
177D6
  8
0
 10
62.685236893699987
 20
176.9795563072
 30
0.0
  0
VERTEX
  5
177D7
  8
0
 10
62.770428229199979
 20
177.21133641899999
 30
0.0
  0
VERTEX
  5
177D8
  8
0
 10
62.896924186600017
 20
177.50951796769999
 30
0.0
  0
VERTEX
  5
177D9
  8
0
 10
63.038276136000029
 20
177.80175581570001
 30
0.0
  0
VERTEX
  5
177DA
  8
0
 10
63.08673191820003
 20
177.89043262600001
 30
0.0
  0
SEQEND
  5
177DB
  8
0
  0
POLYLINE
  5
1677E
  8
0
 66
     1
 10
0.0
 20
0.0
 30
0.0
 70
   128
  0
VERTEX
  5
177DC
  8
0
 10
62.943702191200032
 20
178.9304880425
 30
0.0
  0
VERTEX
  5
177DD
  8
0
 10
62.92753955360002
 20
178.8696587085
 30
0.0
  0
VERTEX
  5
177DE
  8
0
 10
62.858903873800038
 20
178.7167280912
 30
0.0
  0
VERTEX
  5
177DF
  8
0
 10
62.744283676199977
 20
178.47758866839999
 30
0.0
  0
VERTEX
  5
177E0
  8
0
 10
62.611018400700011
 20
178.19783519949999
 30
0.0
  0
VERTEX
  5
177E1
  8
0
 10
62.462921813200069
 20
177.87742298090001
 30
0.0
  0
VERTEX
  5
177E2
  8
0
 10
62.33154758820001
 20
177.5852791964999
 30
0.0
  0
VERTEX
  5
177E3
  8
0
 10
62.225205917000032
 20
177.34709624199999
 30
0.0
  0
VERTEX
  5
177E4
  8
0
 10
62.142335903000003
 20
177.1699698642
 30
0.0
  0
VERTEX
  5
177E5
  8
0
 10
62.099440116500091
 20
177.09971833969999
 30
0.0
  0
VERTEX
  5
177E6
  8
0
 10
62.093370221600033
 20
177.09815837439999
 30
0.0
  0
VERTEX
  5
177E7
  8
0
 10
62.098860368200008
 20
177.16122660779999
 30
0.0
  0
VERTEX
  5
177E8
  8
0
 10
62.146622780800037
 20
177.3272488266
 30
0.0
  0
VERTEX
  5
177E9
  8
0
 10
62.230617366800061
 20
177.56425924600001
 30
0.0
  0
VERTEX
  5
177EA
  8
0
 10
62.35510678970001
 20
177.8693316504
 30
0.0
  0
VERTEX
  5
177EB
  8
0
 10
62.495126947800031
 20
178.1731868162
 30
0.0
  0
VERTEX
  5
177EC
  8
0
 10
62.644104100800071
 20
178.46414316440001
 30
0.0
  0
VERTEX
  5
177ED
  8
0
 10
62.781983148400059
 20
178.70638947929999
 30
0.0
  0
VERTEX
  5
177EE
  8
0
 10
62.877530790899982
 20
178.85517571119999
 30
0.0
  0
VERTEX
  5
177EF
  8
0
 10
62.936130073000072
 20
178.9280526339999
 30
0.0
  0
VERTEX
  5
177F0
  8
0
 10
62.943702191200032
 20
178.9304880425
 30
0.0
  0
SEQEND
  5
177F1
  8
0
  0
ARC
  5
1677F
  8
0
 10
60.568261799400027
 20
176.1347399961
 30
0.0
 40
1.351908575655812
 50
345.01060513130147
 51
357.50590820600041
  0
ARC
  5
16780
  8
0
 10
58.943802935900067
 20
176.15356997180001
 30
0.0
 40
3.7988504149509281
 50
342.58917818879939
 51
350.52252584849998
  0
ARC
  5
16781
  8
0
 10
63.268614897199988
 20
175.03052370180001
 30
0.0
 40
0.7624982908671479
 50
139.26983554850111
 51
173.5142010745995
  0
POLYLINE
  5
16782
  8
0
 66
     1
 10
0.0
 20
0.0
 30
0.0
 70
   128
  0
VERTEX
  5
177F2
  8
0
 10
63.434906081220333
 20
177.4656568371048
 30
0.0
  0
VERTEX
  5
177F3
  8
0
 10
63.349261041799991
 20
177.31003798539999
 30
0.0
  0
VERTEX
  5
177F4
  8
0
 10
63.196588866500072
 20
177.02727634460001
 30
0.0
  0
VERTEX
  5
177F5
  8
0
 10
63.072949741100039
 20
176.79740730669999
 30
0.0
  0
VERTEX
  5
177F6
  8
0
 10
62.976487074100078
 20
176.626038365
 30
0.0
  0
VERTEX
  5
177F7
  8
0
 10
62.92606526990005
 20
176.55705623329999
 30
0.0
  0
VERTEX
  5
177F8
  8
0
 10
62.918806076100047
 20
176.5556257218
 30
0.0
  0
VERTEX
  5
177F9
  8
0
 10
62.924734875600052
 20
176.6167782247
 30
0.0
  0
VERTEX
  5
177FA
  8
0
 10
62.977387663000059
 20
176.77664067590001
 30
0.0
  0
VERTEX
  5
177FB
  8
0
 10
63.068829570000048
 20
177.00342424210001
 30
0.0
  0
VERTEX
  5
177FC
  8
0
 10
63.204412441800059
 20
177.29598525910001
 30
0.0
  0
VERTEX
  5
177FD
  8
0
 10
63.33504431870881
 20
177.54400542901291
 30
0.0
  0
SEQEND
  5
177FE
  8
0
  0
POLYLINE
  5
16783
  8
0
 66
     1
 10
0.0
 20
0.0
 30
0.0
 70
   128
  0
VERTEX
  5
177FF
  8
0
 10
61.698363302068401
 20
172.75045801681819
 30
0.0
  0
VERTEX
  5
17800
  8
0
 10
61.694888956900058
 20
172.6491997018
 30
0.0
  0
VERTEX
  5
17801
  8
0
 10
61.68051166470002
 20
172.38463889799999
 30
0.0
  0
VERTEX
  5
17802
  8
0
 10
61.663819104500021
 20
172.07744680339999
 30
0.0
  0
VERTEX
  5
17803
  8
0
 10
61.647415254300093
 20
171.7298846692
 30
0.0
  0
VERTEX
  5
17804
  8
0
 10
61.634422373100051
 20
171.4107879437
 30
0.0
  0
VERTEX
  5
17805
  8
0
 10
61.624004133100023
 20
171.1537890136
 30
0.0
  0
VERTEX
  5
17806
  8
0
 10
61.613021977300029
 20
170.96580853680001
 30
0.0
  0
VERTEX
  5
17807
  8
0
 10
61.601040978000007
 20
170.89315978810001
 30
0.0
  0
VERTEX
  5
17808
  8
0
 10
61.597112659400068
 20
170.89148713270001
 30
0.0
  0
VERTEX
  5
17809
  8
0
 10
61.583209410400059
 20
170.9562564268
 30
0.0
  0
VERTEX
  5
1780A
  8
0
 10
61.571591161300027
 20
171.12947497510001
 30
0.0
  0
VERTEX
  5
1780B
  8
0
 10
61.566494964100002
 20
171.37804636729999
 30
0.0
  0
VERTEX
  5
1780C
  8
0
 10
61.571238655700078
 20
171.7047119513
 30
0.0
  0
VERTEX
  5
1780D
  8
0
 10
61.587096285100067
 20
172.0383917913
 30
0.0
  0
VERTEX
  5
1780E
  8
0
 10
61.612415686299983
 20
172.3587853834
 30
0.0
  0
VERTEX
  5
1780F
  8
0
 10
61.643209401600068
 20
172.6303143426
 30
0.0
  0
VERTEX
  5
17810
  8
0
 10
61.667442880599992
 20
172.78477232899999
 30
0.0
  0
SEQEND
  5
17811
  8
0
  0
ARC
  5
16784
  8
0
 10
60.847233358899977
 20
175.85860375070001
 30
0.0
 40
1.5849353235845529
 50
342.45682776289971
 51
354.8509173993998
  0
POLYLINE
  5
16786
  8
0
 66
     1
 10
0.0
 20
0.0
 30
0.0
 70
   128
  0
VERTEX
  5
17812
  8
0
 10
63.7766682698973
 20
177.315486638804
 30
0.0
  0
VERTEX
  5
17813
  8
0
 10
63.655204698500029
 20
177.1078627556
 30
0.0
  0
VERTEX
  5
17814
  8
0
 10
63.494994398300037
 20
176.82779636230001
 30
0.0
  0
VERTEX
  5
17815
  8
0
 10
63.365175947600051
 20
176.5992563218
 30
0.0
  0
VERTEX
  5
17816
  8
0
 10
63.264599163100002
 20
176.42939705399999
 30
0.0
  0
VERTEX
  5
17817
  8
0
 10
63.212783169100021
 20
176.36131830510001
 30
0.0
  0
VERTEX
  5
17818
  8
0
 10
63.205546327000093
 20
176.35982818900001
 30
0.0
  0
VERTEX
  5
17819
  8
0
 10
63.212758023400049
 20
176.41984447830001
 30
0.0
  0
VERTEX
  5
1781A
  8
0
 10
63.269195705699978
 20
176.57753136010001
 30
0.0
  0
VERTEX
  5
1781B
  8
0
 10
63.365818094500007
 20
176.800148189
 30
0.0
  0
VERTEX
  5
1781C
  8
0
 10
63.509288802800029
 20
177.0891180262
 30
0.0
  0
VERTEX
  5
1781D
  8
0
 10
63.656646775843569
 20
177.3511587473607
 30
0.0
  0
SEQEND
  5
1781E
  8
0
  0
ARC
  5
16787
  8
0
 10
57.771558135200053
 20
176.3451859962
 30
0.0
 40
5.282035872727322
 50
341.35857722619988
 51
349.03647384259909
  0
POLYLINE
  5
16788
  8
0
 66
     1
 10
0.0
 20
0.0
 30
0.0
 70
   128
  0
VERTEX
  5
1781F
  8
0
 10
64.00099545720002
 20
176.9929226488
 30
0.0
  0
VERTEX
  5
17820
  8
0
 10
63.955653086400048
 20
176.91932301969999
 30
0.0
  0
VERTEX
  5
17821
  8
0
 10
63.78857288519999
 20
176.64082311089999
 30
0.0
  0
VERTEX
  5
17822
  8
0
 10
63.652997464000009
 20
176.4122122897999
 30
0.0
  0
VERTEX
  5
17823
  8
0
 10
63.54825813330001
 20
176.24182403079999
 30
0.0
  0
VERTEX
  5
17824
  8
0
 10
63.495107088300067
 20
176.17357112459999
 30
0.0
  0
VERTEX
  5
17825
  8
0
 10
63.487698882900069
 20
176.17180626839999
 30
0.0
  0
VERTEX
  5
17826
  8
0
 10
63.495881948700003
 20
176.2302337214
 30
0.0
  0
VERTEX
  5
17827
  8
0
 10
63.554935716200021
 20
176.3849217444
 30
0.0
  0
VERTEX
  5
17828
  8
0
 10
63.655120879500032
 20
176.6030011698
 30
0.0
  0
VERTEX
  5
17829
  8
0
 10
63.8043001295
 20
176.88790671519999
 30
0.0
  0
VERTEX
  5
1782A
  8
0
 10
63.973246701100038
 20
177.1733077243
 30
0.0
  0
VERTEX
  5
1782B
  8
0
 10
64.00099545720002
 20
177.21509151160001
 30
0.0
  0
SEQEND
  5
1782C
  8
0
  0
POLYLINE
  5
16789
  8
0
 66
     1
 10
0.0
 20
0.0
 30
0.0
 70
   128
  0
VERTEX
  5
1782D
  8
0
 10
61.48700396265621
 20
172.97470519715051
 30
0.0
  0
VERTEX
  5
1782E
  8
0
 10
61.482283379900082
 20
172.83014077690001
 30
0.0
  0
VERTEX
  5
1782F
  8
0
 10
61.467057652800008
 20
172.568013519
 30
0.0
  0
VERTEX
  5
17830
  8
0
 10
61.447458434899993
 20
172.2572060302
 30
0.0
  0
VERTEX
  5
17831
  8
0
 10
61.426084581800062
 20
171.90731745209999
 30
0.0
  0
VERTEX
  5
17832
  8
0
 10
61.406985484099998
 20
171.5880852192
 30
0.0
  0
VERTEX
  5
17833
  8
0
 10
61.390478257100078
 20
171.33014239369999
 30
0.0
  0
VERTEX
  5
17834
  8
0
 10
61.374506540700047
 20
171.14125620569999
 30
0.0
  0
VERTEX
  5
17835
  8
0
 10
61.360604688600013
 20
171.06741350140001
 30
0.0
  0
VERTEX
  5
17836
  8
0
 10
61.35671781380006
 20
171.06505772099999
 30
0.0
  0
VERTEX
  5
17837
  8
0
 10
61.344521679000081
 20
171.12685376779999
 30
0.0
  0
VERTEX
  5
17838
  8
0
 10
61.336852237600048
 20
171.2968611158
 30
0.0
  0
VERTEX
  5
17839
  8
0
 10
61.336361896299991
 20
171.54281549149999
 30
0.0
  0
VERTEX
  5
1783A
  8
0
 10
61.34575009349998
 20
171.86796255409999
 30
0.0
  0
VERTEX
  5
1783B
  8
0
 10
61.365441046700077
 20
172.205277346
 30
0.0
  0
VERTEX
  5
1783C
  8
0
 10
61.393826361800052
 20
172.5295200944
 30
0.0
  0
VERTEX
  5
1783D
  8
0
 10
61.426689010199993
 20
172.8017205372
 30
0.0
  0
VERTEX
  5
1783E
  8
0
 10
61.454493179999979
 20
172.9709288105
 30
0.0
  0
VERTEX
  5
1783F
  8
0
 10
61.463112599964013
 20
173.0034967164035
 30
0.0
  0
SEQEND
  5
17840
  8
0
  0
ARC
  5
1678C
  8
0
 10
32.347086059399999
 20
192.14915557789999
 30
0.0
 40
33.645082672871347
 50
333.13137241610229
 51
335.65746110003289
  0
POLYLINE
  5
1678D
  8
0
 66
     1
 10
0.0
 20
0.0
 30
0.0
 70
   128
  0
VERTEX
  5
17841
  8
0
 10
61.22444532820009
 20
173.16005900499999
 30
0.0
  0
VERTEX
  5
17842
  8
0
 10
61.234182305700067
 20
173.1046937406
 30
0.0
  0
VERTEX
  5
17843
  8
0
 10
61.232739687000041
 20
172.94952701770001
 30
0.0
  0
VERTEX
  5
17844
  8
0
 10
61.221486981999988
 20
172.69419096409999
 30
0.0
  0
VERTEX
  5
17845
  8
0
 10
61.20465938009999
 20
172.383400239
 30
0.0
  0
VERTEX
  5
17846
  8
0
 10
61.185165867300043
 20
172.0318380743
 30
0.0
  0
VERTEX
  5
17847
  8
0
 10
61.166838836000011
 20
171.70392312109999
 30
0.0
  0
VERTEX
  5
17848
  8
0
 10
61.150766536700083
 20
171.4350963942
 30
0.0
  0
VERTEX
  5
17849
  8
0
 10
61.135362926900029
 20
171.2369328364
 30
0.0
  0
VERTEX
  5
1784A
  8
0
 10
61.122020334100057
 20
171.15672081709999
 30
0.0
  0
VERTEX
  5
1784B
  8
0
 10
61.118167918200008
 20
171.15210425110001
 30
0.0
  0
VERTEX
  5
1784C
  8
0
 10
61.105303559500037
 20
171.20503550390001
 30
0.0
  0
VERTEX
  5
1784D
  8
0
 10
61.095245275699988
 20
171.3662297464999
 30
0.0
  0
VERTEX
  5
1784E
  8
0
 10
61.090801935700028
 20
171.60390280179999
 30
0.0
  0
VERTEX
  5
1784F
  8
0
 10
61.094751674700092
 20
171.9250302762
 30
0.0
  0
VERTEX
  5
17850
  8
0
 10
61.109569948200033
 20
172.2672177478
 30
0.0
  0
VERTEX
  5
17851
  8
0
 10
61.134628113400026
 20
172.60024007409999
 30
0.0
  0
VERTEX
  5
17852
  8
0
 10
61.166121717600049
 20
172.88149762899999
 30
0.0
  0
VERTEX
  5
17853
  8
0
 10
61.194759421100002
 20
173.0610733851
 30
0.0
  0
VERTEX
  5
17854
  8
0
 10
61.219268571600082
 20
173.15447852010001
 30
0.0
  0
VERTEX
  5
17855
  8
0
 10
61.221978254700048
 20
173.15852511669999
 30
0.0
  0
VERTEX
  5
17856
  8
0
 10
61.22444532820009
 20
173.16005900499999
 30
0.0
  0
SEQEND
  5
17857
  8
0
  0
ARC
  5
1678E
  8
0
 10
75.475263578900012
 20
172.68731004509999
 30
0.0
 40
13.96190731827414
 50
200.50946400529969
 51
206.63267016749799
  0
POLYLINE
  5
1678F
  8
0
 66
     1
 10
0.0
 20
0.0
 30
0.0
 70
   128
  0
VERTEX
  5
17858
  8
0
 10
62.700911983900021
 20
164.48057667579999
 30
0.0
  0
VERTEX
  5
17859
  8
0
 10
62.707954179600051
 20
164.4828755874
 30
0.0
  0
VERTEX
  5
1785A
  8
0
 10
62.787578068699979
 20
164.41223931030001
 30
0.0
  0
VERTEX
  5
1785B
  8
0
 10
63.000995759000027
 20
164.13386527559999
 30
0.0
  0
SEQEND
  5
1785C
  8
0
  0
POLYLINE
  5
16790
  8
0
 66
     1
 10
0.0
 20
0.0
 30
0.0
 70
   128
  0
VERTEX
  5
1785D
  8
0
 10
64.00099545720002
 20
175.62865801149999
 30
0.0
  0
VERTEX
  5
1785E
  8
0
 10
63.377417251499992
 20
174.3184501305
 30
0.0
  0
VERTEX
  5
1785F
  8
0
 10
63.312481250699989
 20
174.05093703419999
 30
0.0
  0
SEQEND
  5
17860
  8
0
  0
ARC
  5
16792
  8
0
 10
71.546897049999984
 20
170.6295873521
 30
0.0
 40
8.680091526834925
 50
170.4788421629618
 51
190.08781311560031
  0
ARC
  5
16793
  8
0
 10
68.529850118600052
 20
172.6590920692
 30
0.0
 40
5.2885998698906063
 50
148.90840470239769
 51
165.11006736912231
  0
POLYLINE
  5
16794
  8
0
 66
     1
 10
0.0
 20
0.0
 30
0.0
 70
   128
  0
VERTEX
  5
17861
  8
0
 10
62.249737419200073
 20
170.81983536480001
 30
0.0
  0
VERTEX
  5
17862
  8
0
 10
62.249031476699997
 20
170.9229215979
 30
0.0
  0
VERTEX
  5
17863
  8
0
 10
62.264404818499997
 20
171.13261865449999
 30
0.0
  0
VERTEX
  5
17864
  8
0
 10
62.283286452400027
 20
171.2044864893
 30
0.0
  0
VERTEX
  5
17865
  8
0
 10
62.30090335020008
 20
171.12053567539999
 30
0.0
  0
VERTEX
  5
17866
  8
0
 10
62.31802338739999
 20
170.9134686738
 30
0.0
  0
VERTEX
  5
17867
  8
0
 10
62.368478719200091
 20
170.2868767082
 30
0.0
  0
VERTEX
  5
17868
  8
0
 10
62.46439283720008
 20
169.528332632
 30
0.0
  0
VERTEX
  5
17869
  8
0
 10
62.619381211800032
 20
168.723401241
 30
0.0
  0
VERTEX
  5
1786A
  8
0
 10
63.000995759000027
 20
167.4965558108
 30
0.0
  0
SEQEND
  5
1786B
  8
0
  0
LINE
  5
16797
  8
0
 10
63.580972701400007
 20
172.00000081210001
 30
0.0
 11
76.421018317400012
 21
172.00000081210001
 31
0.0
  0
LINE
  5
16798
  8
0
 10
63.580972701400007
 20
174.0000002086
 30
0.0
 11
76.421018317434445
 21
174.00000020855151
 31
0.0
  0
ARC
  5
1679B
  8
0
 10
76.421018647200071
 20
174.736600909
 30
0.0
 40
0.7366007004485232
 50
269.99997434949933
 51
329.99995902630019
  0
ARC
  5
1679D
  8
0
 10
76.421020435700029
 20
174.7365992293
 30
0.0
 40
2.7365984171691151
 50
269.99995564859819
 51
330.00002053409838
  0
ARC
  5
1679F
  8
0
 10
63.580973458500011
 20
174.73660198510001
 30
0.0
 40
0.7366017764648146
 50
210.00008929599949
 51
269.99994110719911
  0
ARC
  5
167A0
  8
0
 10
63.580971771900067
 20
174.73659967539999
 30
0.0
 40
2.7365988633038452
 50
209.99998485880189
 51
270.00001945959963
  0
LINE
  5
167A6
  8
0
 10
76.421018317400012
 20
186.9999995455
 30
0.0
 11
63.580972701391822
 21
186.99999954552479
 31
0.0
  0
LINE
  5
167AA
  8
0
 10
76.421018317400012
 20
188.9999998733
 30
0.0
 11
63.580972701400007
 21
188.9999998733
 31
0.0
  0
ARC
  5
167AB
  8
0
 10
63.580968990500082
 20
186.2634045765999
 30
0.0
 40
0.7365949689341531
 50
89.999711349599124
 51
150.00013277370019
  0
ARC
  5
167AD
  8
0
 10
63.580970464000082
 20
186.26340234400001
 30
0.0
 40
2.736597529306156
 50
89.999953157398068
 51
150.0000087509984
  0
ARC
  5
167AF
  8
0
 10
76.421017899500043
 20
186.26339661879999
 30
0.0
 40
0.7366029267037441
 50
30.000224600201062
 51
89.999967497397733
  0
ARC
  5
167B0
  8
0
 10
76.421019161700087
 20
186.2633983181
 30
0.0
 40
2.7366015552327161
 50
30.0000399140003
 51
90.000017676499027
  0
ARC
  5
167CB
  8
0
 10
67.378903816700017
 20
193.82142213259999
 30
0.0
 40
4.8229678737413728
 50
271.45058315420118
 51
302.9336636124973
  0
ARC
  5
167CC
  8
0
 10
67.662996823800086
 20
193.95041189439999
 30
0.0
 40
4.9530620262489711
 50
237.49008411729849
 51
268.12568116989979
  0
LINE
  5
167CD
  8
0
 10
65.00099562110006
 20
188.9999998733
 30
0.0
 11
65.00099562110006
 21
193.8500000164
 31
0.0
  0
ARC
  5
167CE
  8
0
 10
67.623063701100023
 20
189.0286539276
 30
0.0
 40
4.82289110632661
 50
91.450314572702297
 51
122.93392014009839
  0
ARC
  5
167CF
  8
0
 10
67.33900398570006
 20
188.8996194732
 30
0.0
 40
4.9530302790420953
 50
57.489982836102577
 51
88.125770397202615
  0
LINE
  5
167D0
  8
0
 10
70.000995509400013
 20
189.7735023871
 30
0.0
 11
70.000995509400013
 21
193.07649750260001
 31
0.0
  0
ARC
  5
167D1
  8
0
 10
72.662996712100039
 20
193.95041189439999
 30
0.0
 40
4.9530620262489711
 50
237.49008411729849
 51
268.12568116989979
  0
ARC
  5
167D2
  8
0
 10
72.623063589400076
 20
189.0286539276
 30
0.0
 40
4.82289110632661
 50
91.450314572702297
 51
122.93392014009839
  0
ARC
  5
167D4
  8
0
 10
72.378905671100028
 20
193.8214157779
 30
0.0
 40
4.8229614713542421
 50
271.45056171550323
 51
302.9336850511977
  0
ARC
  5
167D5
  8
0
 10
72.339003133000006
 20
188.89961707859999
 30
0.0
 40
4.9530326965683482
 50
57.48999049590217
 51
88.125762737300988
  0
LINE
  5
167D6
  8
0
 10
75.000995397600036
 20
193.8500000164
 30
0.0
 11
75.000995397600036
 21
188.9999998733
 31
0.0
  0
LINE
  5
167DC
  8
0
 10
75.000995397600036
 20
193.8500000164
 30
0.0
 11
65.00099562110006
 21
193.8500000164
 31
0.0
  0
LINE
  5
167DD
  8
0
 10
73.000995069800069
 20
195.50000000739999
 30
0.0
 11
67.000995949000071
 21
195.50000000739999
 31
0.0
  0
LINE
  5
167DE
  8
0
 10
72.500995919199895
 20
196.00000102070001
 30
0.0
 11
67.500996030900055
 21
196.00000102070001
 31
0.0
  0
LINE
  5
167E0
  8
0
 10
75.152463838500012
 20
163.0000004428
 30
0.0
 11
64.83951234150004
 21
163.00000043140821
 31
0.0
  0
LINE
  5
167E3
  8
0
 10
64.891384064000022
 20
150.0000004314
 30
0.0
 11
75.110607657599985
 21
150.0000004314
 31
0.0
  0
LINE
  5
167E4
  8
0
 10
77.500996738699996
 20
177.49003097409999
 30
0.0
 11
77.500995860800117
 21
185.0900004314
 31
0.0
  0
LINE
  5
167E5
  8
0
 10
77.500996738699996
 20
166.57106447960001
 30
0.0
 11
77.500996738699996
 21
165.3399317059
 31
0.0
  0
LINE
  5
167E8
  8
0
 10
77.500995860800003
 20
162.4900005630802
 30
0.0
 11
77.500996738699996
 21
155.8938972652
 31
0.0
  0
LINE
  5
167E9
  8
0
 10
77.500996738699996
 20
166.74414821900001
 30
0.0
 11
77.500995301329908
 21
172.22211614396011
 31
0.0
  0
LINE
  5
167EA
  8
0
 10
77.500996738699996
 20
166.74414821900001
 30
0.0
 11
77.500995860696193
 21
162.4899939854875
 31
0.0
  0
LINE
  5
167EC
  8
0
 10
70.084181241800025
 20
186.9999995455
 30
0.0
 11
70.084181241800025
 21
174.0000002086
 31
0.0
  0
LINE
  5
167EE
  8
0
 10
76.000995561500076
 20
186.9999995455
 30
0.0
 11
76.000995561500076
 21
174.0000002086
 31
0.0
  0
LINE
  5
167F2
  8
0
 10
76.000995561500076
 20
161.7583395913
 30
0.0
 11
76.000995561500076
 21
172.00000081210001
 31
0.0
  0
LINE
  5
167F6
  8
0
 10
69.917810708300067
 20
186.9999995455
 30
0.0
 11
69.917810708300067
 21
174.0000002086
 31
0.0
  0
LINE
  5
167F8
  8
0
 10
64.00099545720002
 20
186.9999995455
 30
0.0
 11
64.00099545720002
 21
174.0000002086
 31
0.0
  0
LINE
  5
167FC
  8
0
 10
64.000995457200133
 20
172.00000081210001
 30
0.0
 11
64.000995457200133
 21
161.74999848513551
 31
0.0
  0
LINE
  5
167FF
  8
0
 10
97.999997064500022
 20
150.0
 30
0.0
 11
97.999997064500022
 21
153.00000049170001
 31
0.0
  0
LINE
  5
16802
  8
0
 10
73.000995069800069
 20
163.0000004428
 30
0.0
 11
73.000995069800069
 21
164.50000045589999
 31
0.0
  0
LINE
  5
16803
  8
0
 10
75.110607657599985
 20
150.0000004314
 30
0.0
 11
97.999997064500022
 21
150.0
 31
0.0
  0
LINE
  5
16804
  8
0
 10
97.999997064500022
 20
153.00000049170001
 30
0.0
 11
76.250996068200038
 21
153.00000049170001
 31
0.0
  0
LINE
  5
16805
  8
0
 10
67.000995949000071
 20
164.50000045589999
 30
0.0
 11
67.000995949000071
 21
163.0000004428
 31
0.0
  0
LINE
  5
16806
  8
0
 10
42.001995816900028
 20
150.0
 30
0.0
 11
64.891384042872247
 21
150.0000004314
 31
0.0
  0
LINE
  5
16807
  8
0
 10
66.551329195600033
 20
150.0
 30
0.0
 11
66.800996288700048
 21
150.0
 31
0.0
  0
LINE
  5
16808
  8
0
 10
63.750995881900053
 20
153.00000049170001
 30
0.0
 11
42.001995816900028
 21
153.00000049170001
 31
0.0
  0
LINE
  5
16809
  8
0
 10
42.001995816900028
 20
153.00000049170001
 30
0.0
 11
42.001995816900028
 21
150.0
 31
0.0
  0
POLYLINE
  5
1680D
  8
0
 66
     1
 10
0.0
 20
0.0
 30
0.0
 70
   128
  0
VERTEX
  5
1786C
  8
0
 10
76.950852324578705
 20
174.22488138991099
 30
0.0
  0
VERTEX
  5
1786D
  8
0
 10
76.756182685600038
 20
174.97667539860001
 30
0.0
  0
VERTEX
  5
1786E
  8
0
 10
76.000995561500076
 20
176.49035677309999
 30
0.0
  0
SEQEND
  5
1786F
  8
0
  0
ARC
  5
1680F
  8
0
 10
76.237401808100003
 20
167.7852312663
 30
0.0
 40
1.393352273163704
 50
335.07687218080213
 51
0.908047637999903
  0
ARC
  5
16810
  8
0
 10
72.231106667000063
 20
170.3936832409
 30
0.0
 40
5.5805604546396426
 50
340.7919047472987
 51
10.42078056870103
  0
POLYLINE
  5
16811
  8
0
 66
     1
 10
0.0
 20
0.0
 30
0.0
 70
   128
  0
VERTEX
  5
17870
  8
0
 10
63.000995759000027
 20
165.81345591690001
 30
0.0
  0
VERTEX
  5
17871
  8
0
 10
62.521875463500002
 20
167.06691505379999
 30
0.0
  0
VERTEX
  5
17872
  8
0
 10
62.377091590400028
 20
167.59652630420001
 30
0.0
  0
VERTEX
  5
17873
  8
0
 10
62.336217705200063
 20
167.7914998494
 30
0.0
  0
VERTEX
  5
17874
  8
0
 10
62.320670671800031
 20
167.91106117890001
 30
0.0
  0
VERTEX
  5
17875
  8
0
 10
62.334044464000051
 20
167.93075446040001
 30
0.0
  0
VERTEX
  5
17876
  8
0
 10
62.373773753699993
 20
167.85646472120001
 30
0.0
  0
VERTEX
  5
17877
  8
0
 10
62.398341111899981
 20
167.7955869585
 30
0.0
  0
SEQEND
  5
17878
  8
0
  0
POLYLINE
  5
16812
  8
0
 66
     1
 10
0.0
 20
0.0
 30
0.0
 70
   128
  0
VERTEX
  5
17879
  8
0
 10
63.002943916422282
 20
163.22761200038951
 30
0.0
  0
VERTEX
  5
1787A
  8
0
 10
62.810850888600037
 20
163.73582437370001
 30
0.0
  0
VERTEX
  5
1787B
  8
0
 10
62.680445704699991
 20
164.2074999166
 30
0.0
  0
VERTEX
  5
1787C
  8
0
 10
62.655440624900052
 20
164.37385118329999
 30
0.0
  0
VERTEX
  5
1787D
  8
0
 10
62.664146628300053
 20
164.46857512930001
 30
0.0
  0
VERTEX
  5
1787E
  8
0
 10
62.700911983900021
 20
164.48057667579999
 30
0.0
  0
SEQEND
  5
1787F
  8
0
  0
ARC
  5
16813
  8
0
 10
71.983012960200085
 20
170.79418552370001
 30
0.0
 40
9.4580134784091001
 50
171.6231013413117
 51
198.25483417430181
  0
POLYLINE
  5
16814
  8
0
 66
     1
 10
0.0
 20
0.0
 30
0.0
 70
   128
  0
VERTEX
  5
17880
  8
0
 10
63.041881806449581
 20
174.23464345316671
 30
0.0
  0
VERTEX
  5
17881
  8
0
 10
63.236397318599977
 20
174.9831359833
 30
0.0
  0
VERTEX
  5
17882
  8
0
 10
64.00099545720002
 20
176.5124998986
 30
0.0
  0
SEQEND
  5
17883
  8
0
  0
ARC
  5
16815
  8
0
 10
70.832870355900013
 20
170.4609577942
 30
0.0
 40
8.5906323468459913
 50
177.60574602210011
 51
204.2619799188987
  0
POLYLINE
  5
16816
  8
0
 66
     1
 10
0.0
 20
0.0
 30
0.0
 70
   128
  0
VERTEX
  5
17884
  8
0
 10
63.220399686030447
 20
174.094286850841
 30
0.0
  0
VERTEX
  5
17885
  8
0
 10
63.437223527600047
 20
174.92188569160001
 30
0.0
  0
VERTEX
  5
17886
  8
0
 10
64.00099545720002
 20
176.0455273092
 30
0.0
  0
SEQEND
  5
17887
  8
0
  0
POLYLINE
  5
16817
  8
0
 66
     1
 10
0.0
 20
0.0
 30
0.0
 70
   128
  0
VERTEX
  5
17888
  8
0
 10
76.000995561500076
 20
176.0227257386
 30
0.0
  0
VERTEX
  5
17889
  8
0
 10
76.5554677696
 20
174.9151969328
 30
0.0
  0
VERTEX
  5
1788A
  8
0
 10
76.771214899534357
 20
174.0885706807295
 30
0.0
  0
SEQEND
  5
1788B
  8
0
  0
LINE
  5
1681A
  8
0
 10
77.440950647100067
 20
158.15011374650001
 30
0.0
 11
62.561041303000017
 21
158.15011374650001
 31
0.0
  0
LINE
  5
1681B
  8
0
 10
77.461784333100013
 20
157.84315075719999
 30
0.0
 11
62.540208082700019
 21
157.84315075719999
 31
0.0
  0
ARC
  5
1682E
  8
0
 10
394.74819430595198
 20
170.95175446917659
 30
0.0
 40
20.745975008920169
 50
171.15844112783449
 51
201.2549695013978
  0
LINE
  5
16833
  8
0
 10
392.67339417709991
 20
174.89372901620001
 30
0.0
 11
391.46625949069988
 21
175.59066843240001
 31
0.0
  0
LINE
  5
16834
  8
0
 10
374.53827448189998
 20
175.59017017479999
 30
0.0
 11
373.3320031314999
 21
174.89372901620001
 31
0.0
  0
LINE
  5
16835
  8
0
 10
390.94134327019992
 20
185.10627243659999
 30
0.0
 11
392.67339417709991
 21
186.10627073789999
 31
0.0
  0
LINE
  5
16836
  8
0
 10
373.3320031314999
 20
186.10627073789999
 30
0.0
 11
375.0640545039999
 21
185.10627243659999
 31
0.0
  0
LINE
  5
16837
  8
0
 10
386.00269891319999
 20
195.50000000739999
 30
0.0
 11
385.50269883119989
 21
196.00000102070001
 31
0.0
  0
LINE
  5
16838
  8
0
 10
380.50269894299993
 20
196.00000102070001
 30
0.0
 11
380.00269979239988
 21
195.50000000739999
 31
0.0
  0
LINE
  5
16839
  8
0
 10
380.00269979239988
 20
195.50000000739999
 30
0.0
 11
380.00269979239988
 21
193.8500000164
 31
0.0
  0
LINE
  5
1683A
  8
0
 10
386.00269891319999
 20
193.8500000164
 30
0.0
 11
386.00269891319999
 21
195.50000000739999
 31
0.0
  0
ARC
  5
1683B
  8
0
 10
389.97841530679989
 20
157.96441846600001
 30
0.0
 40
0.5000000000000116
 50
345.96375653379931
 51
21.801409486297739
  0
LINE
  5
1683D
  8
0
 10
376.07938423749988
 20
155.69325778629999
 30
0.0
 11
376.75269879400003
 21
153.00000049170001
 31
0.0
  0
LINE
  5
1683E
  8
0
 10
389.2526989802999
 20
153.00000049170001
 30
0.0
 11
390.46348677949982
 21
157.84315075719999
 31
0.0
  0
LINE
  5
1683F
  8
0
 10
390.44265355909988
 20
158.15011374650001
 30
0.0
 11
390.00269910319992
 21
159.25000058480001
 31
0.0
  0
ARC
  5
16841
  8
0
 10
375.70269900139988
 20
185.0900004314
 30
0.0
 40
0.2000000000000171
 50
90.0
 51
180.0
  0
ARC
  5
16842
  8
0
 10
389.00269900139989
 20
184.29000043139999
 30
0.0
 40
1.0
 50
0.0
 51
90.0
  0
LINE
  5
16843
  8
0
 10
390.00269910319992
 20
179.1029853798901
 30
0.0
 11
390.00269910319992
 21
184.289999865
 31
0.0
  0
LINE
  5
16844
  8
0
 10
377.00269930059989
 20
185.29000002890001
 30
0.0
 11
375.70269964629989
 21
185.29000002890001
 31
0.0
  0
ARC
  5
16845
  8
0
 10
375.70269900139988
 20
155.89325739789999
 30
0.0
 40
0.2000000000000171
 50
180.0
 51
270.0
  0
ARC
  5
16846
  8
0
 10
389.00269900139989
 20
156.6932573979
 30
0.0
 40
1.0
 50
270.0
 51
0.0
  0
LINE
  5
16847
  8
0
 10
390.00269910319992
 20
156.6932574846
 30
0.0
 11
390.0026991031998
 21
162.04219861150941
 31
0.0
  0
LINE
  5
16848
  8
0
 10
375.70269964629989
 20
155.69325778629999
 30
0.0
 11
377.00269930059989
 21
155.69325778629999
 31
0.0
  0
LINE
  5
1684B
  8
0
 10
386.00269891319999
 20
186.5257794037
 30
0.0
 11
380.00269979239988
 21
186.5257794037
 31
0.0
  0
LINE
  5
1684C
  8
0
 10
377.00269930059989
 20
153.69459111239999
 30
0.0
 11
380.00269979239988
 21
153.69459111239999
 31
0.0
  0
LINE
  5
1684D
  8
0
 10
386.00269891319999
 20
153.69459111239999
 30
0.0
 11
389.00269940489989
 21
153.69459111239999
 31
0.0
  0
POLYLINE
  5
1684E
  8
0
 66
     1
 10
0.0
 20
0.0
 30
0.0
 70
   128
  0
VERTEX
  5
1788C
  8
0
 10
374.72933903329999
 20
176.09579544510001
 30
0.0
  0
VERTEX
  5
1788D
  8
0
 10
374.67787787319992
 20
176.03473886840001
 30
0.0
  0
VERTEX
  5
1788E
  8
0
 10
374.61431883270001
 20
175.8632414043
 30
0.0
  0
VERTEX
  5
1788F
  8
0
 10
374.54568594689999
 20
175.62088798729999
 30
0.0
  0
VERTEX
  5
17890
  8
0
 10
374.46817569429987
 20
175.29965061690001
 30
0.0
  0
VERTEX
  5
17891
  8
0
 10
374.394768849
 20
174.96564760800001
 30
0.0
  0
VERTEX
  5
17892
  8
0
 10
374.32696484029998
 20
174.6420763433
 30
0.0
  0
VERTEX
  5
17893
  8
0
 10
374.27159771319998
 20
174.36896879220001
 30
0.0
  0
VERTEX
  5
17894
  8
0
 10
374.24024939539993
 20
174.19803291560001
 30
0.0
  0
VERTEX
  5
17895
  8
0
 10
374.24874050497579
 20
174.1404646994082
 30
0.0
  0
VERTEX
  5
17896
  8
0
 10
374.26389008759998
 20
174.1655502468
 30
0.0
  0
VERTEX
  5
17897
  8
0
 10
374.32032264769992
 20
174.30933527650001
 30
0.0
  0
VERTEX
  5
17898
  8
0
 10
374.40455146129989
 20
174.5524886995
 30
0.0
  0
VERTEX
  5
17899
  8
0
 10
374.49691072100001
 20
174.8464066535
 30
0.0
  0
VERTEX
  5
1789A
  8
0
 10
374.59197826680003
 20
175.18232818690001
 30
0.0
  0
VERTEX
  5
1789B
  8
0
 10
374.67118352649987
 20
175.50940401849999
 30
0.0
  0
VERTEX
  5
1789C
  8
0
 10
374.72408078609988
 20
175.78570228070001
 30
0.0
  0
VERTEX
  5
1789D
  8
0
 10
374.74746070800001
 20
175.9945895523
 30
0.0
  0
VERTEX
  5
1789E
  8
0
 10
374.73774701349998
 20
176.08725335450001
 30
0.0
  0
VERTEX
  5
1789F
  8
0
 10
374.72933903329999
 20
176.09579544510001
 30
0.0
  0
SEQEND
  5
178A0
  8
0
  0
POLYLINE
  5
1684F
  8
0
 66
     1
 10
0.0
 20
0.0
 30
0.0
 70
   128
  0
VERTEX
  5
178A1
  8
0
 10
375.80254115159988
 20
176.64671465750001
 30
0.0
  0
VERTEX
  5
178A2
  8
0
 10
375.95092132690002
 20
176.6239251941
 30
0.0
  0
VERTEX
  5
178A3
  8
0
 10
376.14617124199992
 20
176.70485526319999
 30
0.0
  0
VERTEX
  5
178A4
  8
0
 10
376.3538915663998
 20
176.8685035407
 30
0.0
  0
VERTEX
  5
178A5
  8
0
 10
376.57292373479987
 20
177.1160462871
 30
0.0
  0
VERTEX
  5
178A6
  8
0
 10
376.74971856169992
 20
177.3942658677
 30
0.0
  0
VERTEX
  5
178A7
  8
0
 10
376.87887623900002
 20
177.68118213860001
 30
0.0
  0
VERTEX
  5
178A8
  8
0
 10
376.95363536479999
 20
177.9728481546
 30
0.0
  0
VERTEX
  5
178A9
  8
0
 10
376.95153988899989
 20
178.2008275389
 30
0.0
  0
VERTEX
  5
178AA
  8
0
 10
376.8769912420999
 20
178.35669089109999
 30
0.0
  0
VERTEX
  5
178AB
  8
0
 10
376.84470601380002
 20
178.38177792729999
 30
0.0
  0
VERTEX
  5
178AC
  8
0
 10
376.69149599970001
 20
178.40643748639999
 30
0.0
  0
VERTEX
  5
178AD
  8
0
 10
376.4997851102998
 20
178.3318571746
 30
0.0
  0
VERTEX
  5
178AE
  8
0
 10
376.28200277679991
 20
178.15562486650001
 30
0.0
  0
VERTEX
  5
178AF
  8
0
 10
376.08589977019989
 20
177.9198559001
 30
0.0
  0
VERTEX
  5
178B0
  8
0
 10
375.90613588690002
 20
177.6259677484
 30
0.0
  0
VERTEX
  5
178B1
  8
0
 10
375.77445805069988
 20
177.31912396850001
 30
0.0
  0
VERTEX
  5
178B2
  8
0
 10
375.70677883920001
 20
177.0501021295
 30
0.0
  0
VERTEX
  5
178B3
  8
0
 10
375.70231407879987
 20
176.816307567
 30
0.0
  0
VERTEX
  5
178B4
  8
0
 10
375.76918862759999
 20
176.672527194
 30
0.0
  0
VERTEX
  5
178B5
  8
0
 10
375.80254115159988
 20
176.64671465750001
 30
0.0
  0
SEQEND
  5
178B6
  8
0
  0
POLYLINE
  5
16850
  8
0
 66
     1
 10
0.0
 20
0.0
 30
0.0
 70
   128
  0
VERTEX
  5
178B7
  8
0
 10
378.09669785199992
 20
181.16538468749999
 30
0.0
  0
VERTEX
  5
178B8
  8
0
 10
377.99563258879999
 20
181.16777818649999
 30
0.0
  0
VERTEX
  5
178B9
  8
0
 10
377.82157957549998
 20
181.0863321647
 30
0.0
  0
VERTEX
  5
178BA
  8
0
 10
377.61102057990001
 20
180.94029147180001
 30
0.0
  0
VERTEX
  5
178BB
  8
0
 10
377.35910341139987
 20
180.72379063810001
 30
0.0
  0
VERTEX
  5
178BC
  8
0
 10
377.11750529699998
 20
180.4778637364
 30
0.0
  0
VERTEX
  5
178BD
  8
0
 10
376.9079241901
 20
180.23002762339999
 30
0.0
  0
VERTEX
  5
178BE
  8
0
 10
376.74283049999991
 20
179.9967592582
 30
0.0
  0
VERTEX
  5
178BF
  8
0
 10
376.65668874980003
 20
179.83019966629999
 30
0.0
  0
VERTEX
  5
178C0
  8
0
 10
376.64412148289989
 20
179.72680609669999
 30
0.0
  0
VERTEX
  5
178C1
  8
0
 10
376.6575679183
 20
179.7114634886
 30
0.0
  0
VERTEX
  5
178C2
  8
0
 10
376.75309739999989
 20
179.7202197835
 30
0.0
  0
VERTEX
  5
178C3
  8
0
 10
376.91698037089992
 20
179.80767656110001
 30
0.0
  0
VERTEX
  5
178C4
  8
0
 10
377.14278884229998
 20
179.97270133340001
 30
0.0
  0
VERTEX
  5
178C5
  8
0
 10
377.37927399569992
 20
180.17616178840001
 30
0.0
  0
VERTEX
  5
178C6
  8
0
 10
377.6296395807999
 20
180.41796479370001
 30
0.0
  0
VERTEX
  5
178C7
  8
0
 10
377.85347178579991
 20
180.66494408989999
 30
0.0
  0
VERTEX
  5
178C8
  8
0
 10
378.01385857159988
 20
180.8764865622
 30
0.0
  0
VERTEX
  5
178C9
  8
0
 10
378.10792028899988
 20
181.0507277026
 30
0.0
  0
VERTEX
  5
178CA
  8
0
 10
378.11132334169997
 20
181.15018922830001
 30
0.0
  0
VERTEX
  5
178CB
  8
0
 10
378.09669785199992
 20
181.16538468749999
 30
0.0
  0
SEQEND
  5
178CC
  8
0
  0
LINE
  5
16851
  8
0
 10
383.0047892406991
 20
158.49485816430001
 30
0.0
 11
383.00060946489998
 21
158.49485816430001
 31
0.0
  0
ARC
  5
16859
  8
0
 10
382.88763202770002
 20
163.885221202
 30
0.0
 40
5.7906391420447116
 50
233.0539114611523
 51
271.13861456210259
  0
LINE
  5
16861
  8
0
 10
389.42272339309989
 20
186.9999995455
 30
0.0
 11
376.58267363750002
 21
186.9999995455
 31
0.0
  0
LINE
  5
16864
  8
0
 10
389.42272216079988
 20
188.9999998733
 30
0.0
 11
376.58267654479988
 21
188.9999998733
 31
0.0
  0
ARC
  5
16865
  8
0
 10
376.58267363750002
 20
186.26340237799999
 30
0.0
 40
0.7365971674639941
 50
89.99977386269812
 51
150.00003403960051
  0
ARC
  5
16867
  8
0
 10
376.5826725448
 20
186.2634037839
 30
0.0
 40
2.7365960894410128
 50
89.999916253398297
 51
150.00002615599891
  0
ARC
  5
16869
  8
0
 10
389.42272339309989
 20
186.2634002835
 30
0.0
 40
0.7365992619581979
 50
30.000060021902431
 51
90.000095854701655
  0
ARC
  5
1686A
  8
0
 10
389.42272321999991
 20
186.26340030349999
 30
0.0
 40
2.7365995698380692
 50
30.000015914797611
 51
90.000022176801735
  0
ARC
  5
1686F
  8
0
 10
380.3806078264999
 20
193.82142174180001
 30
0.0
 40
4.8229674553166628
 50
271.45057023539943
 51
302.93366447730051
  0
ARC
  5
16870
  8
0
 10
380.66470007959992
 20
193.95040980019999
 30
0.0
 40
4.9530599443858652
 50
237.4900768296026
 51
268.12567640370162
  0
ARC
  5
16872
  8
0
 10
380.6247657447999
 20
189.0286598914
 30
0.0
 40
4.8228851224980929
 50
91.450306052598492
 51
122.933940714101
  0
ARC
  5
16873
  8
0
 10
380.34070650059988
 20
188.89961498439999
 30
0.0
 40
4.953034778389628
 50
57.489997783597509
 51
88.125767503700956
  0
LINE
  5
16874
  8
0
 10
383.00269935279988
 20
193.07649750260001
 30
0.0
 11
383.00269935279988
 21
189.7735023871
 31
0.0
  0
ARC
  5
16875
  8
0
 10
385.66469922699991
 20
193.95040740569999
 30
0.0
 40
4.953057526937136
 50
237.49006917000321
 51
268.12568406319951
  0
ARC
  5
16876
  8
0
 10
385.62476759909993
 20
189.028653537
 30
0.0
 40
4.8228915245711601
 50
91.450327491000905
 51
122.9339192757033
  0
LINE
  5
16877
  8
0
 10
388.00269924099968
 20
193.8500000164
 30
0.0
 11
378.0026994645001
 21
193.8500000164
 31
0.0
  0
ARC
  5
16878
  8
0
 10
385.38060771469981
 20
193.82142174180001
 30
0.0
 40
4.8229674553166628
 50
271.45057023539943
 51
302.93366447730051
  0
ARC
  5
16879
  8
0
 10
385.3407063887999
 20
188.89961498439999
 30
0.0
 40
4.953034778389628
 50
57.489997783597509
 51
88.125767503700956
  0
LINE
  5
1687D
  8
0
 10
378.0026994645001
 20
193.85000001639989
 30
0.0
 11
378.00269946449998
 21
188.9999998733
 31
0.0
  0
LINE
  5
16880
  8
0
 10
388.00269924099979
 20
188.9999998733
 30
0.0
 11
388.00269924099968
 21
193.8500000164
 31
0.0
  0
LINE
  5
16881
  8
0
 10
385.50269883119989
 20
196.00000102070001
 30
0.0
 11
380.50269894299993
 21
196.00000102070001
 31
0.0
  0
LINE
  5
16882
  8
0
 10
386.00269891319999
 20
195.50000000739999
 30
0.0
 11
380.00269979239988
 21
195.50000000739999
 31
0.0
  0
LINE
  5
16884
  8
0
 10
379.80270310726598
 20
150.00000043140261
 30
0.0
 11
386.2026985734999
 21
150.0
 31
0.0
  0
LINE
  5
16885
  8
0
 10
375.50269812339991
 20
185.0899705663
 30
0.0
 11
375.50269812340002
 21
178.2000300887826
 31
0.0
  0
LINE
  5
16886
  8
0
 10
375.50269812339991
 20
163.14738922519999
 30
0.0
 11
375.50269900139978
 21
155.89325739789999
 31
0.0
  0
LINE
  5
16888
  8
0
 10
375.50269812339991
 20
163.14738922519999
 30
0.0
 11
375.50269812339991
 21
162.54820113529999
 31
0.0
  0
LINE
  5
1688A
  8
0
 10
383.00269935279982
 20
186.5257794037
 30
0.0
 11
383.00269935280011
 21
183.1367020954055
 31
0.0
  0
LINE
  5
1688D
  8
0
 10
377.00269930059989
 20
153.69459111239999
 30
0.0
 11
377.00269930059989
 21
160.28401440568121
 31
0.0
  0
LINE
  5
1688E
  8
0
 10
389.00269940489989
 20
153.69459111239999
 30
0.0
 11
389.00269940489989
 21
160.28401440554421
 31
0.0
  0
LINE
  5
1688F
  8
0
 10
377.00269930059989
 20
180.43784624414451
 30
0.0
 11
377.00269930059977
 21
186.9999995455
 31
0.0
  0
LINE
  5
16893
  8
0
 10
380.00269979239988
 20
182.6000326182359
 30
0.0
 11
380.00269979239988
 21
186.9999995455
 31
0.0
  0
LINE
  5
16894
  8
0
 10
386.00269891319999
 20
186.9999995455
 30
0.0
 11
386.00269891319999
 21
182.6000326182359
 31
0.0
  0
LINE
  5
16898
  8
0
 10
389.00269940489989
 20
180.4378462442574
 30
0.0
 11
389.0026994049
 21
186.9999995455
 31
0.0
  0
ARC
  5
16899
  8
0
 10
379.8026990013999
 20
153.20000043140001
 30
0.0
 40
0.2000000000000171
 50
270.0
 51
0.0
  0
LINE
  5
1689A
  8
0
 10
380.00269979239988
 20
157.73119189500099
 30
0.0
 11
380.00269979239988
 21
153.200000152
 31
0.0
  0
ARC
  5
1689B
  8
0
 10
379.8026990013999
 20
153.20000043140001
 30
0.0
 40
3.1999999999999882
 50
270.0
 51
0.0
  0
LINE
  5
1689C
  8
0
 10
355.0036977975999
 20
150.0
 30
0.0
 11
379.80269826950001
 21
150.0
 31
0.0
  0
LINE
  5
1689D
  8
0
 10
379.80269826950001
 20
153.00000049170001
 30
0.0
 11
355.0036977975999
 21
153.00000049170001
 31
0.0
  0
LINE
  5
1689E
  8
0
 10
383.00269935279988
 20
153.200000152
 30
0.0
 11
383.00269935279988
 21
157.09414156150001
 31
0.0
  0
LINE
  5
1689F
  8
0
 10
355.0036977975999
 20
150.0
 30
0.0
 11
355.0036977975999
 21
153.00000049170001
 31
0.0
  0
LINE
  5
168A2
  8
0
 10
411.00169904529992
 20
153.00000049170001
 30
0.0
 11
411.00169904529992
 21
150.0
 31
0.0
  0
ARC
  5
168A5
  8
0
 10
386.20269900139988
 20
153.20000043140001
 30
0.0
 40
3.1999999999999882
 50
180.0
 51
270.0
  0
LINE
  5
168A6
  8
0
 10
386.00269891319999
 20
153.200000152
 30
0.0
 11
386.00269891319999
 21
157.73119189500099
 31
0.0
  0
ARC
  5
168A7
  8
0
 10
386.20269900139988
 20
153.20000043140001
 30
0.0
 40
0.1999999999999886
 50
180.0
 51
270.0
  0
LINE
  5
168A8
  8
0
 10
411.00169904529997
 20
153.00000049170001
 30
0.0
 11
386.2026985734999
 21
153.00000049170001
 31
0.0
  0
LINE
  5
168A9
  8
0
 10
386.2026985734999
 20
150.0
 30
0.0
 11
411.00169904529997
 21
150.0
 31
0.0
  0
LINE
  5
168B2
  8
0
 10
390.44265355909988
 20
158.15011374650001
 30
0.0
 11
390.00269910319992
 21
158.15011374650001
 31
0.0
  0
LINE
  5
168B3
  8
0
 10
390.46348677949982
 20
157.84315075719999
 30
0.0
 11
390.00269910319992
 21
157.84315075719999
 31
0.0
  0
LINE
  5
168C3
  8
0
 10
168.0607868910281
 20
278.99900138702708
 30
0.0
 11
165.17403522437809
 21
273.99900083155512
 31
0.0
  0
LINE
  5
168C4
  8
0
 10
173.83428906857921
 20
268.9990009433551
 30
0.0
 11
176.7210407352292
 21
273.99900149882711
 31
0.0
  0
LINE
  5
168C5
  8
0
 10
176.72104134387189
 20
273.99900330137291
 30
0.0
 11
173.83428967722179
 21
278.99900385684492
 31
0.0
  0
LINE
  5
168C6
  8
0
 10
165.17403583302061
 20
273.99900396864479
 30
0.0
 11
168.06078749967071
 21
268.99900341317289
 31
0.0
  0
ARC
  5
169EB
  8
0
 10
67.378903351049985
 20
171.9714229283
 30
0.0
 40
4.8229678737413728
 50
271.45058315420118
 51
302.9336636124973
  0
ARC
  5
169EC
  8
0
 10
67.662996358150053
 20
172.1004126901
 30
0.0
 40
4.9530620262489711
 50
237.49008411729849
 51
268.12568116989979
  0
ARC
  5
169EE
  8
0
 10
67.62306323544999
 20
167.17865472330001
 30
0.0
 40
4.82289110632661
 50
91.450314572702297
 51
122.93392014009839
  0
ARC
  5
169EF
  8
0
 10
67.339003520050028
 20
167.04962026889999
 30
0.0
 40
4.9530302790420953
 50
57.489982836102577
 51
88.125770397202615
  0
LINE
  5
169F0
  8
0
 10
70.000995043749981
 20
167.9235031828
 30
0.0
 11
70.000995043749981
 21
171.22649829829999
 31
0.0
  0
ARC
  5
169F1
  8
0
 10
72.662996246450007
 20
172.1004126901
 30
0.0
 40
4.9530620262489711
 50
237.49008411729849
 51
268.12568116989979
  0
ARC
  5
169F2
  8
0
 10
72.623063123750057
 20
167.17865472330001
 30
0.0
 40
4.82289110632661
 50
91.450314572702297
 51
122.93392014009839
  0
ARC
  5
169F4
  8
0
 10
72.378905205449996
 20
171.97141657360001
 30
0.0
 40
4.8229614713542421
 50
271.45056171550323
 51
302.9336850511977
  0
ARC
  5
169F5
  8
0
 10
72.339002667349973
 20
167.0496178743
 30
0.0
 40
4.9530326965683482
 50
57.48999049590217
 51
88.125762737300988
  0
LINE
  5
169F7
  8
0
 10
65.000995155449914
 20
172.00000081210001
 30
0.0
 11
65.000995155450013
 21
167.15000066900001
 31
0.0
  0
LINE
  5
169FA
  8
0
 10
75.000994931950004
 20
167.15000066900001
 30
0.0
 11
75.000994931950004
 21
172.00000081210001
 31
0.0
  0
LINE
  5
169FD
  8
0
 10
65.000995155450013
 20
167.15000066900001
 30
0.0
 11
75.000994931950004
 21
167.15000066900001
 31
0.0
  0
LINE
  5
169FE
  8
0
 10
374.21271018680773
 20
187.63170074671311
 30
0.0
 11
373.3320031314999
 21
186.10627073789999
 31
0.0
  0
LINE
  5
169FF
  8
0
 10
375.0640545039999
 20
185.10627243659999
 30
0.0
 11
375.94476155931329
 21
186.6317005827465
 31
0.0
  0
LINE
  5
16A00
  8
0
 10
390.94134327019992
 20
185.10627243659999
 30
0.0
 11
390.06063668054088
 21
186.6317005827444
 31
0.0
  0
LINE
  5
16A01
  8
0
 10
391.7926875873984
 20
187.6317007467137
 30
0.0
 11
392.67339417709991
 21
186.10627073789999
 31
0.0
  0
LINE
  5
16A02
  8
0
 10
373.3320031314999
 20
174.89372901620001
 30
0.0
 11
374.15510073326578
 21
173.46808345508029
 31
0.0
  0
LINE
  5
16A03
  8
0
 10
392.67339417709991
 20
174.89372901620001
 30
0.0
 11
391.8500586473383
 21
173.46767040658759
 31
0.0
  0
LINE
  5
16A51
  8
0
 10
175.94753839069989
 20
167.15000066900001
 30
0.0
 11
176.72104276709999
 21
167.9235031828
 31
0.0
  0
LINE
  5
16A52
  8
0
 10
165.94754047689989
 20
172.00000081210001
 30
0.0
 11
165.1740361004999
 21
171.22649829829999
 31
0.0
  0
LINE
  5
16A53
  8
0
 10
165.1740361004999
 20
167.9235031828
 30
0.0
 11
165.94754047689989
 21
167.15000066900001
 31
0.0
  0
LINE
  5
16A54
  8
0
 10
176.72104276709999
 20
171.22649829829999
 30
0.0
 11
175.94753839069989
 21
172.00000081210001
 31
0.0
  0
ARC
  5
16A55
  8
0
 10
170.82669564289989
 20
173.3744937882
 30
0.0
 40
6.2256660537537316
 50
271.11221417860321
 51
298.88779452600249
  0
ARC
  5
16A56
  8
0
 10
171.10787947060001
 20
173.5219104148
 30
0.0
 40
6.3739267909112227
 50
241.44149078539931
 51
268.55853747940222
  0
LINE
  5
16A57
  8
0
 10
168.06078590449999
 20
171.22649829829999
 30
0.0
 11
168.06078590449999
 21
167.9235031828
 31
0.0
  0
ARC
  5
16A58
  8
0
 10
171.06835486549991
 20
165.7755990462
 30
0.0
 40
6.2255741671822271
 50
91.111969548599632
 51
118.88800218659711
  0
ARC
  5
16A59
  8
0
 10
170.78720747829991
 20
165.62813590109999
 30
0.0
 40
6.3738817669961341
 50
61.441391333703557
 51
88.558599961602226
  0
LINE
  5
16A5A
  8
0
 10
173.83428923779999
 20
171.22649829829999
 30
0.0
 11
173.83428923779999
 21
167.9235031828
 31
0.0
  0
ARC
  5
16A5B
  8
0
 10
175.42869269749991
 20
169.9847390802
 30
0.0
 40
2.02091275122002
 50
94.285766409498365
 51
142.0876958179
  0
ARC
  5
16A5C
  8
0
 10
175.4780836425999
 20
169.25742736909999
 30
0.0
 40
2.11693499664523
 50
219.059015031401
 51
264.56752274119771
  0
ARC
  5
16A5D
  8
0
 10
166.41699566209991
 20
169.89258284440001
 30
0.0
 40
2.1169262620597711
 50
39.058902496201902
 51
84.567512143698067
  0
ARC
  5
16A5E
  8
0
 10
166.46637372640001
 20
169.16527794230001
 30
0.0
 40
2.0209291791403241
 50
274.28608528930249
 51
322.0875000709006
  0
ARC
  5
16A5F
  8
0
 10
175.1266216757999
 20
169.16529457479999
 30
0.0
 40
2.020946431224218
 50
274.2863020414984
 51
322.0872833187014
  0
ARC
  5
16A60
  8
0
 10
175.0772525248
 20
169.89258284440001
 30
0.0
 40
2.1169262620597711
 50
39.058902496201902
 51
84.567512143698067
  0
LINE
  5
16A61
  8
0
 10
176.72104276709999
 20
171.22649829829999
 30
0.0
 11
176.72104276709999
 21
167.9235031828
 31
0.0
  0
ARC
  5
16A62
  8
0
 10
166.81783215830001
 20
169.25742948830001
 30
0.0
 40
2.1169376155570441
 50
219.05903137940021
 51
264.56738326039869
  0
LINE
  5
16A63
  8
0
 10
165.1740361004999
 20
167.9235031828
 30
0.0
 11
165.1740361004999
 21
171.22649829829999
 31
0.0
  0
ARC
  5
16A64
  8
0
 10
166.7684409858999
 20
169.98473714709999
 30
0.0
 40
2.020915063813836
 50
94.285907943699584
 51
142.0876774163967
  0
LINE
  5
16A65
  8
0
 10
175.94753839069989
 20
167.15000066900001
 30
0.0
 11
165.94754047689989
 21
167.15000066900001
 31
0.0
  0
CIRCLE
  5
16AB3
  8
0
 10
170.94753899709991
 20
72.00099879630001
 30
0.0
 40
5.0999999999999988
  0
LINE
  5
16B01
  8
0
 10
61.211007274701842
 20
187.63170074667971
 30
0.0
 11
60.330300685100042
 21
186.10627073789999
 31
0.0
  0
LINE
  5
16B02
  8
0
 10
62.943058181635138
 20
186.6317005828129
 30
0.0
 11
62.062351591900097
 21
185.10627243659999
 31
0.0
  0
LINE
  5
16B03
  8
0
 10
77.05893330277604
 20
186.63170058279141
 30
0.0
 11
77.939640358199995
 21
185.10627243659999
 31
0.0
  0
LINE
  5
16B04
  8
0
 10
78.790984675366644
 20
187.63170074670751
 30
0.0
 11
79.67169173069999
 21
186.10627073789999
 31
0.0
  0
LINE
  5
16B05
  8
0
 10
62.943058181609779
 20
174.3683001026703
 30
0.0
 11
62.062351297401158
 21
175.89372901007101
 31
0.0
  0
LINE
  5
16B06
  8
0
 10
61.211007274719456
 20
173.36830087004381
 30
0.0
 11
60.330300685100042
 21
174.89372901620001
 31
0.0
  0
LINE
  5
16B07
  8
0
 10
77.058933302852552
 20
174.36830010258629
 30
0.0
 11
77.939640358199995
 21
175.8937291801
 31
0.0
  0
LINE
  5
16B08
  8
0
 10
78.790984675306163
 20
173.36830087008121
 30
0.0
 11
79.67169173069999
 21
174.89372901620001
 31
0.0
  0
CIRCLE
  5
16B56
  8
3
 10
170.94753899709991
 20
273.99900222439999
 30
0.0
 40
2.4500000000000002
  0
LINE
  5
16B59
  8
3
 10
168.49753899709989
 20
196.00000102070001
 30
0.0
 11
168.49753899709989
 21
193.8500000164
 31
0.0
  0
LINE
  5
16B5A
  8
3
 10
173.39753899710001
 20
196.00000102070001
 30
0.0
 11
173.39753899710001
 21
193.8500000164
 31
0.0
  0
LINE
  5
16B5B
  8
3
 10
168.49753899709989
 20
167.15000066900001
 30
0.0
 11
168.49753899710001
 21
163.0000004398087
 31
0.0
  0
LINE
  5
16B5C
  8
3
 10
173.39753899710001
 20
167.15000066900001
 30
0.0
 11
173.3975389971001
 21
163.00000043440079
 31
0.0
  0
LINE
  5
16B5D
  8
3
 10
67.550995538350094
 20
196.00000102070001
 30
0.0
 11
67.550995538350094
 21
193.8500000164
 31
0.0
  0
LINE
  5
16B5E
  8
3
 10
72.450995538350185
 20
196.00000102070001
 30
0.0
 11
72.450995538350185
 21
193.8500000164
 31
0.0
  0
LINE
  5
16B5F
  8
3
 10
67.550995538350094
 20
167.15000066900001
 30
0.0
 11
67.550995538350193
 21
163.0000004398087
 31
0.0
  0
LINE
  5
16B60
  8
3
 10
72.450995538350185
 20
167.15000066900001
 30
0.0
 11
72.450995538350298
 21
163.00000043440079
 31
0.0
  0
LINE
  5
16B61
  8
1
 10
310.0036977975999
 20
273.99900257579998
 30
0.0
 11
142.99999706450001
 21
273.99900257579998
 31
0.0
  0
LINE
  5
16C65
  8
3
 10
380.55269845039999
 20
196.00000102070001
 30
0.0
 11
380.55269845039999
 21
193.8500000164
 31
0.0
  0
LINE
  5
16C66
  8
3
 10
385.45269845040008
 20
196.00000102070001
 30
0.0
 11
385.45269845040008
 21
193.8500000164
 31
0.0
  0
LINE
  5
16C68
  8
0
 10
273.85101355609987
 20
282.12291123339998
 30
0.0
 11
257.7748883514999
 21
281.4696839078
 31
0.0
  0
LINE
  5
16C69
  8
0
 10
245.91878131030001
 20
76.00100375720001
 30
0.0
 11
249.1102281958
 21
79.127632454100009
 31
0.0
  0
LINE
  5
16C6A
  8
0
 10
257.5218033045
 20
79.468327015700012
 30
0.0
 11
296.78875468669997
 21
80.974329635500013
 31
0.0
  0
LINE
  5
16C75
  8
0
 10
258.37400071320002
 20
180.50593566149999
 30
0.0
 11
286.9901906698999
 21
182.72562380880001
 31
0.0
  0
ARC
  5
16C76
  8
0
 10
291.76731778621757
 20
148.9589978786934
 30
0.0
 40
34.102873342127708
 50
83.263834032374021
 51
98.052469789608665
  0
ARC
  5
16C77
  8
0
 10
292.97875221337182
 20
171.1277942257957
 30
0.0
 40
12.026459999158851
 50
40.189895732971088
 51
76.591945972804965
  0
ARC
  5
16C78
  8
0
 10
292.97730883843877
 20
171.12813011439309
 30
0.0
 40
12.02734590952489
 50
0.7227703278026353
 51
40.18423619691378
  0
LINE
  5
16C79
  8
0
 10
280.07323928179989
 20
282.3722826316
 30
0.0
 11
275.81816054879988
 21
282.20178401089998
 31
0.0
  0
LINE
  5
16D14
  8
0
 10
252.0701948553
 20
79.247294366400013
 30
0.0
 11
249.1102281958
 21
79.127632454100009
 31
0.0
  0
ARC
  5
16D16
  8
0
 10
295.93939127116357
 20
72.088435564149947
 30
0.0
 40
9.0647282394465023
 50
359.44732423698838
 51
27.271242989324289
  0
ARC
  5
16D17
  8
0
 10
296.2947956393092
 20
72.245208300947169
 30
0.0
 40
8.6770260275659741
 50
27.426420689766729
 51
48.617760179339228
  0
ARC
  5
16D18
  8
0
 10
296.06251982633933
 20
71.955721019205768
 30
0.0
 40
9.0478018571529901
 50
48.72600775932262
 51
85.396119027452045
  0
LINE
  5
16D1A
  8
0
 10
252.0701948553
 20
64.754702523400013
 30
0.0
 11
249.1102281958
 21
64.874364435700031
 31
0.0
  0
ARC
  5
16D1B
  8
0
 10
295.93939127116357
 20
71.913561325650093
 30
0.0
 40
9.0647282394465023
 50
332.72875701067528
 51
0.5526757630124629
  0
ARC
  5
16D1C
  8
0
 10
296.2947956393092
 20
71.756788588852871
 30
0.0
 40
8.6770260275659741
 50
311.38223982066069
 51
332.5735793102329
  0
ARC
  5
16D1D
  8
0
 10
296.06251982633933
 20
72.046275870594272
 30
0.0
 40
9.0478018571529901
 50
274.60388097254798
 51
311.27399224067722
  0
POLYLINE
  5
16D1E
  8
0
 66
     1
 10
0.0
 20
0.0
 30
0.0
 70
   128
  0
VERTEX
  5
178CD
  8
0
 10
259.65944938360002
 20
72.000874579000026
 30
0.0
  0
VERTEX
  5
178CE
  8
0
 10
259.6795249729999
 20
71.105379052500027
 30
0.0
  0
VERTEX
  5
178CF
  8
0
 10
259.7106199710999
 20
70.358427614000021
 30
0.0
  0
SEQEND
  5
178D0
  8
0
  0
POLYLINE
  5
16D1F
  8
0
 66
     1
 10
0.0
 20
0.0
 30
0.0
 70
   128
  0
VERTEX
  5
178D1
  8
0
 10
246.09778523439991
 20
68.00099313260003
 30
0.0
  0
VERTEX
  5
178D2
  8
0
 10
247.19681851559989
 20
66.890145093300035
 30
0.0
  0
VERTEX
  5
178D3
  8
0
 10
247.98339493569989
 20
66.087710112400032
 30
0.0
  0
VERTEX
  5
178D4
  8
0
 10
248.57734404499999
 20
65.476060286200024
 30
0.0
  0
VERTEX
  5
178D5
  8
0
 10
248.98059740659991
 20
65.052604675300032
 30
0.0
  0
VERTEX
  5
178D6
  8
0
 10
249.1279810666999
 20
64.887436479400023
 30
0.0
  0
VERTEX
  5
178D7
  8
0
 10
249.1102281958
 20
64.874364435700031
 30
0.0
  0
SEQEND
  5
178D8
  8
0
  0
POLYLINE
  5
16D20
  8
0
 66
     1
 10
0.0
 20
0.0
 30
0.0
 70
   128
  0
VERTEX
  5
178D9
  8
0
 10
252.0701948553
 20
64.754702523400013
 30
0.0
  0
VERTEX
  5
178DA
  8
0
 10
252.33020521700001
 20
64.768538251600035
 30
0.0
  0
VERTEX
  5
178DB
  8
0
 10
252.8130810708
 20
64.869428426100029
 30
0.0
  0
VERTEX
  5
178DC
  8
0
 10
253.40263620019991
 20
65.053273365000024
 30
0.0
  0
VERTEX
  5
178DD
  8
0
 10
254.1794374584999
 20
65.277910232600036
 30
0.0
  0
VERTEX
  5
178DE
  8
0
 10
254.67842519280001
 20
65.36266058690002
 30
0.0
  0
VERTEX
  5
178DF
  8
0
 10
254.95850928129991
 20
65.38033708940003
 30
0.0
  0
VERTEX
  5
178E0
  8
0
 10
255.24366535239989
 20
65.374276042000034
 30
0.0
  0
VERTEX
  5
178E1
  8
0
 10
255.52027747029999
 20
65.341944247500024
 30
0.0
  0
VERTEX
  5
178E2
  8
0
 10
255.77366612849991
 20
65.289494022800014
 30
0.0
  0
VERTEX
  5
178E3
  8
0
 10
256.1980437487
 20
65.149251744200029
 30
0.0
  0
VERTEX
  5
178E4
  8
0
 10
256.78175203500001
 20
64.860120788300023
 30
0.0
  0
VERTEX
  5
178E5
  8
0
 10
257.1732763201
 20
64.647697284900033
 30
0.0
  0
VERTEX
  5
178E6
  8
0
 10
257.45994858440002
 20
64.54265713700002
 30
0.0
  0
VERTEX
  5
178E7
  8
0
 10
257.5218033045
 20
64.533669874100028
 30
0.0
  0
SEQEND
  5
178E8
  8
0
  0
POLYLINE
  5
16D21
  8
0
 66
     1
 10
0.0
 20
0.0
 30
0.0
 70
   128
  0
VERTEX
  5
178E9
  8
0
 10
290.54110758000002
 20
71.996446140200021
 30
0.0
  0
VERTEX
  5
178EA
  8
0
 10
290.5158426612
 20
70.652119256600031
 30
0.0
  0
VERTEX
  5
178EB
  8
0
 10
290.5176680534999
 20
69.800876453600026
 30
0.0
  0
SEQEND
  5
178EC
  8
0
  0
POLYLINE
  5
16D22
  8
0
 66
     1
 10
0.0
 20
0.0
 30
0.0
 70
   128
  0
VERTEX
  5
178ED
  8
0
 10
295.90578638020003
 20
72.00099844490002
 30
0.0
  0
VERTEX
  5
178EE
  8
0
 10
295.83283029489991
 20
70.243459567500025
 30
0.0
  0
VERTEX
  5
178EF
  8
0
 10
295.59390507640001
 20
68.597376719200028
 30
0.0
  0
VERTEX
  5
178F0
  8
0
 10
295.36530636249989
 20
67.75005944080003
 30
0.0
  0
VERTEX
  5
178F1
  8
0
 10
295.04411928349998
 20
66.990076005500029
 30
0.0
  0
VERTEX
  5
178F2
  8
0
 10
294.64493952689998
 20
66.359036043300023
 30
0.0
  0
VERTEX
  5
178F3
  8
0
 10
294.10297684369988
 20
65.837776661000021
 30
0.0
  0
VERTEX
  5
178F4
  8
0
 10
293.39779429139998
 20
65.495031327100023
 30
0.0
  0
VERTEX
  5
178F5
  8
0
 10
293.09320710599991
 20
65.430436655900024
 30
0.0
  0
VERTEX
  5
178F6
  8
0
 10
292.76139549909999
 20
65.41231684390003
 30
0.0
  0
VERTEX
  5
178F7
  8
0
 10
292.46054850519999
 20
65.438388288100015
 30
0.0
  0
VERTEX
  5
178F8
  8
0
 10
292.1574663371
 20
65.519545599900027
 30
0.0
  0
VERTEX
  5
178F9
  8
0
 10
291.68748371299989
 20
65.781088918500018
 30
0.0
  0
VERTEX
  5
178FA
  8
0
 10
291.31934307509999
 20
66.168379411200021
 30
0.0
  0
VERTEX
  5
178FB
  8
0
 10
291.04884229599998
 20
66.64803102620003
 30
0.0
  0
VERTEX
  5
178FC
  8
0
 10
290.82910232239999
 20
67.289712280100034
 30
0.0
  0
VERTEX
  5
178FD
  8
0
 10
290.67050181330001
 20
68.064486980500035
 30
0.0
  0
VERTEX
  5
178FE
  8
0
 10
290.57630412279991
 20
68.838196247900029
 30
0.0
  0
VERTEX
  5
178FF
  8
0
 10
290.51902405919998
 20
69.71927024430002
 30
0.0
  0
VERTEX
  5
17900
  8
0
 10
290.5176680534999
 20
69.800876453600026
 30
0.0
  0
SEQEND
  5
17901
  8
0
  0
ARC
  5
16D23
  8
0
 10
262.17250356782102
 20
72.03650272358044
 30
0.0
 40
23.912687711907449
 50
347.83678471723113
 51
359.91492579942508
  0
POLYLINE
  5
16D24
  8
0
 66
     1
 10
0.0
 20
0.0
 30
0.0
 70
   128
  0
VERTEX
  5
17902
  8
0
 10
285.54838411509991
 20
66.998165473400036
 30
0.0
  0
VERTEX
  5
17903
  8
0
 10
285.20826138550001
 20
66.411307454200028
 30
0.0
  0
VERTEX
  5
17904
  8
0
 10
284.72724445159997
 20
65.933818370200029
 30
0.0
  0
VERTEX
  5
17905
  8
0
 10
284.166271612
 20
65.659318491900024
 30
0.0
  0
VERTEX
  5
17906
  8
0
 10
283.81737582379992
 20
65.588726103400035
 30
0.0
  0
VERTEX
  5
17907
  8
0
 10
283.46649073060001
 20
65.571379289100022
 30
0.0
  0
VERTEX
  5
17908
  8
0
 10
283.07701535519988
 20
65.612772852200038
 30
0.0
  0
VERTEX
  5
17909
  8
0
 10
282.75832422079998
 20
65.690838173100005
 30
0.0
  0
VERTEX
  5
1790A
  8
0
 10
282.35746808350001
 20
65.862033888700026
 30
0.0
  0
VERTEX
  5
1790B
  8
0
 10
281.73845149570002
 20
66.340325772800014
 30
0.0
  0
VERTEX
  5
1790C
  8
0
 10
281.28806017340003
 20
66.950315982200038
 30
0.0
  0
VERTEX
  5
1790D
  8
0
 10
280.93594200910002
 20
67.691926285700021
 30
0.0
  0
VERTEX
  5
1790E
  8
0
 10
280.67702315749989
 20
68.561189249200027
 30
0.0
  0
VERTEX
  5
1790F
  8
0
 10
280.50108887250002
 20
69.56056728960003
 30
0.0
  0
VERTEX
  5
17910
  8
0
 10
280.4102402179999
 20
70.567043870700033
 30
0.0
  0
VERTEX
  5
17911
  8
0
 10
280.38850687439998
 20
71.642350778000036
 30
0.0
  0
VERTEX
  5
17912
  8
0
 10
280.39489202200002
 20
72.00099844490002
 30
0.0
  0
SEQEND
  5
17913
  8
0
  0
ARC
  5
16D25
  8
0
 10
243.45552883552401
 20
72.180892597048114
 30
0.0
 40
33.23505258265785
 50
352.79547855359817
 51
359.68986721635611
  0
POLYLINE
  5
16D26
  8
0
 66
     1
 10
0.0
 20
0.0
 30
0.0
 70
   128
  0
VERTEX
  5
17914
  8
0
 10
276.4281842856999
 20
68.012833967900022
 30
0.0
  0
VERTEX
  5
17915
  8
0
 10
276.07503421600001
 20
66.822870075800026
 30
0.0
  0
VERTEX
  5
17916
  8
0
 10
275.71824826300002
 20
66.209951788200016
 30
0.0
  0
VERTEX
  5
17917
  8
0
 10
275.20689256489987
 20
65.734027326200021
 30
0.0
  0
VERTEX
  5
17918
  8
0
 10
274.49628971519991
 20
65.446813032100025
 30
0.0
  0
VERTEX
  5
17919
  8
0
 10
274.09193925559998
 20
65.386893600300013
 30
0.0
  0
VERTEX
  5
1791A
  8
0
 10
273.62297736110003
 20
65.376498177700014
 30
0.0
  0
VERTEX
  5
1791B
  8
0
 10
273.2073578982999
 20
65.412821620800031
 30
0.0
  0
VERTEX
  5
1791C
  8
0
 10
272.69504480059987
 20
65.516567230300026
 30
0.0
  0
VERTEX
  5
1791D
  8
0
 10
271.97354175150002
 20
65.807551518100027
 30
0.0
  0
VERTEX
  5
1791E
  8
0
 10
271.43801264459989
 20
66.191155836000021
 30
0.0
  0
VERTEX
  5
1791F
  8
0
 10
270.99958695469991
 20
66.686949133900029
 30
0.0
  0
VERTEX
  5
17920
  8
0
 10
270.3357812017
 20
68.079444021000029
 30
0.0
  0
VERTEX
  5
17921
  8
0
 10
270.0882580130999
 20
69.046728685500028
 30
0.0
  0
VERTEX
  5
17922
  8
0
 10
269.91977430880002
 20
70.166048035100033
 30
0.0
  0
VERTEX
  5
17923
  8
0
 10
269.82789002359988
 20
72.00099844490002
 30
0.0
  0
SEQEND
  5
17924
  8
0
  0
POLYLINE
  5
16D27
  8
0
 66
     1
 10
0.0
 20
0.0
 30
0.0
 70
   128
  0
VERTEX
  5
17925
  8
0
 10
245.90910300609991
 20
69.000998884500021
 30
0.0
  0
VERTEX
  5
17926
  8
0
 10
245.90990580619999
 20
68.884063884700026
 30
0.0
  0
VERTEX
  5
17927
  8
0
 10
245.91878131030001
 20
68.00099313260003
 30
0.0
  0
SEQEND
  5
17928
  8
0
  0
LINE
  5
16D28
  8
0
 10
246.09778523439991
 20
68.00099313260003
 30
0.0
 11
245.91878131030001
 21
68.00099313260003
 31
0.0
  0
POLYLINE
  5
16D29
  8
0
 66
     1
 10
0.0
 20
0.0
 30
0.0
 70
   128
  0
VERTEX
  5
17929
  8
0
 10
266.98265112929988
 20
68.533495441100015
 30
0.0
  0
VERTEX
  5
1792A
  8
0
 10
267.0523066072999
 20
70.196509733800013
 30
0.0
  0
VERTEX
  5
1792B
  8
0
 10
267.07314960659988
 20
72.000997513600026
 30
0.0
  0
SEQEND
  5
1792C
  8
0
  0
POLYLINE
  5
16D2A
  8
0
 66
     1
 10
0.0
 20
0.0
 30
0.0
 70
   128
  0
VERTEX
  5
1792D
  8
0
 10
266.98265112929988
 20
68.533495441100015
 30
0.0
  0
VERTEX
  5
1792E
  8
0
 10
266.95069931450001
 20
68.250637874100022
 30
0.0
  0
VERTEX
  5
1792F
  8
0
 10
266.7314026505
 20
66.815002262600032
 30
0.0
  0
VERTEX
  5
17930
  8
0
 10
266.55088253319991
 20
66.207291931000029
 30
0.0
  0
VERTEX
  5
17931
  8
0
 10
266.30558706819988
 20
65.742541477100033
 30
0.0
  0
VERTEX
  5
17932
  8
0
 10
266.01583771409992
 20
65.459480881700031
 30
0.0
  0
VERTEX
  5
17933
  8
0
 10
265.61147980390001
 20
65.290771797400026
 30
0.0
  0
VERTEX
  5
17934
  8
0
 10
265.02119265490001
 20
65.237710625000034
 30
0.0
  0
VERTEX
  5
17935
  8
0
 10
264.65941108760001
 20
65.244889259400026
 30
0.0
  0
VERTEX
  5
17936
  8
0
 10
264.21543844040002
 20
65.262958780000034
 30
0.0
  0
VERTEX
  5
17937
  8
0
 10
263.77909891309992
 20
65.280735865300031
 30
0.0
  0
VERTEX
  5
17938
  8
0
 10
263.30932863049998
 20
65.299520641600026
 30
0.0
  0
VERTEX
  5
17939
  8
0
 10
262.66429834069987
 20
65.34153446560002
 30
0.0
  0
VERTEX
  5
1793A
  8
0
 10
262.12754733859992
 20
65.422691777400033
 30
0.0
  0
VERTEX
  5
1793B
  8
0
 10
261.67522631579988
 20
65.561199933300031
 30
0.0
  0
VERTEX
  5
1793C
  8
0
 10
261.07124872499992
 20
65.937463566700032
 30
0.0
  0
VERTEX
  5
1793D
  8
0
 10
260.59000827369999
 20
66.535812243900025
 30
0.0
  0
VERTEX
  5
1793E
  8
0
 10
260.2339785545999
 20
67.334533110300029
 30
0.0
  0
VERTEX
  5
1793F
  8
0
 10
259.956504032
 20
68.394340947300023
 30
0.0
  0
VERTEX
  5
17940
  8
0
 10
259.8240029067
 20
69.193845987400024
 30
0.0
  0
VERTEX
  5
17941
  8
0
 10
259.72560308869993
 20
70.098339021300035
 30
0.0
  0
VERTEX
  5
17942
  8
0
 10
259.7106199710999
 20
70.358427614000021
 30
0.0
  0
SEQEND
  5
17943
  8
0
  0
LINE
  5
16D2B
  8
0
 10
245.91878131030001
 20
68.00099313260003
 30
0.0
 11
249.1102281958
 21
64.874364435700031
 31
0.0
  0
LINE
  5
16D2C
  8
0
 10
257.5218033045
 20
64.533669874100028
 30
0.0
 11
296.78875468669997
 21
63.027667254300027
 31
0.0
  0
LINE
  5
16D2D
  8
0
 10
281.4668778329999
 20
282.42846559729998
 30
0.0
 11
286.44506413874012
 21
282.63187026648609
 31
0.0
  0
LINE
  5
16D2E
  8
0
 10
287.14103762764699
 20
282.66020415999452
 30
0.0
 11
295.0329136103
 21
282.97337638210001
 31
0.0
  0
ARC
  5
16D32
  8
0
 10
295.71557279866738
 20
274.05784342984538
 30
0.0
 40
9.2883113773118051
 50
359.63703250110888
 51
12.49687586046382
  0
LINE
  5
16D33
  8
0
 10
304.78382371359999
 20
276.06770750129999
 30
0.0
 11
304.36710529030012
 21
277.42786034929998
 31
0.0
  0
ARC
  5
16D34
  8
0
 10
296.26519059897788
 20
274.22291875136261
 30
0.0
 40
8.7127878610494438
 50
21.582676135386802
 51
39.363647771604498
  0
ARC
  5
16D35
  8
0
 10
296.2356300549277
 20
274.18680529364718
 30
0.0
 40
8.7585515918649133
 50
39.423649107192652
 51
55.886441266389319
  0
ARC
  5
16D36
  8
0
 10
296.06614535851139
 20
273.93376150847519
 30
0.0
 40
9.0631066145278645
 50
55.896522942837699
 51
76.193654492580862
  0
ARC
  5
16D37
  8
0
 10
295.89473934729619
 20
272.98279863082519
 30
0.0
 40
10.027681058211639
 50
76.539253557586022
 51
94.930349259614047
  0
LINE
  5
16DDC
  8
0
 10
252.64274217190001
 20
266.75117462869991
 30
0.0
 11
249.1124726831091
 21
266.8944632633835
 31
0.0
  0
LINE
  5
16DDD
  8
0
 10
280.07323928179989
 20
265.62572252000001
 30
0.0
 11
275.81816054879988
 21
265.79622114069991
 31
0.0
  0
ARC
  5
16DDE
  8
0
 10
295.71557279866738
 20
273.94016172175452
 30
0.0
 40
9.2883113773118051
 50
347.50312413953742
 51
0.3629674988914432
  0
LINE
  5
16DDF
  8
0
 10
304.78382371359999
 20
271.93029765030002
 30
0.0
 11
304.36710529030012
 21
270.57014480229998
 31
0.0
  0
ARC
  5
16DE0
  8
0
 10
296.26519059897788
 20
273.77508640023729
 30
0.0
 40
8.7127878610494438
 50
320.63635222839542
 51
338.41732386461069
  0
ARC
  5
16DE1
  8
0
 10
296.2356300549277
 20
273.81119985795272
 30
0.0
 40
8.7585515918649133
 50
304.11355873361038
 51
320.57635089280831
  0
ARC
  5
16DE2
  8
0
 10
296.06614535851139
 20
274.06424364312483
 30
0.0
 40
9.0631066145278645
 50
283.80634550741922
 51
304.10347705716242
  0
ARC
  5
16DE3
  8
0
 10
295.89473934729619
 20
275.01520652077483
 30
0.0
 40
10.027681058211639
 50
265.06965074038601
 51
283.46074644241401
  0
POLYLINE
  5
16DE4
  8
0
 66
     1
 10
0.0
 20
0.0
 30
0.0
 70
   128
  0
VERTEX
  5
17944
  8
0
 10
257.71069414909988
 20
267.5260438583
 30
0.0
  0
VERTEX
  5
17945
  8
0
 10
255.3449783474
 20
267.622330971
 30
0.0
  0
VERTEX
  5
17946
  8
0
 10
252.54023149610001
 20
267.73625221100002
 30
0.0
  0
SEQEND
  5
17947
  8
0
  0
POLYLINE
  5
16DE5
  8
0
 66
     1
 10
0.0
 20
0.0
 30
0.0
 70
   128
  0
VERTEX
  5
17948
  8
0
 10
298.78781251610002
 20
267.83015094690001
 30
0.0
  0
VERTEX
  5
17949
  8
0
 10
298.48590008909991
 20
267.67911184569988
 30
0.0
  0
VERTEX
  5
1794A
  8
0
 10
298.21608476339998
 20
267.48904660340003
 30
0.0
  0
VERTEX
  5
1794B
  8
0
 10
298.00402633840002
 20
267.27439118539991
 30
0.0
  0
VERTEX
  5
1794C
  8
0
 10
297.88884036239989
 20
267.07806745539989
 30
0.0
  0
VERTEX
  5
1794D
  8
0
 10
297.86569140850003
 20
266.89613033079991
 30
0.0
  0
VERTEX
  5
1794E
  8
0
 10
297.95208089049987
 20
266.76437286649991
 30
0.0
  0
VERTEX
  5
1794F
  8
0
 10
298.12531433999999
 20
266.69483659780002
 30
0.0
  0
VERTEX
  5
17950
  8
0
 10
298.3858313410999
 20
266.68854877349997
 30
0.0
  0
VERTEX
  5
17951
  8
0
 10
298.68274442849997
 20
266.75289897239998
 30
0.0
  0
VERTEX
  5
17952
  8
0
 10
298.78185205160003
 20
266.7869602328999
 30
0.0
  0
VERTEX
  5
17953
  8
0
 10
299.09184090790001
 20
266.9324304907999
 30
0.0
  0
VERTEX
  5
17954
  8
0
 10
299.36643205579998
 20
267.12464615699992
 30
0.0
  0
VERTEX
  5
17955
  8
0
 10
299.56678561859991
 20
267.33144214369997
 30
0.0
  0
VERTEX
  5
17956
  8
0
 10
299.6889378875
 20
267.55113182579998
 30
0.0
  0
VERTEX
  5
17957
  8
0
 10
299.69943575560001
 20
267.72695947429997
 30
0.0
  0
VERTEX
  5
17958
  8
0
 10
299.61580298839999
 20
267.85851437589997
 30
0.0
  0
VERTEX
  5
17959
  8
0
 10
299.43170659239991
 20
267.93503556389987
 30
0.0
  0
VERTEX
  5
1795A
  8
0
 10
299.18261878189992
 20
267.93573033059999
 30
0.0
  0
VERTEX
  5
1795B
  8
0
 10
298.87765906750002
 20
267.86357052620002
 30
0.0
  0
VERTEX
  5
1795C
  8
0
 10
298.78781251610002
 20
267.83015094690001
 30
0.0
  0
SEQEND
  5
1795D
  8
0
  0
POLYLINE
  5
16DE6
  8
0
 66
     1
 10
0.0
 20
0.0
 30
0.0
 70
   128
  0
VERTEX
  5
1795E
  8
0
 10
289.74399976429987
 20
268.95727198560002
 30
0.0
  0
VERTEX
  5
1795F
  8
0
 10
289.35477398329999
 20
268.91335826359989
 30
0.0
  0
VERTEX
  5
17960
  8
0
 10
289.0698637813
 20
268.79100389770002
 30
0.0
  0
VERTEX
  5
17961
  8
0
 10
288.86364661160002
 20
268.60448978829987
 30
0.0
  0
VERTEX
  5
17962
  8
0
 10
288.76413665709993
 20
268.3985622598999
 30
0.0
  0
VERTEX
  5
17963
  8
0
 10
288.76513503489991
 20
268.16655304279988
 30
0.0
  0
VERTEX
  5
17964
  8
0
 10
288.88025395570003
 20
267.95921269799987
 30
0.0
  0
VERTEX
  5
17965
  8
0
 10
289.08707462249993
 20
267.79163796450001
 30
0.0
  0
VERTEX
  5
17966
  8
0
 10
289.38433788709989
 20
267.66734085969989
 30
0.0
  0
VERTEX
  5
17967
  8
0
 10
289.7096004336999
 20
267.61201377949999
 30
0.0
  0
VERTEX
  5
17968
  8
0
 10
289.77166377010002
 20
267.6086321471999
 30
0.0
  0
VERTEX
  5
17969
  8
0
 10
290.15983156859988
 20
267.63906776900001
 30
0.0
  0
VERTEX
  5
1796A
  8
0
 10
290.44600091869989
 20
267.73890834289989
 30
0.0
  0
VERTEX
  5
1796B
  8
0
 10
290.65161459149999
 20
267.89268832649998
 30
0.0
  0
VERTEX
  5
1796C
  8
0
 10
290.75899235899999
 20
268.09983588749992
 30
0.0
  0
VERTEX
  5
1796D
  8
0
 10
290.74797295029998
 20
268.30667518069993
 30
0.0
  0
VERTEX
  5
1796E
  8
0
 10
290.63879214230002
 20
268.52385308589999
 30
0.0
  0
VERTEX
  5
1796F
  8
0
 10
290.42068384589987
 20
268.73236969110002
 30
0.0
  0
VERTEX
  5
17970
  8
0
 10
290.13319574289989
 20
268.87960713349992
 30
0.0
  0
VERTEX
  5
17971
  8
0
 10
289.79048393659991
 20
268.954437971
 30
0.0
  0
VERTEX
  5
17972
  8
0
 10
289.74399976429987
 20
268.95727198560002
 30
0.0
  0
SEQEND
  5
17973
  8
0
  0
POLYLINE
  5
16DE7
  8
0
 66
     1
 10
0.0
 20
0.0
 30
0.0
 70
   128
  0
VERTEX
  5
17974
  8
0
 10
295.83605639629991
 20
265.72609441349988
 30
0.0
  0
VERTEX
  5
17975
  8
0
 10
295.50638310609997
 20
265.68600982419991
 30
0.0
  0
VERTEX
  5
17976
  8
0
 10
295.20923905069998
 20
265.62870182089989
 30
0.0
  0
VERTEX
  5
17977
  8
0
 10
294.96999345720002
 20
265.5577303840999
 30
0.0
  0
VERTEX
  5
17978
  8
0
 10
294.83576379710001
 20
265.48626348369987
 30
0.0
  0
VERTEX
  5
17979
  8
0
 10
294.79958377780002
 20
265.410610754
 30
0.0
  0
VERTEX
  5
1797A
  8
0
 10
294.88346241409999
 20
265.3393296523999
 30
0.0
  0
VERTEX
  5
1797B
  8
0
 10
295.0698759407
 20
265.28150895599993
 30
0.0
  0
VERTEX
  5
1797C
  8
0
 10
295.350889489
 20
265.24098478249988
 30
0.0
  0
VERTEX
  5
1797D
  8
0
 10
295.65980546169999
 20
265.22904057049988
 30
0.0
  0
VERTEX
  5
1797E
  8
0
 10
295.75965814289998
 20
265.23086782540003
 30
0.0
  0
VERTEX
  5
1797F
  8
0
 10
296.09201364220002
 20
265.2567851355999
 30
0.0
  0
VERTEX
  5
17980
  8
0
 10
296.39034233989992
 20
265.31310593699988
 30
0.0
  0
VERTEX
  5
17981
  8
0
 10
296.61013446750002
 20
265.38812071080002
 30
0.0
  0
VERTEX
  5
17982
  8
0
 10
296.75933234389993
 20
265.48359943550003
 30
0.0
  0
VERTEX
  5
17983
  8
0
 10
296.7942606658001
 20
265.57840714219992
 30
0.0
  0
VERTEX
  5
17984
  8
0
 10
296.71376459299989
 20
265.6605530528999
 30
0.0
  0
VERTEX
  5
17985
  8
0
 10
296.52024321260001
 20
265.71665219959988
 30
0.0
  0
VERTEX
  5
17986
  8
0
 10
296.26433067020002
 20
265.73887541879992
 30
0.0
  0
VERTEX
  5
17987
  8
0
 10
295.94254754479999
 20
265.73373684649988
 30
0.0
  0
VERTEX
  5
17988
  8
0
 10
295.88952921330002
 20
265.73027139519991
 30
0.0
  0
VERTEX
  5
17989
  8
0
 10
295.83605639629991
 20
265.72609441349988
 30
0.0
  0
SEQEND
  5
1798A
  8
0
  0
POLYLINE
  5
16DE8
  8
0
 66
     1
 10
0.0
 20
0.0
 30
0.0
 70
   128
  0
VERTEX
  5
1798B
  8
0
 10
295.78496776520001
 20
269.09427139899992
 30
0.0
  0
VERTEX
  5
1798C
  8
0
 10
295.4579617828
 20
268.9914757384999
 30
0.0
  0
VERTEX
  5
1798D
  8
0
 10
295.17238102850001
 20
268.82021669289998
 30
0.0
  0
VERTEX
  5
1798E
  8
0
 10
294.95644085110001
 20
268.5934256761999
 30
0.0
  0
VERTEX
  5
1798F
  8
0
 10
294.84705887730001
 20
268.35743878030001
 30
0.0
  0
VERTEX
  5
17990
  8
0
 10
294.83982436359997
 20
268.10915283849999
 30
0.0
  0
VERTEX
  5
17991
  8
0
 10
294.95015256099998
 20
267.89683923119992
 30
0.0
  0
VERTEX
  5
17992
  8
0
 10
295.15191428360009
 20
267.7429893984999
 30
0.0
  0
VERTEX
  5
17993
  8
0
 10
295.4438131302
 20
267.65015050760002
 30
0.0
  0
VERTEX
  5
17994
  8
0
 10
295.7648586482
 20
267.64169968660002
 30
0.0
  0
VERTEX
  5
17995
  8
0
 10
295.86599282920002
 20
267.65449605869992
 30
0.0
  0
VERTEX
  5
17996
  8
0
 10
296.19429521260003
 20
267.74595659219989
 30
0.0
  0
VERTEX
  5
17997
  8
0
 10
296.48120217019999
 20
267.90944840749989
 30
0.0
  0
VERTEX
  5
17998
  8
0
 10
296.68710641559989
 20
268.11604648819991
 30
0.0
  0
VERTEX
  5
17999
  8
0
 10
296.81105427440002
 20
268.36984865359989
 30
0.0
  0
VERTEX
  5
1799A
  8
0
 10
296.81580774479988
 20
268.61617974929987
 30
0.0
  0
VERTEX
  5
1799B
  8
0
 10
296.71091847119988
 20
268.8375951722
 30
0.0
  0
VERTEX
  5
1799C
  8
0
 10
296.49818949399992
 20
269.00965049860002
 30
0.0
  0
VERTEX
  5
1799D
  8
0
 10
296.22696600850003
 20
269.09781880669988
 30
0.0
  0
VERTEX
  5
1799E
  8
0
 10
295.8980824798
 20
269.10995393979988
 30
0.0
  0
VERTEX
  5
1799F
  8
0
 10
295.78496776520001
 20
269.09427139899992
 30
0.0
  0
SEQEND
  5
179A0
  8
0
  0
POLYLINE
  5
16DE9
  8
0
 66
     1
 10
0.0
 20
0.0
 30
0.0
 70
   128
  0
VERTEX
  5
179A1
  8
0
 10
280.7283874600999
 20
267.5211818887999
 30
0.0
  0
VERTEX
  5
179A2
  8
0
 10
280.3980957716999
 20
267.50991521399999
 30
0.0
  0
VERTEX
  5
179A3
  8
0
 10
280.1053252070999
 20
267.44276499369988
 30
0.0
  0
VERTEX
  5
179A4
  8
0
 10
279.8790212720001
 20
267.3255492001
 30
0.0
  0
VERTEX
  5
179A5
  8
0
 10
279.76069115099989
 20
267.18832766629998
 30
0.0
  0
VERTEX
  5
179A6
  8
0
 10
279.74443770940002
 20
267.032366991
 30
0.0
  0
VERTEX
  5
179A7
  8
0
 10
279.8455532640001
 20
266.88978569570003
 30
0.0
  0
VERTEX
  5
179A8
  8
0
 10
280.03819175059988
 20
266.77423091600002
 30
0.0
  0
VERTEX
  5
179A9
  8
0
 10
280.32173849639997
 20
266.68393034479999
 30
0.0
  0
VERTEX
  5
179AA
  8
0
 10
280.6401688604999
 20
266.63655396539991
 30
0.0
  0
VERTEX
  5
179AB
  8
0
 10
280.74597828089998
 20
266.62966264399989
 30
0.0
  0
VERTEX
  5
179AC
  8
0
 10
281.07834123069989
 20
266.63466524329999
 30
0.0
  0
VERTEX
  5
179AD
  8
0
 10
281.3714507967
 20
266.6832439600999
 30
0.0
  0
VERTEX
  5
179AE
  8
0
 10
281.58674277360001
 20
266.76843529559989
 30
0.0
  0
VERTEX
  5
179AF
  8
0
 10
281.71655051409988
 20
266.89493125299998
 30
0.0
  0
VERTEX
  5
179B0
  8
0
 10
281.72612078489999
 20
267.0362832024
 30
0.0
  0
VERTEX
  5
179B1
  8
0
 10
281.63170702749989
 20
267.18681938939989
 30
0.0
  0
VERTEX
  5
179B2
  8
0
 10
281.42933063209989
 20
267.33449036249999
 30
0.0
  0
VERTEX
  5
179B3
  8
0
 10
281.1638738960001
 20
267.44299922129989
 30
0.0
  0
VERTEX
  5
179B4
  8
0
 10
280.83756454289988
 20
267.51158740359989
 30
0.0
  0
VERTEX
  5
179B5
  8
0
 10
280.7283874600999
 20
267.5211818887999
 30
0.0
  0
SEQEND
  5
179B6
  8
0
  0
POLYLINE
  5
16DEA
  8
0
 66
     1
 10
0.0
 20
0.0
 30
0.0
 70
   128
  0
VERTEX
  5
179B7
  8
0
 10
292.81790070229999
 20
266.9417092576
 30
0.0
  0
VERTEX
  5
179B8
  8
0
 10
292.48113445939998
 20
266.92554661999998
 30
0.0
  0
VERTEX
  5
179B9
  8
0
 10
292.18304418029987
 20
266.8569109401999
 30
0.0
  0
VERTEX
  5
179BA
  8
0
 10
291.95256792009991
 20
266.74229074259989
 30
0.0
  0
VERTEX
  5
179BB
  8
0
 10
291.82973019780002
 20
266.60902546710003
 30
0.0
  0
VERTEX
  5
179BC
  8
0
 10
291.81428514420003
 20
266.46092887959992
 30
0.0
  0
VERTEX
  5
179BD
  8
0
 10
291.91807918249992
 20
266.32955465459997
 30
0.0
  0
VERTEX
  5
179BE
  8
0
 10
292.11391024289992
 20
266.22321298339989
 30
0.0
  0
VERTEX
  5
179BF
  8
0
 10
292.40181557829999
 20
266.14034296940002
 30
0.0
  0
VERTEX
  5
179C0
  8
0
 10
292.7219670266
 20
266.09744718289988
 30
0.0
  0
VERTEX
  5
179C1
  8
0
 10
292.82594732939992
 20
266.09137728799988
 30
0.0
  0
VERTEX
  5
179C2
  8
0
 10
293.16409192980001
 20
266.09686743459997
 30
0.0
  0
VERTEX
  5
179C3
  8
0
 10
293.4622567147
 20
266.14462984719989
 30
0.0
  0
VERTEX
  5
179C4
  8
0
 10
293.68169866499989
 20
266.22862443319991
 30
0.0
  0
VERTEX
  5
179C5
  8
0
 10
293.81459467109988
 20
266.35311385609998
 30
0.0
  0
VERTEX
  5
179C6
  8
0
 10
293.82661990819997
 20
266.4931340142
 30
0.0
  0
VERTEX
  5
179C7
  8
0
 10
293.72900240119998
 20
266.64211116719991
 30
0.0
  0
VERTEX
  5
179C8
  8
0
 10
293.5221519320998
 20
266.77999021479991
 30
0.0
  0
VERTEX
  5
179C9
  8
0
 10
293.25855039060002
 20
266.8755378573
 30
0.0
  0
VERTEX
  5
179CA
  8
0
 10
292.93201379480001
 20
266.93413713939992
 30
0.0
  0
VERTEX
  5
179CB
  8
0
 10
292.81790070229999
 20
266.9417092576
 30
0.0
  0
SEQEND
  5
179CC
  8
0
  0
POLYLINE
  5
16DEB
  8
0
 66
     1
 10
0.0
 20
0.0
 30
0.0
 70
   128
  0
VERTEX
  5
179CD
  8
0
 10
289.7855963557999
 20
265.91689679759997
 30
0.0
  0
VERTEX
  5
179CE
  8
0
 10
289.45351652799991
 20
265.91629376629999
 30
0.0
  0
VERTEX
  5
179CF
  8
0
 10
289.15947191419991
 20
265.88655989609993
 30
0.0
  0
VERTEX
  5
179D0
  8
0
 10
288.92828039819989
 20
265.83112990479992
 30
0.0
  0
VERTEX
  5
179D1
  8
0
 10
288.80270831280001
 20
265.76381763440003
 30
0.0
  0
VERTEX
  5
179D2
  8
0
 10
288.78614567219989
 20
265.68876979869992
 30
0.0
  0
VERTEX
  5
179D3
  8
0
 10
288.8889264314999
 20
265.62185054640003
 30
0.0
  0
VERTEX
  5
179D4
  8
0
 10
289.08149413759998
 20
265.56701753279992
 30
0.0
  0
VERTEX
  5
179D5
  8
0
 10
289.3654357641999
 20
265.52184419699989
 30
0.0
  0
VERTEX
  5
179D6
  8
0
 10
289.6810349077
 20
265.49469381559987
 30
0.0
  0
VERTEX
  5
179D7
  8
0
 10
289.77807126940002
 20
265.48967910919998
 30
0.0
  0
VERTEX
  5
179D8
  8
0
 10
290.11252038179998
 20
265.4835198074
 30
0.0
  0
VERTEX
  5
179D9
  8
0
 10
290.40792845189998
 20
265.49738580349992
 30
0.0
  0
VERTEX
  5
179DA
  8
0
 10
290.62486700710002
 20
265.53022935979988
 30
0.0
  0
VERTEX
  5
179DB
  8
0
 10
290.75914137059999
 20
265.58601092539988
 30
0.0
  0
VERTEX
  5
179DC
  8
0
 10
290.77365510160001
 20
265.65584242339992
 30
0.0
  0
VERTEX
  5
179DD
  8
0
 10
290.6775500624999
 20
265.73518970970002
 30
0.0
  0
VERTEX
  5
179DE
  8
0
 10
290.47295711930002
 20
265.81317959350002
 30
0.0
  0
VERTEX
  5
179DF
  8
0
 10
290.2141537517
 20
265.87069807569992
 30
0.0
  0
VERTEX
  5
179E0
  8
0
 10
289.89336155349997
 20
265.91028021639988
 30
0.0
  0
VERTEX
  5
179E1
  8
0
 10
289.7855963557999
 20
265.91689679759997
 30
0.0
  0
SEQEND
  5
179E2
  8
0
  0
POLYLINE
  5
16DEC
  8
0
 66
     1
 10
0.0
 20
0.0
 30
0.0
 70
   128
  0
VERTEX
  5
179E3
  8
0
 10
271.76093570889998
 20
266.68880768109989
 30
0.0
  0
VERTEX
  5
179E4
  8
0
 10
271.43176533280001
 20
266.6844774967999
 30
0.0
  0
VERTEX
  5
179E5
  8
0
 10
271.1413715034999
 20
266.6451971045999
 30
0.0
  0
VERTEX
  5
179E6
  8
0
 10
270.9173176436999
 20
266.57549180079991
 30
0.0
  0
VERTEX
  5
179E7
  8
0
 10
270.8008538931
 20
266.49424042549992
 30
0.0
  0
VERTEX
  5
179E8
  8
0
 10
270.78794948749999
 20
266.40410702669999
 30
0.0
  0
VERTEX
  5
179E9
  8
0
 10
270.89238055049998
 20
266.32366077969988
 30
0.0
  0
VERTEX
  5
179EA
  8
0
 10
271.08826376500002
 20
266.2592281586999
 30
0.0
  0
VERTEX
  5
179EB
  8
0
 10
271.37403823429997
 20
266.20858050880003
 30
0.0
  0
VERTEX
  5
179EC
  8
0
 10
271.6919060795999
 20
266.17988413189988
 30
0.0
  0
VERTEX
  5
179ED
  8
0
 10
271.7948880045999
 20
266.17482844729989
 30
0.0
  0
VERTEX
  5
179EE
  8
0
 10
272.12566398080003
 20
266.17169501249998
 30
0.0
  0
VERTEX
  5
179EF
  8
0
 10
272.41647876799988
 20
266.19161553669989
 30
0.0
  0
VERTEX
  5
179F0
  8
0
 10
272.62814603739997
 20
266.23298348849988
 30
0.0
  0
VERTEX
  5
179F1
  8
0
 10
272.75672443209999
 20
266.30083266640003
 30
0.0
  0
VERTEX
  5
179F2
  8
0
 10
272.76535220440002
 20
266.38280535109988
 30
0.0
  0
VERTEX
  5
179F3
  8
0
 10
272.66806624830002
 20
266.47428730500002
 30
0.0
  0
VERTEX
  5
179F4
  8
0
 10
272.46263511479992
 20
266.56660046419989
 30
0.0
  0
VERTEX
  5
179F5
  8
0
 10
272.19634763889991
 20
266.63610599930001
 30
0.0
  0
VERTEX
  5
179F6
  8
0
 10
271.87070883809997
 20
266.68179156249988
 30
0.0
  0
VERTEX
  5
179F7
  8
0
 10
271.81598059829997
 20
266.68580742549989
 30
0.0
  0
VERTEX
  5
179F8
  8
0
 10
271.76093570889998
 20
266.68880768109989
 30
0.0
  0
SEQEND
  5
179F9
  8
0
  0
POLYLINE
  5
16DED
  8
0
 66
     1
 10
0.0
 20
0.0
 30
0.0
 70
   128
  0
VERTEX
  5
179FA
  8
0
 10
274.73419420419998
 20
267.87038128819989
 30
0.0
  0
VERTEX
  5
179FB
  8
0
 10
274.40504245459988
 20
267.85720679899998
 30
0.0
  0
VERTEX
  5
179FC
  8
0
 10
274.1129461676
 20
267.78529193249989
 30
0.0
  0
VERTEX
  5
179FD
  8
0
 10
273.88552092009991
 20
267.66032520670001
 30
0.0
  0
VERTEX
  5
179FE
  8
0
 10
273.76546971499999
 20
267.51383142539999
 30
0.0
  0
VERTEX
  5
179FF
  8
0
 10
273.7474355846
 20
267.3472681081999
 30
0.0
  0
VERTEX
  5
17A00
  8
0
 10
273.84729199110001
 20
267.19459593289992
 30
0.0
  0
VERTEX
  5
17A01
  8
0
 10
274.03917796909991
 20
267.0709568074999
 30
0.0
  0
VERTEX
  5
17A02
  8
0
 10
274.32202436030002
 20
266.97449414049993
 30
0.0
  0
VERTEX
  5
17A03
  8
0
 10
274.6401604264999
 20
266.9240723362999
 30
0.0
  0
VERTEX
  5
17A04
  8
0
 10
274.74634237589999
 20
266.9168131424999
 30
0.0
  0
VERTEX
  5
17A05
  8
0
 10
275.07742010060002
 20
266.9227419419999
 30
0.0
  0
VERTEX
  5
17A06
  8
0
 10
275.36980323490002
 20
266.9753947294999
 30
0.0
  0
VERTEX
  5
17A07
  8
0
 10
275.5844842642
 20
267.0668366363999
 30
0.0
  0
VERTEX
  5
17A08
  8
0
 10
275.71606896819992
 20
267.20241950819991
 30
0.0
  0
VERTEX
  5
17A09
  8
0
 10
275.72842948139998
 20
267.3547415061999
 30
0.0
  0
VERTEX
  5
17A0A
  8
0
 10
275.6358820945
 20
267.51638464619998
 30
0.0
  0
VERTEX
  5
17A0B
  8
0
 10
275.43482817709992
 20
267.67376326020002
 30
0.0
  0
VERTEX
  5
17A0C
  8
0
 10
275.1705300063
 20
267.78847798700002
 30
0.0
  0
VERTEX
  5
17A0D
  8
0
 10
274.84517060219991
 20
267.86039192219988
 30
0.0
  0
VERTEX
  5
17A0E
  8
0
 10
274.73419420419998
 20
267.87038128819989
 30
0.0
  0
SEQEND
  5
17A0F
  8
0
  0
POLYLINE
  5
16DEE
  8
0
 66
     1
 10
0.0
 20
0.0
 30
0.0
 70
   128
  0
VERTEX
  5
17A10
  8
0
 10
280.80543391399999
 20
265.69319730619998
 30
0.0
  0
VERTEX
  5
17A11
  8
0
 10
280.47614805400002
 20
265.69870328519988
 30
0.0
  0
VERTEX
  5
17A12
  8
0
 10
280.18676750359998
 20
265.69289602329991
 30
0.0
  0
VERTEX
  5
17A13
  8
0
 10
279.96392436320002
 20
265.67851873109998
 30
0.0
  0
VERTEX
  5
17A14
  8
0
 10
279.84792627389987
 20
265.66182617089999
 30
0.0
  0
VERTEX
  5
17A15
  8
0
 10
279.83771897849999
 20
265.64542232069988
 30
0.0
  0
VERTEX
  5
17A16
  8
0
 10
279.94535751640001
 20
265.6324294394999
 30
0.0
  0
VERTEX
  5
17A17
  8
0
 10
280.14401234680003
 20
265.62201119949998
 30
0.0
  0
VERTEX
  5
17A18
  8
0
 10
280.43207414449989
 20
265.61102904369989
 30
0.0
  0
VERTEX
  5
17A19
  8
0
 10
280.7460453361
 20
265.59904804449991
 30
0.0
  0
VERTEX
  5
17A1A
  8
0
 10
280.84345422679991
 20
265.59511972579992
 30
0.0
  0
VERTEX
  5
17A1B
  8
0
 10
281.17435686289991
 20
265.58121647679991
 30
0.0
  0
VERTEX
  5
17A1C
  8
0
 10
281.46446011960001
 20
265.56959822769988
 30
0.0
  0
VERTEX
  5
17A1D
  8
0
 10
281.67503587900001
 20
265.56450203050002
 30
0.0
  0
VERTEX
  5
17A1E
  8
0
 10
281.80234767489992
 20
265.56924572209988
 30
0.0
  0
VERTEX
  5
17A1F
  8
0
 10
281.8101447075
 20
265.58510335160003
 30
0.0
  0
VERTEX
  5
17A20
  8
0
 10
281.70886896550002
 20
265.61042275269989
 30
0.0
  0
VERTEX
  5
17A21
  8
0
 10
281.49956353009998
 20
265.64121646799993
 30
0.0
  0
VERTEX
  5
17A22
  8
0
 10
281.2350008636999
 20
265.66773727529988
 30
0.0
  0
VERTEX
  5
17A23
  8
0
 10
280.91173879799999
 20
265.68880937989991
 30
0.0
  0
VERTEX
  5
17A24
  8
0
 10
280.85871301589998
 20
265.69115491579998
 30
0.0
  0
VERTEX
  5
17A25
  8
0
 10
280.80543391399999
 20
265.69319730619998
 30
0.0
  0
SEQEND
  5
17A26
  8
0
  0
POLYLINE
  5
16DEF
  8
0
 66
     1
 10
0.0
 20
0.0
 30
0.0
 70
   128
  0
VERTEX
  5
17A27
  8
0
 10
277.75719650089991
 20
266.42377981909999
 30
0.0
  0
VERTEX
  5
17A28
  8
0
 10
277.42679677899991
 20
266.42029155040001
 30
0.0
  0
VERTEX
  5
17A29
  8
0
 10
277.13554240759998
 20
266.38372875739992
 30
0.0
  0
VERTEX
  5
17A2A
  8
0
 10
276.91214047369999
 20
266.31847145030002
 30
0.0
  0
VERTEX
  5
17A2B
  8
0
 10
276.79641060530003
 20
266.24217191700001
 30
0.0
  0
VERTEX
  5
17A2C
  8
0
 10
276.78439281879992
 20
266.15721853439987
 30
0.0
  0
VERTEX
  5
17A2D
  8
0
 10
276.88974775369991
 20
266.08132040119989
 30
0.0
  0
VERTEX
  5
17A2E
  8
0
 10
277.08651758729991
 20
266.02043285959991
 30
0.0
  0
VERTEX
  5
17A2F
  8
0
 10
277.37277261909998
 20
265.97270583729988
 30
0.0
  0
VERTEX
  5
17A30
  8
0
 10
277.68926955760003
 20
265.94593729819991
 30
0.0
  0
VERTEX
  5
17A31
  8
0
 10
277.78971828520002
 20
265.94133656459991
 30
0.0
  0
VERTEX
  5
17A32
  8
0
 10
278.12086679039999
 20
265.93859288829992
 30
0.0
  0
VERTEX
  5
17A33
  8
0
 10
278.41186784209992
 20
265.9576663746999
 30
0.0
  0
VERTEX
  5
17A34
  8
0
 10
278.62365432079991
 20
265.99686574179998
 30
0.0
  0
VERTEX
  5
17A35
  8
0
 10
278.7520874290999
 20
266.06069533149991
 30
0.0
  0
VERTEX
  5
17A36
  8
0
 10
278.7606220692
 20
266.13783258939998
 30
0.0
  0
VERTEX
  5
17A37
  8
0
 10
278.66212911899993
 20
266.22392591079989
 30
0.0
  0
VERTEX
  5
17A38
  8
0
 10
278.45572941
 20
266.3099722005
 30
0.0
  0
VERTEX
  5
17A39
  8
0
 10
278.19115556769998
 20
266.3742609320999
 30
0.0
  0
VERTEX
  5
17A3A
  8
0
 10
277.86707766349991
 20
266.41703145569988
 30
0.0
  0
VERTEX
  5
17A3B
  8
0
 10
277.75719650089991
 20
266.42377981909999
 30
0.0
  0
SEQEND
  5
17A3C
  8
0
  0
POLYLINE
  5
16DF0
  8
0
 66
     1
 10
0.0
 20
0.0
 30
0.0
 70
   128
  0
VERTEX
  5
17A3D
  8
0
 10
265.79886563119999
 20
270.5264825372999
 30
0.0
  0
VERTEX
  5
17A3E
  8
0
 10
265.47227315600003
 20
270.50035987040002
 30
0.0
  0
VERTEX
  5
17A3F
  8
0
 10
265.17902202900001
 20
270.3874872996999
 30
0.0
  0
VERTEX
  5
17A40
  8
0
 10
264.94328193360002
 20
270.19292190660002
 30
0.0
  0
VERTEX
  5
17A41
  8
0
 10
264.81223367149988
 20
269.96153853829992
 30
0.0
  0
VERTEX
  5
17A42
  8
0
 10
264.78282622989991
 20
269.69785224639998
 30
0.0
  0
VERTEX
  5
17A43
  8
0
 10
264.8716893047
 20
269.45277098560001
 30
0.0
  0
VERTEX
  5
17A44
  8
0
 10
265.05425833160001
 20
269.25241742279991
 30
0.0
  0
VERTEX
  5
17A45
  8
0
 10
265.3305072336999
 20
269.09549608819998
 30
0.0
  0
VERTEX
  5
17A46
  8
0
 10
265.64573384819988
 20
269.01582516719998
 30
0.0
  0
VERTEX
  5
17A47
  8
0
 10
265.75797684489999
 20
269.0050804986999
 30
0.0
  0
VERTEX
  5
17A48
  8
0
 10
266.0879630595
 20
269.02250647539989
 30
0.0
  0
VERTEX
  5
17A49
  8
0
 10
266.38206355269989
 20
269.11748461420001
 30
0.0
  0
VERTEX
  5
17A4A
  8
0
 10
266.60011596980002
 20
269.27277520289999
 30
0.0
  0
VERTEX
  5
17A4B
  8
0
 10
266.74132309849989
 20
269.49700415130002
 30
0.0
  0
VERTEX
  5
17A4C
  8
0
 10
266.76472537220002
 20
269.74454224099998
 30
0.0
  0
VERTEX
  5
17A4D
  8
0
 10
266.68264605100001
 20
269.99775767319989
 30
0.0
  0
VERTEX
  5
17A4E
  8
0
 10
266.49237684899998
 20
270.2372472733
 30
0.0
  0
VERTEX
  5
17A4F
  8
0
 10
266.2353280932
 20
270.4085556789999
 30
0.0
  0
VERTEX
  5
17A50
  8
0
 10
265.91355241830001
 20
270.51287870850001
 30
0.0
  0
VERTEX
  5
17A51
  8
0
 10
265.85647724569992
 20
270.5211274324999
 30
0.0
  0
VERTEX
  5
17A52
  8
0
 10
265.79886563119999
 20
270.5264825372999
 30
0.0
  0
SEQEND
  5
17A53
  8
0
  0
POLYLINE
  5
16DF1
  8
0
 66
     1
 10
0.0
 20
0.0
 30
0.0
 70
   128
  0
VERTEX
  5
17A54
  8
0
 10
283.73644389209989
 20
269.29285731160002
 30
0.0
  0
VERTEX
  5
17A55
  8
0
 10
283.40637944640002
 20
269.26938239479989
 30
0.0
  0
VERTEX
  5
17A56
  8
0
 10
283.11126194889988
 20
269.16412338610002
 30
0.0
  0
VERTEX
  5
17A57
  8
0
 10
282.88077823819998
 20
268.98436136539999
 30
0.0
  0
VERTEX
  5
17A58
  8
0
 10
282.75868557389992
 20
268.77673510450001
 30
0.0
  0
VERTEX
  5
17A59
  8
0
 10
282.73498527700002
 20
268.53816844519997
 30
0.0
  0
VERTEX
  5
17A5A
  8
0
 10
282.82879553729992
 20
268.31596512339991
 30
0.0
  0
VERTEX
  5
17A5B
  8
0
 10
283.01527984440003
 20
268.13570018849998
 30
0.0
  0
VERTEX
  5
17A5C
  8
0
 10
283.29407311969999
 20
267.9941335691999
 30
0.0
  0
VERTEX
  5
17A5D
  8
0
 10
283.61625485119998
 20
267.91975907969987
 30
0.0
  0
VERTEX
  5
17A5E
  8
0
 10
283.73140357429997
 20
267.9093860088999
 30
0.0
  0
VERTEX
  5
17A5F
  8
0
 10
284.0631071478
 20
267.92356912039997
 30
0.0
  0
VERTEX
  5
17A60
  8
0
 10
284.3574758618999
 20
268.00769921389991
 30
0.0
  0
VERTEX
  5
17A61
  8
0
 10
284.57464911039989
 20
268.1475857271999
 30
0.0
  0
VERTEX
  5
17A62
  8
0
 10
284.7096461802999
 20
268.35003104050003
 30
0.0
  0
VERTEX
  5
17A63
  8
0
 10
284.7249533980999
 20
268.56887973839991
 30
0.0
  0
VERTEX
  5
17A64
  8
0
 10
284.6387762576
 20
268.7962509690999
 30
0.0
  0
VERTEX
  5
17A65
  8
0
 10
284.44478921590002
 20
269.0181544049999
 30
0.0
  0
VERTEX
  5
17A66
  8
0
 10
284.1799620539
 20
269.18121781190001
 30
0.0
  0
VERTEX
  5
17A67
  8
0
 10
283.85271392760001
 20
269.27983369669988
 30
0.0
  0
VERTEX
  5
17A68
  8
0
 10
283.79483036689999
 20
269.28769871589998
 30
0.0
  0
VERTEX
  5
17A69
  8
0
 10
283.73644389209989
 20
269.29285731160002
 30
0.0
  0
SEQEND
  5
17A6A
  8
0
  0
POLYLINE
  5
16DF2
  8
0
 66
     1
 10
0.0
 20
0.0
 30
0.0
 70
   128
  0
VERTEX
  5
17A6B
  8
0
 10
277.75392942129997
 20
269.7124861179999
 30
0.0
  0
VERTEX
  5
17A6C
  8
0
 10
277.42247916759987
 20
269.69009246669998
 30
0.0
  0
VERTEX
  5
17A6D
  8
0
 10
277.12554372849991
 20
269.5828571914999
 30
0.0
  0
VERTEX
  5
17A6E
  8
0
 10
276.89480297269989
 20
269.39928978669991
 30
0.0
  0
VERTEX
  5
17A6F
  8
0
 10
276.77128724749991
 20
269.18518245209998
 30
0.0
  0
VERTEX
  5
17A70
  8
0
 10
276.74583606419992
 20
268.93897708499992
 30
0.0
  0
VERTEX
  5
17A71
  8
0
 10
276.83785818519988
 20
268.70645843439991
 30
0.0
  0
VERTEX
  5
17A72
  8
0
 10
277.02443562449997
 20
268.51619947689989
 30
0.0
  0
VERTEX
  5
17A73
  8
0
 10
277.30395533139989
 20
268.3676656335
 30
0.0
  0
VERTEX
  5
17A74
  8
0
 10
277.62132771310002
 20
268.2912142946999
 30
0.0
  0
VERTEX
  5
17A75
  8
0
 10
277.730609104
 20
268.28064750869987
 30
0.0
  0
VERTEX
  5
17A76
  8
0
 10
278.05988378820001
 20
268.2937446981
 30
0.0
  0
VERTEX
  5
17A77
  8
0
 10
278.35276238620003
 20
268.37917398650001
 30
0.0
  0
VERTEX
  5
17A78
  8
0
 10
278.5689447074999
 20
268.52154154319999
 30
0.0
  0
VERTEX
  5
17A79
  8
0
 10
278.70791293680003
 20
268.72940808529989
 30
0.0
  0
VERTEX
  5
17A7A
  8
0
 10
278.72962020339992
 20
268.96076817059998
 30
0.0
  0
VERTEX
  5
17A7B
  8
0
 10
278.64643074569989
 20
269.20080445699989
 30
0.0
  0
VERTEX
  5
17A7C
  8
0
 10
278.45472358169991
 20
269.43047512319993
 30
0.0
  0
VERTEX
  5
17A7D
  8
0
 10
278.19679565730002
 20
269.59548406300001
 30
0.0
  0
VERTEX
  5
17A7E
  8
0
 10
277.87577621640003
 20
269.69750951969991
 30
0.0
  0
VERTEX
  5
17A7F
  8
0
 10
277.81515084209991
 20
269.70651820289987
 30
0.0
  0
VERTEX
  5
17A80
  8
0
 10
277.75392942129997
 20
269.7124861179999
 30
0.0
  0
SEQEND
  5
17A81
  8
0
  0
POLYLINE
  5
16DF3
  8
0
 66
     1
 10
0.0
 20
0.0
 30
0.0
 70
   128
  0
VERTEX
  5
17A82
  8
0
 10
271.77570275959988
 20
270.12534793459997
 30
0.0
  0
VERTEX
  5
17A83
  8
0
 10
271.44379429519989
 20
270.1003698630999
 30
0.0
  0
VERTEX
  5
17A84
  8
0
 10
271.14637829359992
 20
269.98856458810002
 30
0.0
  0
VERTEX
  5
17A85
  8
0
 10
270.91471366579998
 20
269.79856826359992
 30
0.0
  0
VERTEX
  5
17A86
  8
0
 10
270.78993879260003
 20
269.57701593629997
 30
0.0
  0
VERTEX
  5
17A87
  8
0
 10
270.7641299814
 20
269.32211574159999
 30
0.0
  0
VERTEX
  5
17A88
  8
0
 10
270.85592113429988
 20
269.08390019079991
 30
0.0
  0
VERTEX
  5
17A89
  8
0
 10
271.04197703300002
 20
268.88870615499991
 30
0.0
  0
VERTEX
  5
17A8A
  8
0
 10
271.32121734319992
 20
268.7368484212999
 30
0.0
  0
VERTEX
  5
17A8B
  8
0
 10
271.63664884859998
 20
268.66036448619991
 30
0.0
  0
VERTEX
  5
17A8C
  8
0
 10
271.74371741710002
 20
268.65032855409987
 30
0.0
  0
VERTEX
  5
17A8D
  8
0
 10
272.07349129019991
 20
268.66612005969989
 30
0.0
  0
VERTEX
  5
17A8E
  8
0
 10
272.36695475869988
 20
268.75702738749999
 30
0.0
  0
VERTEX
  5
17A8F
  8
0
 10
272.58312962949992
 20
268.90602689229991
 30
0.0
  0
VERTEX
  5
17A90
  8
0
 10
272.7235134691
 20
269.12301108230002
 30
0.0
  0
VERTEX
  5
17A91
  8
0
 10
272.74640537800002
 20
269.36409790059997
 30
0.0
  0
VERTEX
  5
17A92
  8
0
 10
272.66295515000002
 20
269.61241364469993
 30
0.0
  0
VERTEX
  5
17A93
  8
0
 10
272.4711325019
 20
269.8454892261999
 30
0.0
  0
VERTEX
  5
17A94
  8
0
 10
272.21592776480003
 20
270.00976242119998
 30
0.0
  0
VERTEX
  5
17A95
  8
0
 10
271.89705781639998
 20
270.11087611310001
 30
0.0
  0
VERTEX
  5
17A96
  8
0
 10
271.83667086060001
 20
270.11965196569997
 30
0.0
  0
VERTEX
  5
17A97
  8
0
 10
271.80623151359998
 20
270.12288831170002
 30
0.0
  0
VERTEX
  5
17A98
  8
0
 10
271.77570275959988
 20
270.12534793459997
 30
0.0
  0
SEQEND
  5
17A99
  8
0
  0
ARC
  5
16DF4
  8
0
 10
274.4445929789685
 20
262.98780603095082
 30
0.0
 40
2.947671602317401
 50
82.797436977520746
 51
101.617219129039
  0
POLYLINE
  5
16DF5
  8
0
 66
     1
 10
0.0
 20
0.0
 30
0.0
 70
   128
  0
VERTEX
  5
17A9A
  8
0
 10
273.85101355609987
 20
265.87509391819992
 30
0.0
  0
VERTEX
  5
17A9B
  8
0
 10
273.95843975240001
 20
265.86705567309991
 30
0.0
  0
VERTEX
  5
17A9C
  8
0
 10
274.15668480099998
 20
265.86175598199998
 30
0.0
  0
VERTEX
  5
17A9D
  8
0
 10
274.44484718140001
 20
265.85536990309993
 30
0.0
  0
VERTEX
  5
17A9E
  8
0
 10
274.76141117510002
 20
265.84542850029987
 30
0.0
  0
VERTEX
  5
17A9F
  8
0
 10
274.86253790559999
 20
265.84144104260002
 30
0.0
  0
VERTEX
  5
17AA0
  8
0
 10
275.19298978149988
 20
265.82578225049991
 30
0.0
  0
VERTEX
  5
17AA1
  8
0
 10
275.4824709147
 20
265.80942170689991
 30
0.0
  0
VERTEX
  5
17AA2
  8
0
 10
275.6922196596999
 20
265.7981662078999
 30
0.0
  0
VERTEX
  5
17AA3
  8
0
 10
275.81816054879988
 20
265.79622114069991
 30
0.0
  0
VERTEX
  5
17AA4
  8
0
 10
275.82419179380003
 20
265.80686243240001
 30
0.0
  0
VERTEX
  5
17AA5
  8
0
 10
275.72347857059998
 20
265.82861905909988
 30
0.0
  0
VERTEX
  5
17AA6
  8
0
 10
275.51490329199999
 20
265.85814198470001
 30
0.0
  0
VERTEX
  5
17AA7
  8
0
 10
275.24755038320001
 20
265.88527001429998
 30
0.0
  0
VERTEX
  5
17AA8
  8
0
 10
274.92176629599999
 20
265.90744573619997
 30
0.0
  0
VERTEX
  5
17AA9
  8
0
 10
274.86809603869989
 20
265.90998545280002
 30
0.0
  0
VERTEX
  5
17AAA
  8
0
 10
274.814165011
 20
265.91221783299989
 30
0.0
  0
VERTEX
  5
17AAB
  8
0
 10
274.814165011
 20
265.91221783299989
 30
0.0
  0
SEQEND
  5
17AAC
  8
0
  0
POLYLINE
  5
16DF6
  8
0
 66
     1
 10
0.0
 20
0.0
 30
0.0
 70
   128
  0
VERTEX
  5
17AAD
  8
0
 10
268.74503009019998
 20
268.20434704420001
 30
0.0
  0
VERTEX
  5
17AAE
  8
0
 10
268.4149432927
 20
268.1891012936
 30
0.0
  0
VERTEX
  5
17AAF
  8
0
 10
268.12176667149993
 20
268.11258196819989
 30
0.0
  0
VERTEX
  5
17AB0
  8
0
 10
267.89394654329999
 20
267.98103172319998
 30
0.0
  0
VERTEX
  5
17AB1
  8
0
 10
267.77363829310002
 20
267.8276512770999
 30
0.0
  0
VERTEX
  5
17AB2
  8
0
 10
267.75474734599987
 20
267.65321176489999
 30
0.0
  0
VERTEX
  5
17AB3
  8
0
 10
267.85382516679999
 20
267.4930014647
 30
0.0
  0
VERTEX
  5
17AB4
  8
0
 10
268.045804277
 20
267.3631830139999
 30
0.0
  0
VERTEX
  5
17AB5
  8
0
 10
268.3286543934999
 20
267.2626062295999
 30
0.0
  0
VERTEX
  5
17AB6
  8
0
 10
268.6457473783999
 20
267.21079023549999
 30
0.0
  0
VERTEX
  5
17AB7
  8
0
 10
268.75073350960002
 20
267.20355339339989
 30
0.0
  0
VERTEX
  5
17AB8
  8
0
 10
269.08168084919998
 20
267.21076508979991
 30
0.0
  0
VERTEX
  5
17AB9
  8
0
 10
269.37422044570002
 20
267.26720277210001
 30
0.0
  0
VERTEX
  5
17ABA
  8
0
 10
269.58839111029999
 20
267.36382516089998
 30
0.0
  0
VERTEX
  5
17ABB
  8
0
 10
269.72184590989991
 20
267.50729586919999
 30
0.0
  0
VERTEX
  5
17ABC
  8
0
 10
269.73618827759992
 20
267.66878161569991
 30
0.0
  0
VERTEX
  5
17ABD
  8
0
 10
269.6445126086
 20
267.83916428679993
 30
0.0
  0
VERTEX
  5
17ABE
  8
0
 10
269.4441143423
 20
268.00306774669991
 30
0.0
  0
VERTEX
  5
17ABF
  8
0
 10
269.1813994199
 20
268.1209936736999
 30
0.0
  0
VERTEX
  5
17AC0
  8
0
 10
268.85788775980001
 20
268.1942226363999
 30
0.0
  0
VERTEX
  5
17AC1
  8
0
 10
268.74503009019998
 20
268.20434704420001
 30
0.0
  0
SEQEND
  5
17AC2
  8
0
  0
POLYLINE
  5
16DF7
  8
0
 66
     1
 10
0.0
 20
0.0
 30
0.0
 70
   128
  0
VERTEX
  5
17AC3
  8
0
 10
265.76626561580002
 20
266.95519573979988
 30
0.0
  0
VERTEX
  5
17AC4
  8
0
 10
265.43669663370002
 20
266.94988859810002
 30
0.0
  0
VERTEX
  5
17AC5
  8
0
 10
265.14589674769991
 20
266.90811365839988
 30
0.0
  0
VERTEX
  5
17AC6
  8
0
 10
264.92236442860002
 20
266.83486606920002
 30
0.0
  0
VERTEX
  5
17AC7
  8
0
 10
264.8068059236
 20
266.75028335299987
 30
0.0
  0
VERTEX
  5
17AC8
  8
0
 10
264.79346565899988
 20
266.65640976269992
 30
0.0
  0
VERTEX
  5
17AC9
  8
0
 10
264.89768065509998
 20
266.5721348486
 30
0.0
  0
VERTEX
  5
17ACA
  8
0
 10
265.09413011369998
 20
266.50486402209992
 30
0.0
  0
VERTEX
  5
17ACB
  8
0
 10
265.38110785179992
 20
266.45226897660001
 30
0.0
  0
VERTEX
  5
17ACC
  8
0
 10
265.69833494720001
 20
266.42280379300001
 30
0.0
  0
VERTEX
  5
17ACD
  8
0
 10
265.80074317750001
 20
266.4176493882
 30
0.0
  0
VERTEX
  5
17ACE
  8
0
 10
266.13029725849992
 20
266.41455693159992
 30
0.0
  0
VERTEX
  5
17ACF
  8
0
 10
266.42012111839989
 20
266.4353440514999
 30
0.0
  0
VERTEX
  5
17AD0
  8
0
 10
266.63070432839987
 20
266.47828174749998
 30
0.0
  0
VERTEX
  5
17AD1
  8
0
 10
266.76048971709997
 20
266.54905201859992
 30
0.0
  0
VERTEX
  5
17AD2
  8
0
 10
266.77091680469988
 20
266.63542659950002
 30
0.0
  0
VERTEX
  5
17AD3
  8
0
 10
266.67446158820002
 20
266.7316592297999
 30
0.0
  0
VERTEX
  5
17AD4
  8
0
 10
266.4695817976999
 20
266.82829139749992
 30
0.0
  0
VERTEX
  5
17AD5
  8
0
 10
266.20410270989998
 20
266.90058531229988
 30
0.0
  0
VERTEX
  5
17AD6
  8
0
 10
265.87899290019988
 20
266.94787181909999
 30
0.0
  0
VERTEX
  5
17AD7
  8
0
 10
265.76626561580002
 20
266.95519573979988
 30
0.0
  0
SEQEND
  5
17AD8
  8
0
  0
POLYLINE
  5
16DF8
  8
0
 66
     1
 10
0.0
 20
0.0
 30
0.0
 70
   128
  0
VERTEX
  5
17AD9
  8
0
 10
262.76110373440002
 20
268.5279993339999
 30
0.0
  0
VERTEX
  5
17ADA
  8
0
 10
262.43499182160002
 20
268.51116381579988
 30
0.0
  0
VERTEX
  5
17ADB
  8
0
 10
262.14504502710002
 20
268.43205168840001
 30
0.0
  0
VERTEX
  5
17ADC
  8
0
 10
261.91548891359997
 20
268.29576473679992
 30
0.0
  0
VERTEX
  5
17ADD
  8
0
 10
261.79156713189991
 20
268.13492812209989
 30
0.0
  0
VERTEX
  5
17ADE
  8
0
 10
261.77024357019991
 20
267.95366015280001
 30
0.0
  0
VERTEX
  5
17ADF
  8
0
 10
261.86705641449998
 20
267.78657995159989
 30
0.0
  0
VERTEX
  5
17AE0
  8
0
 10
262.05773167310002
 20
267.65100453039997
 30
0.0
  0
VERTEX
  5
17AE1
  8
0
 10
262.34042160209992
 20
267.54626519969997
 30
0.0
  0
VERTEX
  5
17AE2
  8
0
 10
262.65573017299988
 20
267.49311415469992
 30
0.0
  0
VERTEX
  5
17AE3
  8
0
 10
262.76193074880001
 20
267.48570594929993
 30
0.0
  0
VERTEX
  5
17AE4
  8
0
 10
263.09100054200002
 20
267.49388901510002
 30
0.0
  0
VERTEX
  5
17AE5
  8
0
 10
263.38223256169999
 20
267.55294278259998
 30
0.0
  0
VERTEX
  5
17AE6
  8
0
 10
263.59557248649998
 20
267.65312794589988
 30
0.0
  0
VERTEX
  5
17AE7
  8
0
 10
263.73101659119988
 20
267.80230719590003
 30
0.0
  0
VERTEX
  5
17AE8
  8
0
 10
263.74781019979991
 20
267.97125376749989
 30
0.0
  0
VERTEX
  5
17AE9
  8
0
 10
263.65801207719988
 20
268.14830936480001
 30
0.0
  0
VERTEX
  5
17AEA
  8
0
 10
263.4592417627
 20
268.31874139599989
 30
0.0
  0
VERTEX
  5
17AEB
  8
0
 10
263.19591961799989
 20
268.44218820329991
 30
0.0
  0
VERTEX
  5
17AEC
  8
0
 10
262.8706533461999
 20
268.51817946869988
 30
0.0
  0
VERTEX
  5
17AED
  8
0
 10
262.81607411800002
 20
268.52403376239999
 30
0.0
  0
VERTEX
  5
17AEE
  8
0
 10
262.78861500319999
 20
268.52625496679991
 30
0.0
  0
VERTEX
  5
17AEF
  8
0
 10
262.76110373440002
 20
268.5279993339999
 30
0.0
  0
SEQEND
  5
17AF0
  8
0
  0
ARC
  5
16DF9
  8
0
 10
286.42070686689999
 20
263.04703546600001
 30
0.0
 40
2.4602390333510891
 50
81.343822049603148
 51
104.1907452880036
  0
ARC
  5
16DFA
  8
0
 10
287.32837784899988
 20
278.50135653149988
 30
0.0
 40
13.164888560501479
 50
263.38574472679829
 51
271.90672772090261
  0
POLYLINE
  5
16DFB
  8
0
 66
     1
 10
0.0
 20
0.0
 30
0.0
 70
   128
  0
VERTEX
  5
17AF1
  8
0
 10
287.76640705761338
 20
265.34375715992672
 30
0.0
  0
VERTEX
  5
17AF2
  8
0
 10
287.7789240329999
 20
265.36344811309988
 30
0.0
  0
VERTEX
  5
17AF3
  8
0
 10
287.68033795060001
 20
265.3918334281999
 30
0.0
  0
VERTEX
  5
17AF4
  8
0
 10
287.47342787679997
 20
265.42469607660001
 30
0.0
  0
VERTEX
  5
17AF5
  8
0
 10
287.21211366350002
 20
265.45250024640001
 30
0.0
  0
VERTEX
  5
17AF6
  8
0
 10
286.8913773447
 20
265.4747486114
 30
0.0
  0
VERTEX
  5
17AF7
  8
0
 10
286.84130199249989
 20
265.47714024769988
 30
0.0
  0
VERTEX
  5
17AF8
  8
0
 10
286.816156283
 20
265.47823129210002
 30
0.0
  0
VERTEX
  5
17AF9
  8
0
 10
286.79098449650002
 20
265.47925062469989
 30
0.0
  0
SEQEND
  5
17AFA
  8
0
  0
POLYLINE
  5
16DFC
  8
0
 66
     1
 10
0.0
 20
0.0
 30
0.0
 70
   128
  0
VERTEX
  5
17AFB
  8
0
 10
283.76155234869998
 20
266.17097044359991
 30
0.0
  0
VERTEX
  5
17AFC
  8
0
 10
283.42843689019992
 20
266.16826960809999
 30
0.0
  0
VERTEX
  5
17AFD
  8
0
 10
283.13479460769997
 20
266.13477133209989
 30
0.0
  0
VERTEX
  5
17AFE
  8
0
 10
282.91099779310002
 20
266.07477879139992
 30
0.0
  0
VERTEX
  5
17AFF
  8
0
 10
282.79473893339991
 20
266.00422505279988
 30
0.0
  0
VERTEX
  5
17B00
  8
0
 10
282.78330601750002
 20
265.92573970550001
 30
0.0
  0
VERTEX
  5
17B01
  8
0
 10
282.88928307589998
 20
265.85548911239999
 30
0.0
  0
VERTEX
  5
17B02
  8
0
 10
283.08649621900003
 20
265.79880556079991
 30
0.0
  0
VERTEX
  5
17B03
  8
0
 10
283.37291516359988
 20
265.7542343250999
 30
0.0
  0
VERTEX
  5
17B04
  8
0
 10
283.68699066339991
 20
265.72935776779991
 30
0.0
  0
VERTEX
  5
17B05
  8
0
 10
283.7844144552999
 20
265.72513701389988
 30
0.0
  0
VERTEX
  5
17B06
  8
0
 10
284.11816321309988
 20
265.72237564239992
 30
0.0
  0
VERTEX
  5
17B07
  8
0
 10
284.41145159299992
 20
265.74015039939991
 30
0.0
  0
VERTEX
  5
17B08
  8
0
 10
284.62632261210001
 20
265.77712669959988
 30
0.0
  0
VERTEX
  5
17B09
  8
0
 10
284.75402183829999
 20
265.83660747850001
 30
0.0
  0
VERTEX
  5
17B0A
  8
0
 10
284.76169966160001
 20
265.90823130669992
 30
0.0
  0
VERTEX
  5
17B0B
  8
0
 10
284.66149307789999
 20
265.98846754049998
 30
0.0
  0
VERTEX
  5
17B0C
  8
0
 10
284.45377089079989
 20
266.06754614030001
 30
0.0
  0
VERTEX
  5
17B0D
  8
0
 10
284.19128693639988
 20
266.12577103069998
 30
0.0
  0
VERTEX
  5
17B0E
  8
0
 10
283.86865817009988
 20
266.16482231759989
 30
0.0
  0
VERTEX
  5
17B0F
  8
0
 10
283.76155234869998
 20
266.17097044359991
 30
0.0
  0
SEQEND
  5
17B10
  8
0
  0
POLYLINE
  5
16DFD
  8
0
 66
     1
 10
0.0
 20
0.0
 30
0.0
 70
   128
  0
VERTEX
  5
17B11
  8
0
 10
286.74601651730001
 20
267.19781272109992
 30
0.0
  0
VERTEX
  5
17B12
  8
0
 10
286.41031198199988
 20
267.1844054012999
 30
0.0
  0
VERTEX
  5
17B13
  8
0
 10
286.11335046589988
 20
267.11737299329991
 30
0.0
  0
VERTEX
  5
17B14
  8
0
 10
285.88873408730001
 20
267.00443755830003
 30
0.0
  0
VERTEX
  5
17B15
  8
0
 10
285.77299304299987
 20
266.87459489320003
 30
0.0
  0
VERTEX
  5
17B16
  8
0
 10
285.75999923049989
 20
266.72809971489988
 30
0.0
  0
VERTEX
  5
17B17
  8
0
 10
285.86381934579998
 20
266.59636972459998
 30
0.0
  0
VERTEX
  5
17B18
  8
0
 10
286.05824597180009
 20
266.4897314271999
 30
0.0
  0
VERTEX
  5
17B19
  8
0
 10
286.3437373191
 20
266.40641577529988
 30
0.0
  0
VERTEX
  5
17B1A
  8
0
 10
286.66300959879999
 20
266.36304408299998
 30
0.0
  0
VERTEX
  5
17B1B
  8
0
 10
286.76586113870002
 20
266.3569737224999
 30
0.0
  0
VERTEX
  5
17B1C
  8
0
 10
287.1012005954999
 20
266.36222777879988
 30
0.0
  0
VERTEX
  5
17B1D
  8
0
 10
287.39653043449988
 20
266.40890054400001
 30
0.0
  0
VERTEX
  5
17B1E
  8
0
 10
287.61375211180001
 20
266.49107439440002
 30
0.0
  0
VERTEX
  5
17B1F
  8
0
 10
287.74216286839987
 20
266.61253049959998
 30
0.0
  0
VERTEX
  5
17B20
  8
0
 10
287.74944208559998
 20
266.74709357310002
 30
0.0
  0
VERTEX
  5
17B21
  8
0
 10
287.65221945939987
 20
266.89061038189988
 30
0.0
  0
VERTEX
  5
17B22
  8
0
 10
287.44760416449998
 20
267.02872738229991
 30
0.0
  0
VERTEX
  5
17B23
  8
0
 10
287.18340657649992
 20
267.12770229199998
 30
0.0
  0
VERTEX
  5
17B24
  8
0
 10
286.85799129309999
 20
267.1893758699
 30
0.0
  0
VERTEX
  5
17B25
  8
0
 10
286.74601651730001
 20
267.19781272109992
 30
0.0
  0
SEQEND
  5
17B26
  8
0
  0
POLYLINE
  5
16DFE
  8
0
 66
     1
 10
0.0
 20
0.0
 30
0.0
 70
   128
  0
VERTEX
  5
17B27
  8
0
 10
292.76297502220001
 20
265.22245239459988
 30
0.0
  0
VERTEX
  5
17B28
  8
0
 10
292.44084917009991
 20
265.23218937209992
 30
0.0
  0
VERTEX
  5
17B29
  8
0
 10
292.15427003799988
 20
265.2307467533999
 30
0.0
  0
VERTEX
  5
17B2A
  8
0
 10
291.91901795559988
 20
265.21949404840001
 30
0.0
  0
VERTEX
  5
17B2B
  8
0
 10
291.7848553508
 20
265.20266644650002
 30
0.0
  0
VERTEX
  5
17B2C
  8
0
 10
291.7591508477999
 20
265.18317293369989
 30
0.0
  0
VERTEX
  5
17B2D
  8
0
 10
291.85395948590002
 20
265.16484590239997
 30
0.0
  0
VERTEX
  5
17B2E
  8
0
 10
292.04439632589992
 20
265.14877360309993
 30
0.0
  0
VERTEX
  5
17B2F
  8
0
 10
292.32625178990003
 20
265.13336999329999
 30
0.0
  0
VERTEX
  5
17B30
  8
0
 10
292.63071976600003
 20
265.12002740049991
 30
0.0
  0
VERTEX
  5
17B31
  8
0
 10
292.72479079660002
 20
265.11617498469991
 30
0.0
  0
VERTEX
  5
17B32
  8
0
 10
293.0532943456999
 20
265.10331062589989
 30
0.0
  0
VERTEX
  5
17B33
  8
0
 10
293.34523789579998
 20
265.0932523420999
 30
0.0
  0
VERTEX
  5
17B34
  8
0
 10
293.56131963429988
 20
265.08880900209988
 30
0.0
  0
VERTEX
  5
17B35
  8
0
 10
293.7023218720999
 20
265.09275874119987
 30
0.0
  0
VERTEX
  5
17B36
  8
0
 10
293.7023218720999
 20
265.09275874119987
 30
0.0
  0
SEQEND
  5
17B37
  8
0
  0
POLYLINE
  5
16DFF
  8
0
 66
     1
 10
0.0
 20
0.0
 30
0.0
 70
   128
  0
VERTEX
  5
17B38
  8
0
 10
293.7023218720999
 20
265.09275874119987
 30
0.0
  0
VERTEX
  5
17B39
  8
0
 10
293.72657351189991
 20
265.10757701459988
 30
0.0
  0
VERTEX
  5
17B3A
  8
0
 10
293.63728575409999
 20
265.13263517979988
 30
0.0
  0
VERTEX
  5
17B3B
  8
0
 10
293.43787096440002
 20
265.1641287839999
 30
0.0
  0
VERTEX
  5
17B3C
  8
0
 10
293.17943267519991
 20
265.19276648750002
 30
0.0
  0
VERTEX
  5
17B3D
  8
0
 10
292.85946004089988
 20
265.21727563809998
 30
0.0
  0
VERTEX
  5
17B3E
  8
0
 10
292.81135909260001
 20
265.2199853210999
 30
0.0
  0
VERTEX
  5
17B3F
  8
0
 10
292.76297502220001
 20
265.22245239459988
 30
0.0
  0
SEQEND
  5
17B40
  8
0
  0
POLYLINE
  5
16E00
  8
0
 66
     1
 10
0.0
 20
0.0
 30
0.0
 70
   128
  0
VERTEX
  5
17B41
  8
0
 10
252.3802861570999
 20
266.78562192240003
 30
0.0
  0
VERTEX
  5
17B42
  8
0
 10
252.64274217190001
 20
266.75117462869991
 30
0.0
  0
VERTEX
  5
17B43
  8
0
 10
253.1397107988
 20
266.84447731819989
 30
0.0
  0
VERTEX
  5
17B44
  8
0
 10
253.744809702
 20
267.02140439290002
 30
0.0
  0
VERTEX
  5
17B45
  8
0
 10
254.52264286580001
 20
267.2413436695
 30
0.0
  0
VERTEX
  5
17B46
  8
0
 10
255.01473322509989
 20
267.32923164959988
 30
0.0
  0
VERTEX
  5
17B47
  8
0
 10
255.29031157489999
 20
267.3513463697999
 30
0.0
  0
VERTEX
  5
17B48
  8
0
 10
255.5731486528999
 20
267.35137104979992
 30
0.0
  0
VERTEX
  5
17B49
  8
0
 10
255.85449002679999
 20
267.32533685859988
 30
0.0
  0
VERTEX
  5
17B4A
  8
0
 10
256.11600913109999
 20
267.27659469459991
 30
0.0
  0
VERTEX
  5
17B4B
  8
0
 10
256.54984526330003
 20
267.13941227639998
 30
0.0
  0
VERTEX
  5
17B4C
  8
0
 10
257.1335684508
 20
266.84799026690001
 30
0.0
  0
VERTEX
  5
17B4D
  8
0
 10
257.50903673469998
 20
266.63437420499997
 30
0.0
  0
VERTEX
  5
17B4E
  8
0
 10
257.7748883514999
 20
266.52832124380001
 30
0.0
  0
VERTEX
  5
17B4F
  8
0
 10
257.7748883514999
 20
266.52832124380001
 30
0.0
  0
SEQEND
  5
17B50
  8
0
  0
ARC
  5
16E01
  8
0
 10
302.21979044095661
 20
324.72374354277468
 30
0.0
 40
78.515048602579171
 50
224.19085332653299
 51
227.4372958788249
  0
ARC
  5
16E02
  8
0
 10
152.3674768073999
 20
271.38732003410001
 30
0.0
 40
105.85481816870031
 50
358.26247756260312
 51
1.4137625022027089
  0
POLYLINE
  5
16E03
  8
0
 66
     1
 10
0.0
 20
0.0
 30
0.0
 70
   128
  0
VERTEX
  5
17B51
  8
0
 10
258.17362479860031
 20
268.17771308110417
 30
0.0
  0
VERTEX
  5
17B52
  8
0
 10
257.9393375665
 20
267.6341280339999
 30
0.0
  0
VERTEX
  5
17B53
  8
0
 10
257.71069414909988
 20
267.5260438583
 30
0.0
  0
SEQEND
  5
17B54
  8
0
  0
POLYLINE
  5
16E04
  8
0
 66
     1
 10
0.0
 20
0.0
 30
0.0
 70
   128
  0
VERTEX
  5
17B55
  8
0
 10
252.54023149610001
 20
267.73625221100002
 30
0.0
  0
VERTEX
  5
17B56
  8
0
 10
252.4171218276
 20
267.74988863610002
 30
0.0
  0
VERTEX
  5
17B57
  8
0
 10
251.8398564309
 20
267.97015573819988
 30
0.0
  0
VERTEX
  5
17B58
  8
0
 10
251.3635519892
 20
268.44231206919989
 30
0.0
  0
VERTEX
  5
17B59
  8
0
 10
250.9628690779
 20
269.2142946644999
 30
0.0
  0
VERTEX
  5
17B5A
  8
0
 10
250.74718594549989
 20
269.88552212709988
 30
0.0
  0
VERTEX
  5
17B5B
  8
0
 10
250.56299269199999
 20
270.71298360819992
 30
0.0
  0
VERTEX
  5
17B5C
  8
0
 10
250.36186613139989
 20
272.26116769009991
 30
0.0
  0
VERTEX
  5
17B5D
  8
0
 10
250.30763335520001
 20
273.0983018874
 30
0.0
  0
VERTEX
  5
17B5E
  8
0
 10
250.27631297709991
 20
273.99900257579998
 30
0.0
  0
SEQEND
  5
17B5F
  8
0
  0
POLYLINE
  5
16E05
  8
0
 66
     1
 10
0.0
 20
0.0
 30
0.0
 70
   128
  0
VERTEX
  5
17B60
  8
0
 10
249.99960586430001
 20
273.99900536979999
 30
0.0
  0
VERTEX
  5
17B61
  8
0
 10
250.03495700659991
 20
272.83314131189991
 30
0.0
  0
VERTEX
  5
17B62
  8
0
 10
250.10224506259999
 20
271.71933073539992
 30
0.0
  0
VERTEX
  5
17B63
  8
0
 10
250.20763911299991
 20
270.69358136499989
 30
0.0
  0
VERTEX
  5
17B64
  8
0
 10
250.3467004746
 20
269.78606525799989
 30
0.0
  0
VERTEX
  5
17B65
  8
0
 10
250.51733180880001
 20
268.99970863009992
 30
0.0
  0
VERTEX
  5
17B66
  8
0
 10
250.7156793028
 20
268.34193691600001
 30
0.0
  0
VERTEX
  5
17B67
  8
0
 10
251.20795592659999
 20
267.37542431790001
 30
0.0
  0
VERTEX
  5
17B68
  8
0
 10
251.83480679990001
 20
266.85721501699987
 30
0.0
  0
VERTEX
  5
17B69
  8
0
 10
252.3802861570999
 20
266.78562192240003
 30
0.0
  0
SEQEND
  5
17B6A
  8
0
  0
POLYLINE
  5
16E06
  8
0
 66
     1
 10
0.0
 20
0.0
 30
0.0
 70
   128
  0
VERTEX
  5
17B6B
  8
0
 10
257.7748883514999
 20
266.52832124380001
 30
0.0
  0
VERTEX
  5
17B6C
  8
0
 10
258.11189673839999
 20
266.6592060587999
 30
0.0
  0
VERTEX
  5
17B6D
  8
0
 10
258.29604528839991
 20
267.23440438499989
 30
0.0
  0
VERTEX
  5
17B6E
  8
0
 10
258.3853889257
 20
268.26373096549992
 30
0.0
  0
VERTEX
  5
17B6F
  8
0
 10
258.40422771869999
 20
268.94842907779991
 30
0.0
  0
VERTEX
  5
17B70
  8
0
 10
258.4106612949999
 20
269.75753419089989
 30
0.0
  0
VERTEX
  5
17B71
  8
0
 10
258.40864591299999
 20
270.68061083549992
 30
0.0
  0
VERTEX
  5
17B72
  8
0
 10
258.40010382229991
 20
271.71779777850003
 30
0.0
  0
VERTEX
  5
17B73
  8
0
 10
258.38513933119998
 20
272.83058948809992
 30
0.0
  0
VERTEX
  5
17B74
  8
0
 10
258.37402679019999
 20
273.99897929269991
 30
0.0
  0
SEQEND
  5
17B75
  8
0
  0
LINE
  5
16E07
  8
0
 10
273.85101355609987
 20
265.87509391819992
 30
0.0
 11
257.7748883514999
 21
266.52832124380001
 31
0.0
  0
LINE
  5
16E08
  8
0
 10
281.4668778329999
 20
265.56953955429992
 30
0.0
 11
286.44506413874012
 21
265.36613488511392
 31
0.0
  0
LINE
  5
16E09
  8
0
 10
287.14103762764699
 20
265.33780099160549
 30
0.0
 11
295.0329136103
 21
265.02462876949988
 31
0.0
  0
ARC
  5
16EA7
  8
0
 10
63.003587035158489
 20
175.2188315384355
 30
0.0
 40
0.7624982908671479
 50
139.26983554850111
 51
158.79045213241531
  0
ARC
  5
16EA8
  8
0
 10
62.49670401374965
 20
175.57838165693519
 30
0.0
 40
0.7624982908671479
 50
139.26983554850111
 51
169.98521544056251
  0
ARC
  5
16EA9
  8
0
 10
63.968199985242791
 20
174.57062647756439
 30
0.0
 40
1.27084404883845
 50
142.70659020668879
 51
171.0954325550052
  0
POLYLINE
  5
16EAB
  8
0
 66
     1
 10
0.0
 20
0.0
 30
0.0
 70
   128
  0
VERTEX
  5
17B76
  8
0
 10
62.36001811925167
 20
176.9433837383952
 30
0.0
  0
VERTEX
  5
17B77
  8
0
 10
62.365508265851652
 20
177.0064519717952
 30
0.0
  0
VERTEX
  5
17B78
  8
0
 10
62.413270678451681
 20
177.17247419059521
 30
0.0
  0
VERTEX
  5
17B79
  8
0
 10
62.497265264451698
 20
177.40948460999519
 30
0.0
  0
VERTEX
  5
17B7A
  8
0
 10
62.621754687351647
 20
177.71455701439521
 30
0.0
  0
VERTEX
  5
17B7B
  8
0
 10
62.761774845451669
 20
178.01841218019521
 30
0.0
  0
VERTEX
  5
17B7C
  8
0
 10
62.910751998451701
 20
178.3093685283952
 30
0.0
  0
VERTEX
  5
17B7D
  8
0
 10
63.000995759000027
 20
178.46792212167909
 30
0.0
  0
SEQEND
  5
17B7E
  8
0
  0
POLYLINE
  5
16EAC
  8
0
 66
     1
 10
0.0
 20
0.0
 30
0.0
 70
   128
  0
VERTEX
  5
17B7F
  8
0
 10
61.94122984727494
 20
172.54565929299281
 30
0.0
  0
VERTEX
  5
17B80
  8
0
 10
61.938528530446092
 20
172.46693056076629
 30
0.0
  0
VERTEX
  5
17B81
  8
0
 10
61.924151238246061
 20
172.20236975696631
 30
0.0
  0
VERTEX
  5
17B82
  8
0
 10
61.907458678046048
 20
171.89517766236631
 30
0.0
  0
VERTEX
  5
17B83
  8
0
 10
61.891054827846112
 20
171.54761552816629
 30
0.0
  0
VERTEX
  5
17B84
  8
0
 10
61.878061946646092
 20
171.22851880266629
 30
0.0
  0
VERTEX
  5
17B85
  8
0
 10
61.867643706646042
 20
170.97151987256629
 30
0.0
  0
VERTEX
  5
17B86
  8
0
 10
61.85666155084607
 20
170.7835393957663
 30
0.0
  0
VERTEX
  5
17B87
  8
0
 10
61.844680551546048
 20
170.71089064706629
 30
0.0
  0
VERTEX
  5
17B88
  8
0
 10
61.840752232946102
 20
170.70921799166629
 30
0.0
  0
VERTEX
  5
17B89
  8
0
 10
61.826848983946093
 20
170.77398728576631
 30
0.0
  0
VERTEX
  5
17B8A
  8
0
 10
61.815230734846068
 20
170.9472058340663
 30
0.0
  0
VERTEX
  5
17B8B
  8
0
 10
61.810134537646029
 20
171.1957772262663
 30
0.0
  0
VERTEX
  5
17B8C
  8
0
 10
61.814878229246119
 20
171.52244281026631
 30
0.0
  0
VERTEX
  5
17B8D
  8
0
 10
61.830735858646108
 20
171.85612265026629
 30
0.0
  0
VERTEX
  5
17B8E
  8
0
 10
61.856055259846023
 20
172.17651624236629
 30
0.0
  0
VERTEX
  5
17B8F
  8
0
 10
61.886848975146108
 20
172.44804520156629
 30
0.0
  0
VERTEX
  5
17B90
  8
0
 10
61.906330795002759
 20
172.57221732998769
 30
0.0
  0
SEQEND
  5
17B91
  8
0
  0
ARC
  5
16EAD
  8
0
 10
76.748712470734858
 20
175.0935309564878
 30
0.0
 40
1.0297198534292871
 50
22.18928899372505
 51
35.985116012497592
  0
ARC
  5
16EFD
  8
0
 10
60.582205496829367
 20
176.04691158739129
 30
0.0
 40
1.5849353235845529
 50
349.5032457075323
 51
354.8509173993998
  0
ARC
  5
16EFE
  8
0
 10
62.738559173087879
 20
175.4071393751268
 30
0.0
 40
0.7624982908671479
 50
139.26983554850111
 51
146.67589715371571
  0
ARC
  5
16F03
  8
0
 10
382.93339832975403
 20
167.18351444944261
 30
0.0
 40
8.6889162372551159
 50
252.2268394601
 51
270.44320288962422
  0
ARC
  5
16F04
  8
0
 10
382.60079000396638
 20
166.00618590278901
 30
0.0
 40
7.466371995151432
 50
230.9064278087082
 51
251.8995872728394
  0
ARC
  5
16F05
  8
0
 10
383.16705938800618
 20
166.6678451635054
 30
0.0
 40
8.3370099047983839
 50
213.05412198862061
 51
230.75347066738519
  0
LINE
  5
16F06
  8
0
 10
376.17934681470001
 20
162.12058146480001
 30
0.0
 11
375.61828084289988
 21
163.06472910799999
 31
0.0
  0
LINE
  5
16F07
  8
0
 10
375.61828084289988
 20
163.06472910799999
 30
0.0
 11
375.41343457990001
 21
163.43094697219999
 31
0.0
  0
LINE
  5
16F08
  8
0
 10
375.41343457990001
 20
163.43094697219999
 30
0.0
 11
375.55626593530002
 21
162.9926793743
 31
0.0
  0
LINE
  5
16F09
  8
0
 10
375.55626593530002
 20
162.9926793743
 30
0.0
 11
376.34244002399993
 21
161.31887338120001
 31
0.0
  0
ARC
  5
16F0A
  8
0
 10
384.86788377332891
 20
166.03020674370759
 30
0.0
 40
9.7406289928141181
 50
208.92593119768139
 51
224.9181008917804
  0
ARC
  5
16F0B
  8
0
 10
383.00435468108242
 20
164.18726689267029
 30
0.0
 40
7.1197497460432837
 50
225.00511377308689
 51
247.4431342806796
  0
ARC
  5
16F0C
  8
0
 10
382.94518341056579
 20
164.24073075081139
 30
0.0
 40
7.146820622994964
 50
248.0456470010985
 51
270.46110055512941
  0
ARC
  5
16F0F
  8
0
 10
371.25720439964789
 20
170.95175446917659
 30
0.0
 40
20.745975008920169
 50
338.74503049860238
 51
8.8415588721663152
  0
POLYLINE
  5
16F11
  8
0
 66
     1
 10
0.0
 20
0.0
 30
0.0
 70
   128
  0
VERTEX
  5
17B92
  8
0
 10
391.27605967229988
 20
176.09579544510001
 30
0.0
  0
VERTEX
  5
17B93
  8
0
 10
391.3275208323999
 20
176.03473886840001
 30
0.0
  0
VERTEX
  5
17B94
  8
0
 10
391.39107987289992
 20
175.8632414043
 30
0.0
  0
VERTEX
  5
17B95
  8
0
 10
391.45971275869988
 20
175.62088798729999
 30
0.0
  0
VERTEX
  5
17B96
  8
0
 10
391.53722301129989
 20
175.29965061690001
 30
0.0
  0
VERTEX
  5
17B97
  8
0
 10
391.61062985659993
 20
174.96564760800001
 30
0.0
  0
VERTEX
  5
17B98
  8
0
 10
391.67843386529989
 20
174.6420763433
 30
0.0
  0
VERTEX
  5
17B99
  8
0
 10
391.73380099239989
 20
174.36896879220001
 30
0.0
  0
VERTEX
  5
17B9A
  8
0
 10
391.76514931019989
 20
174.19803291560001
 30
0.0
  0
VERTEX
  5
17B9B
  8
0
 10
391.75665820062409
 20
174.1404646994082
 30
0.0
  0
VERTEX
  5
17B9C
  8
0
 10
391.7415086179999
 20
174.1655502468
 30
0.0
  0
VERTEX
  5
17B9D
  8
0
 10
391.68507605790001
 20
174.30933527650001
 30
0.0
  0
VERTEX
  5
17B9E
  8
0
 10
391.60084724429998
 20
174.5524886995
 30
0.0
  0
VERTEX
  5
17B9F
  8
0
 10
391.50848798459992
 20
174.8464066535
 30
0.0
  0
VERTEX
  5
17BA0
  8
0
 10
391.4134204387999
 20
175.18232818690001
 30
0.0
  0
VERTEX
  5
17BA1
  8
0
 10
391.33421517909989
 20
175.50940401849999
 30
0.0
  0
VERTEX
  5
17BA2
  8
0
 10
391.2813179195
 20
175.78570228070001
 30
0.0
  0
VERTEX
  5
17BA3
  8
0
 10
391.25793799759992
 20
175.9945895523
 30
0.0
  0
VERTEX
  5
17BA4
  8
0
 10
391.26765169209989
 20
176.08725335450001
 30
0.0
  0
VERTEX
  5
17BA5
  8
0
 10
391.27605967229988
 20
176.09579544510001
 30
0.0
  0
SEQEND
  5
17BA6
  8
0
  0
POLYLINE
  5
16F12
  8
0
 66
     1
 10
0.0
 20
0.0
 30
0.0
 70
   128
  0
VERTEX
  5
17BA7
  8
0
 10
390.20285755399988
 20
176.64671465750001
 30
0.0
  0
VERTEX
  5
17BA8
  8
0
 10
390.0544773786998
 20
176.6239251941
 30
0.0
  0
VERTEX
  5
17BA9
  8
0
 10
389.85922746359989
 20
176.70485526319999
 30
0.0
  0
VERTEX
  5
17BAA
  8
0
 10
389.65150713920002
 20
176.8685035407
 30
0.0
  0
VERTEX
  5
17BAB
  8
0
 10
389.43247497079989
 20
177.1160462871
 30
0.0
  0
VERTEX
  5
17BAC
  8
0
 10
389.25568014390001
 20
177.3942658677
 30
0.0
  0
VERTEX
  5
17BAD
  8
0
 10
389.12652246659991
 20
177.68118213860001
 30
0.0
  0
VERTEX
  5
17BAE
  8
0
 10
389.05176334079988
 20
177.9728481546
 30
0.0
  0
VERTEX
  5
17BAF
  8
0
 10
389.05385881659993
 20
178.2008275389
 30
0.0
  0
VERTEX
  5
17BB0
  8
0
 10
389.12840746350003
 20
178.35669089109999
 30
0.0
  0
VERTEX
  5
17BB1
  8
0
 10
389.16069269179991
 20
178.38177792729999
 30
0.0
  0
VERTEX
  5
17BB2
  8
0
 10
389.31390270589992
 20
178.40643748639999
 30
0.0
  0
VERTEX
  5
17BB3
  8
0
 10
389.50561359530002
 20
178.3318571746
 30
0.0
  0
VERTEX
  5
17BB4
  8
0
 10
389.72339592880002
 20
178.15562486650001
 30
0.0
  0
VERTEX
  5
17BB5
  8
0
 10
389.91949893539987
 20
177.9198559001
 30
0.0
  0
VERTEX
  5
17BB6
  8
0
 10
390.09926281869991
 20
177.6259677484
 30
0.0
  0
VERTEX
  5
17BB7
  8
0
 10
390.2309406549
 20
177.31912396850001
 30
0.0
  0
VERTEX
  5
17BB8
  8
0
 10
390.29861986639992
 20
177.0501021295
 30
0.0
  0
VERTEX
  5
17BB9
  8
0
 10
390.3030846268
 20
176.816307567
 30
0.0
  0
VERTEX
  5
17BBA
  8
0
 10
390.23621007799989
 20
176.672527194
 30
0.0
  0
VERTEX
  5
17BBB
  8
0
 10
390.20285755399988
 20
176.64671465750001
 30
0.0
  0
SEQEND
  5
17BBC
  8
0
  0
POLYLINE
  5
16F13
  8
0
 66
     1
 10
0.0
 20
0.0
 30
0.0
 70
   128
  0
VERTEX
  5
17BBD
  8
0
 10
387.90870085360001
 20
181.16538468749999
 30
0.0
  0
VERTEX
  5
17BBE
  8
0
 10
388.00976611679988
 20
181.16777818649999
 30
0.0
  0
VERTEX
  5
17BBF
  8
0
 10
388.18381913009989
 20
181.0863321647
 30
0.0
  0
VERTEX
  5
17BC0
  8
0
 10
388.39437812569992
 20
180.94029147180001
 30
0.0
  0
VERTEX
  5
17BC1
  8
0
 10
388.64629529419989
 20
180.72379063810001
 30
0.0
  0
VERTEX
  5
17BC2
  8
0
 10
388.88789340859989
 20
180.4778637364
 30
0.0
  0
VERTEX
  5
17BC3
  8
0
 10
389.09747451549993
 20
180.23002762339999
 30
0.0
  0
VERTEX
  5
17BC4
  8
0
 10
389.26256820560002
 20
179.9967592582
 30
0.0
  0
VERTEX
  5
17BC5
  8
0
 10
389.3487099557999
 20
179.83019966629999
 30
0.0
  0
VERTEX
  5
17BC6
  8
0
 10
389.36127722269998
 20
179.72680609669999
 30
0.0
  0
VERTEX
  5
17BC7
  8
0
 10
389.34783078729993
 20
179.7114634886
 30
0.0
  0
VERTEX
  5
17BC8
  8
0
 10
389.25230130559999
 20
179.7202197835
 30
0.0
  0
VERTEX
  5
17BC9
  8
0
 10
389.08841833470001
 20
179.80767656110001
 30
0.0
  0
VERTEX
  5
17BCA
  8
0
 10
388.86260986329989
 20
179.97270133340001
 30
0.0
  0
VERTEX
  5
17BCB
  8
0
 10
388.62612470990001
 20
180.17616178840001
 30
0.0
  0
VERTEX
  5
17BCC
  8
0
 10
388.37575912480003
 20
180.41796479370001
 30
0.0
  0
VERTEX
  5
17BCD
  8
0
 10
388.15192691980002
 20
180.66494408989999
 30
0.0
  0
VERTEX
  5
17BCE
  8
0
 10
387.99154013399988
 20
180.8764865622
 30
0.0
  0
VERTEX
  5
17BCF
  8
0
 10
387.89747841659999
 20
181.0507277026
 30
0.0
  0
VERTEX
  5
17BD0
  8
0
 10
387.8940753638999
 20
181.15018922830001
 30
0.0
  0
VERTEX
  5
17BD1
  8
0
 10
387.90870085360001
 20
181.16538468749999
 30
0.0
  0
SEQEND
  5
17BD2
  8
0
  0
ARC
  5
16F14
  8
0
 10
383.07200037584579
 20
167.18351444944261
 30
0.0
 40
8.6889162372551159
 50
269.5567971103693
 51
287.77316053990671
  0
ARC
  5
16F15
  8
0
 10
383.40460870163349
 20
166.00618590278901
 30
0.0
 40
7.466371995151432
 50
288.10041272716069
 51
309.09357219129168
  0
ARC
  5
16F16
  8
0
 10
382.83833931759358
 20
166.6678451635054
 30
0.0
 40
8.3370099047983839
 50
309.24652933262121
 51
326.94587801138448
  0
LINE
  5
16F17
  8
0
 10
389.82605189089981
 20
162.12058146480001
 30
0.0
 11
390.38711786269988
 21
163.06472910799999
 31
0.0
  0
LINE
  5
16F18
  8
0
 10
390.38711786269988
 20
163.06472910799999
 30
0.0
 11
390.5919641256998
 21
163.43094697219999
 31
0.0
  0
LINE
  5
16F19
  8
0
 10
390.5919641256998
 20
163.43094697219999
 30
0.0
 11
390.44913277029991
 21
162.9926793743
 31
0.0
  0
LINE
  5
16F1A
  8
0
 10
390.44913277029991
 20
162.9926793743
 30
0.0
 11
389.6629586816
 21
161.31887338120001
 31
0.0
  0
ARC
  5
16F1B
  8
0
 10
381.13751493227102
 20
166.03020674370759
 30
0.0
 40
9.7406289928141181
 50
315.08189910822063
 51
331.07406880231611
  0
ARC
  5
16F1C
  8
0
 10
383.00104402451751
 20
164.18726689267029
 30
0.0
 40
7.1197497460432837
 50
292.55686571932688
 51
314.99488622691962
  0
ARC
  5
16F1D
  8
0
 10
383.0602152950342
 20
164.24073075081139
 30
0.0
 40
7.146820622994964
 50
269.53889944487707
 51
291.95435299890181
  0
ARC
  5
16F1E
  8
0
 10
383.11776667789991
 20
163.885221202
 30
0.0
 40
5.7906391420447116
 50
268.86138543790389
 51
306.94608853884068
  0
LINE
  5
16F1F
  8
1
 10
208.99999908160001
 20
297.24900222434633
 30
0.0
 11
208.99999908160001
 21
284.7490022244537
 31
0.0
  0
LINE
  5
16F20
  8
1
 10
215.24999908154629
 20
290.99900222439999
 30
0.0
 11
202.74999908165361
 21
290.99900222439999
 31
0.0
  0
LINE
  5
16F21
  8
1
 10
232.99999908160001
 20
297.24900222434633
 30
0.0
 11
232.99999908160001
 21
284.7490022244537
 31
0.0
  0
LINE
  5
16F22
  8
1
 10
239.24999908154629
 20
290.99900222439999
 30
0.0
 11
226.74999908165361
 21
290.99900222439999
 31
0.0
  0
LINE
  5
16F23
  8
1
 10
232.99999908160001
 20
263.24900222434633
 30
0.0
 11
232.99999908160001
 21
250.74900222445359
 31
0.0
  0
LINE
  5
16F24
  8
1
 10
239.24999908154629
 20
256.99900222439999
 30
0.0
 11
226.74999908165361
 21
256.99900222439999
 31
0.0
  0
LINE
  5
16F25
  8
1
 10
208.99999908160001
 20
263.24900222434633
 30
0.0
 11
208.99999908160001
 21
250.74900222445359
 31
0.0
  0
LINE
  5
16F26
  8
1
 10
215.24999908154629
 20
256.99900222439999
 30
0.0
 11
202.74999908165361
 21
256.99900222439999
 31
0.0
  0
LINE
  5
16F27
  8
1
 10
208.99999908160001
 20
95.250998796246336
 30
0.0
 11
208.99999908160001
 21
82.750998796353656
 31
0.0
  0
LINE
  5
16F28
  8
1
 10
215.24999908154629
 20
89.000998796299996
 30
0.0
 11
202.74999908165361
 21
89.000998796299996
 31
0.0
  0
LINE
  5
16F29
  8
1
 10
232.99999908160001
 20
95.250998796246336
 30
0.0
 11
232.99999908160001
 21
82.750998796353656
 31
0.0
  0
LINE
  5
16F2A
  8
1
 10
239.24999908154629
 20
89.000998796299996
 30
0.0
 11
226.74999908165361
 21
89.000998796299996
 31
0.0
  0
LINE
  5
16F2B
  8
1
 10
232.99999908160001
 20
61.250998796246357
 30
0.0
 11
232.99999908160001
 21
48.750998796353677
 31
0.0
  0
LINE
  5
16F2C
  8
1
 10
239.24999908154629
 20
55.000998796300031
 30
0.0
 11
226.74999908165361
 21
55.000998796300031
 31
0.0
  0
LINE
  5
16F2D
  8
1
 10
208.99999908160001
 20
61.250998796246357
 30
0.0
 11
208.99999908160001
 21
48.750998796353677
 31
0.0
  0
LINE
  5
16F2E
  8
1
 10
215.24999908154629
 20
55.000998796300031
 30
0.0
 11
202.74999908165361
 21
55.000998796300031
 31
0.0
  0
ARC
  5
16F7C
  8
0
 10
382.81679569413927
 20
175.52185979526089
 30
0.0
 40
7.6171112258109623
 50
88.601500522747713
 51
111.39939991486931
  0
ARC
  5
16F7D
  8
0
 10
382.82641845279687
 20
175.52353266503911
 30
0.0
 40
7.619070721595218
 50
111.4713648194918
 51
129.10407674689949
  0
ARC
  5
16F7E
  8
0
 10
384.60725449516701
 20
173.69895711940001
 30
0.0
 40
10.160801461637581
 50
130.40742487194501
 51
147.97240576955559
  0
ARC
  5
16F7F
  8
0
 10
386.2170437359099
 20
172.85990531543251
 30
0.0
 40
11.97138816091339
 50
148.65383063889061
 51
164.80275695079831
  0
ARC
  5
16F80
  8
0
 10
383.1886030114606
 20
175.52185979526089
 30
0.0
 40
7.6171112258109623
 50
68.600600085130665
 51
91.398506485316233
  0
ARC
  5
16F81
  8
0
 10
383.178980252803
 20
175.52353266503911
 30
0.0
 40
7.619070721595218
 50
50.895923253100491
 51
68.528635180508189
  0
ARC
  5
16F82
  8
0
 10
381.39814421043292
 20
173.69895711940001
 30
0.0
 40
10.160801461637581
 50
32.02759423044435
 51
49.592575128055003
  0
ARC
  5
16F83
  8
0
 10
379.78835496968998
 20
172.85990531543251
 30
0.0
 40
11.97138816091339
 50
15.19724304920163
 51
31.346169361109411
  0
LINE
  5
16F89
  8
1
 10
310.00369733839989
 20
72.000999234250088
 30
0.0
 11
142.9999966053
 21
72.000999234250088
 31
0.0
  0
LINE
  5
16F8E
  8
1
 10
170.94753943379979
 20
201.00000102070001
 30
0.0
 11
170.94810540865001
 21
145.0000002157
 31
0.0
  0
LINE
  5
16FDC
  8
1
 10
69.995471865449872
 20
201.00000102070001
 30
0.0
 11
69.996037840300005
 21
145.0000002157
 31
0.0
  0
LINE
  5
16FDD
  8
1
 10
383.00264695655733
 20
201.0000083826144
 30
0.0
 11
383.00321293140752
 21
145.00000757761441
 31
0.0
  0
LINE
  5
16FE0
  8
1
 10
208.99999908160001
 20
147.99999999996169
 30
0.0
 11
208.99999908160001
 21
155.00000049170001
 31
0.0
  0
LINE
  5
16FE1
  8
1
 10
232.99999908160001
 20
147.99999999996169
 30
0.0
 11
232.99999908160001
 21
155.00000049170001
 31
0.0
  0
LINE
  5
170A1
  8
1
 10
366.00269784149992
 20
147.99999999996169
 30
0.0
 11
366.00269784149992
 21
155.00000049170001
 31
0.0
  0
LINE
  5
170A2
  8
1
 10
400.00269784149981
 20
147.99999999996169
 30
0.0
 11
400.00269784149981
 21
155.00000049170001
 31
0.0
  0
LINE
  5
170A3
  8
1
 10
53.000995860800003
 20
147.99999999996169
 30
0.0
 11
53.000995860800003
 21
155.00000049170001
 31
0.0
  0
LINE
  5
170A4
  8
1
 10
87.000995860800003
 20
147.99999999996169
 30
0.0
 11
87.000995860800003
 21
155.00000049170001
 31
0.0
  0
LINE
  5
17147
  8
1
 10
170.94753757115001
 20
281.999002464
 30
0.0
 11
170.94753757115001
 21
265.99900268760001
 31
0.0
  0
LINE
  5
1714F
  8
1
 10
170.94753899709991
 20
82.476715101747246
 30
0.0
 11
170.94753899709991
 21
61.525282490852767
 31
0.0
  0
ARC
  5
171B4
  8
0
 10
289.83906572745019
 20
171.06291426101021
 30
0.0
 40
15.166183631568989
 50
332.27972975211122
 51
0.8195730400142236
  0
ARC
  5
171B5
  8
0
 10
290.40422569154981
 20
172.91506336353629
 30
0.0
 40
15.64353788395335
 50
296.0168009744969
 51
325.2945055566812
  0
LINE
  5
171B6
  8
0
 10
297.26602397859989
 20
158.856756147
 30
0.0
 11
296.47959284479998
 21
158.49453173570001
 31
0.0
  0
ARC
  5
171B8
  8
0
 10
289.93377665670289
 20
172.98891416007851
 30
0.0
 40
14.90114793771362
 50
272.44260280982991
 51
293.62664547325431
  0
ARC
  5
171B9
  8
0
 10
221.29418786129091
 20
-4.8931540224201617
 30
0.0
 40
176.17495029114289
 50
68.467229399525351
 51
70.47025399804707
  0
ARC
  5
171BA
  8
0
 10
267.34360031278118
 20
111.8301509884578
 30
0.0
 40
50.995715371390389
 50
79.652058109261162
 51
86.97690383468705
  0
ARC
  5
171BB
  8
0
 10
263.38596870764428
 20
11.834399750624581
 30
0.0
 40
151.09823216647339
 50
88.630421003014334
 51
91.353427037867363
  0
LINE
  5
171BD
  8
0
 10
259.46614406999993
 20
161.8842404335
 30
0.0
 11
246.32157832379991
 21
161.54202222820001
 31
0.0
  0
ARC
  5
171BE
  8
0
 10
290.5206811595678
 20
170.11158861066809
 30
0.0
 40
13.018685528440329
 50
250.6740824222239
 51
269.20968199500891
  0
ENDSEC
  0
EOF
