  0
SECTION
  2
HEADER
  9
$ACADVER
  1
AC1009
  9
$INSBASE
 10
0.0
 20
0.0
 30
0.0
  9
$EXTMIN
 10
0.0
 20
-2.960436562073669
 30
0.0
  9
$EXTMAX
 10
197.9466497919553092
 20
195.2828093929531121
 30
0.0
  9
$LIMMIN
 10
0.0
 20
0.0
  9
$LIMMAX
 10
420.0
 20
297.0
  9
$ORTHOMODE
 70
     1
  9
$REGENMODE
 70
     1
  9
$FILLMODE
 70
     1
  9
$QTEXTMODE
 70
     0
  9
$MIRRTEXT
 70
     0
  9
$DRAGMODE
 70
     2
  9
$LTSCALE
 40
10.0
  9
$OSMODE
 70
    37
  9
$ATTMODE
 70
     1
  9
$TEXTSIZE
 40
2.5
  9
$TRACEWID
 40
1.0
  9
$TEXTSTYLE
  7
STANDARD
  9
$CLAYER
  8
0
  9
$CELTYPE
  6
BYLAYER
  9
$CECOLOR
 62
   256
  9
$DIMSCALE
 40
1.0
  9
$DIMASZ
 40
2.5
  9
$DIMEXO
 40
0.625
  9
$DIMDLI
 40
3.75
  9
$DIMRND
 40
0.0
  9
$DIMDLE
 40
0.0
  9
$DIMEXE
 40
1.25
  9
$DIMTP
 40
0.0
  9
$DIMTM
 40
0.0
  9
$DIMTXT
 40
2.5
  9
$DIMCEN
 40
2.5
  9
$DIMTSZ
 40
0.0
  9
$DIMTOL
 70
     0
  9
$DIMLIM
 70
     0
  9
$DIMTIH
 70
     0
  9
$DIMTOH
 70
     0
  9
$DIMSE1
 70
     0
  9
$DIMSE2
 70
     0
  9
$DIMTAD
 70
     1
  9
$DIMZIN
 70
     8
  9
$DIMBLK
  1

  9
$DIMASO
 70
     1
  9
$DIMSHO
 70
     1
  9
$DIMPOST
  1

  9
$DIMAPOST
  1

  9
$DIMALT
 70
     0
  9
$DIMALTD
 70
     3
  9
$DIMALTF
 40
0.03937007874016
  9
$DIMLFAC
 40
1.0
  9
$DIMTOFL
 70
     1
  9
$DIMTVP
 40
0.0
  9
$DIMTIX
 70
     0
  9
$DIMSOXD
 70
     0
  9
$DIMSAH
 70
     0
  9
$DIMBLK1
  1

  9
$DIMBLK2
  1

  9
$DIMSTYLE
  2
ISO-25
  9
$DIMCLRD
 70
     0
  9
$DIMCLRE
 70
     0
  9
$DIMCLRT
 70
     0
  9
$DIMTFAC
 40
1.0
  9
$DIMGAP
 40
0.625
  9
$LUNITS
 70
     2
  9
$LUPREC
 70
     1
  9
$SKETCHINC
 40
1.0
  9
$FILLETRAD
 40
0.0
  9
$AUNITS
 70
     0
  9
$AUPREC
 70
     1
  9
$MENU
  1
.
  9
$ELEVATION
 40
0.0
  9
$PELEVATION
 40
0.0
  9
$THICKNESS
 40
0.0
  9
$LIMCHECK
 70
     0
  9
$BLIPMODE
 70
     0
  9
$CHAMFERA
 40
0.0
  9
$CHAMFERB
 40
0.0
  9
$SKPOLY
 70
     0
  9
$TDCREATE
 40
2454083.4444560189731419
  9
$TDUPDATE
 40
2460571.6585185178555548
  9
$TDINDWG
 40
2.6270845022999998
  9
$TDUSRTIMER
 40
2.6270845022999998
  9
$USRTIMER
 70
     1
  9
$ANGBASE
 50
0.0
  9
$ANGDIR
 70
     0
  9
$PDMODE
 70
     0
  9
$PDSIZE
 40
0.0
  9
$PLINEWID
 40
0.0
  9
$COORDS
 70
     1
  9
$SPLFRAME
 70
     0
  9
$SPLINETYPE
 70
     6
  9
$SPLINESEGS
 70
     8
  9
$ATTDIA
 70
     1
  9
$ATTREQ
 70
     1
  9
$HANDLING
 70
     1
  9
$HANDSEED
  5
164BD
  9
$SURFTAB1
 70
     6
  9
$SURFTAB2
 70
     6
  9
$SURFTYPE
 70
     6
  9
$SURFU
 70
     6
  9
$SURFV
 70
     6
  9
$UCSNAME
  2

  9
$UCSORG
 10
0.0
 20
0.0
 30
0.0
  9
$UCSXDIR
 10
1.0
 20
0.0
 30
0.0
  9
$UCSYDIR
 10
0.0
 20
1.0
 30
0.0
  9
$PUCSNAME
  2

  9
$PUCSORG
 10
0.0
 20
0.0
 30
0.0
  9
$PUCSXDIR
 10
1.0
 20
0.0
 30
0.0
  9
$PUCSYDIR
 10
0.0
 20
1.0
 30
0.0
  9
$USERI1
 70
     0
  9
$USERI2
 70
     0
  9
$USERI3
 70
     0
  9
$USERI4
 70
     0
  9
$USERI5
 70
     0
  9
$USERR1
 40
0.0
  9
$USERR2
 40
0.0
  9
$USERR3
 40
0.0
  9
$USERR4
 40
0.0
  9
$USERR5
 40
0.0
  9
$WORLDVIEW
 70
     1
  9
$SHADEDGE
 70
     3
  9
$SHADEDIF
 70
    70
  9
$TILEMODE
 70
     1
  9
$MAXACTVP
 70
    64
  9
$PLIMCHECK
 70
     0
  9
$PEXTMIN
 10
0.0
 20
0.0
 30
0.0
  9
$PEXTMAX
 10
0.0
 20
0.0
 30
0.0
  9
$PLIMMIN
 10
0.0
 20
0.0
  9
$PLIMMAX
 10
12.0
 20
9.0
  9
$UNITMODE
 70
     0
  9
$VISRETAIN
 70
     1
  9
$PLINEGEN
 70
     0
  9
$PSLTSCALE
 70
     1
  0
ENDSEC
  0
SECTION
  2
TABLES
  0
TABLE
  2
VPORT
 70
     1
  0
VPORT
  2
*ACTIVE
 70
     0
 10
0.0
 20
0.0
 11
1.0
 21
1.0
 12
352.2783251231526833
 22
150.0
 13
0.0
 23
0.0
 14
10.0
 24
10.0
 15
10.0
 25
10.0
 16
0.0
 26
0.0
 36
1.0
 17
0.0
 27
0.0
 37
0.0
 40
300.0
 41
2.3485221674876842
 42
50.0
 43
0.0
 44
0.0
 50
0.0
 51
0.0
 71
     0
 72
  1000
 73
     1
 74
     3
 75
     0
 76
     0
 77
     0
 78
     0
  0
ENDTAB
  0
TABLE
  2
LTYPE
 70
     3
  0
LTYPE
  2
CONTINUOUS
 70
     0
  3
Solid line
 72
    65
 73
     0
 40
0.0
  0
LTYPE
  2
CENTER
 70
     0
  3
____ _ ____ _ ____ _ ____ _ ____ _ ____ _ ____
 72
    65
 73
     4
 40
2.0
 49
1.25
 49
-0.25
 49
0.25
 49
-0.25
  0
LTYPE
  2
HIDDEN
 70
     0
  3
Hidden __ __ __ __ __ __ __ __ __ __ __ __ __ __
 72
    65
 73
     2
 40
1.905
 49
1.27
 49
-0.635
  0
ENDTAB
  0
TABLE
  2
LAYER
 70
     5
  0
LAYER
  2
0
 70
     0
 62
     7
  6
CONTINUOUS
  0
LAYER
  2
DEFPOINTS
 70
     0
 62
     7
  6
CONTINUOUS
  0
LAYER
  2
1
 70
     0
 62
     1
  6
CENTER
  0
LAYER
  2
3
 70
     0
 62
     3
  6
CONTINUOUS
  0
LAYER
  2
2
 70
     0
 62
     2
  6
HIDDEN
  0
ENDTAB
  0
TABLE
  2
STYLE
 70
     2
  0
STYLE
  2
STANDARD
 70
     0
 40
0.0
 41
1.0
 50
0.0
 71
     0
 42
2.5
  3
txt
  4

  0
STYLE
  2
STANDARD1
 70
     0
 40
0.0
 41
1.0
 50
0.0
 71
     0
 42
3.0
  3
txt
  4

  0
ENDTAB
  0
TABLE
  2
VIEW
 70
     3
  0
VIEW
  2
OLE1
 70
     0
 40
17.336203194614189
 10
1078.2627039085309661
 20
377.6744486595430885
 41
31.0749116297020009
 11
0.0
 21
0.0
 31
1.0
 12
0.0
 22
0.0
 32
0.0
 42
50.0
 43
0.0
 44
0.0
 50
0.0
 71
     0
  0
VIEW
  2
OLE2
 70
     0
 40
50.523198253338478
 10
1031.7677389415230209
 20
579.9283567158205415
 41
90.5621550086675455
 11
0.0
 21
0.0
 31
1.0
 12
0.0
 22
0.0
 32
0.0
 42
50.0
 43
0.0
 44
0.0
 50
0.0
 71
     0
  0
VIEW
  2
OLE3
 70
     0
 40
95.502301876216066
 10
202.0430959360805048
 20
425.5599226159864088
 41
146.7053432435849061
 11
0.0
 21
0.0
 31
1.0
 12
0.0
 22
0.0
 32
0.0
 42
50.0
 43
0.0
 44
0.0
 50
0.0
 71
     0
  0
ENDTAB
  0
TABLE
  2
UCS
 70
     0
  0
ENDTAB
  0
TABLE
  2
APPID
 70
    44
  0
APPID
  2
ACAD
 70
     0
  0
APPID
  2
_FTCNV
 70
     0
  0
APPID
  2
DCO15
 70
     0
  0
APPID
  2
GENIUS_GENOREF_13
 70
     0
  0
APPID
  2
GENIUS_GENOENT_13
 70
     0
  0
APPID
  2
GENIUS_GENBH_13
 70
     0
  0
APPID
  2
GENIUS_GENOBJ_13
 70
     0
  0
APPID
  2
GENIUS_GENODEF_13
 70
     0
  0
APPID
  2
GENIUS_GENOLIS_13
 70
     0
  0
APPID
  2
GENIUS_GENOBJ-NBEHI-BHF_13
 70
     0
  0
APPID
  2
GENIUS_GENOBJ-NBEHI-BHB_13
 70
     0
  0
APPID
  2
GENIUS_GENOBJ-F-PART_13
 70
     0
  0
APPID
  2
GENIUS_GEFSTDP_13
 70
     0
  0
APPID
  2
GENIUS_GENOBJ-N-RSSYM_13
 70
     0
  0
APPID
  2
GENIUS_GENSYMENT_13
 70
     0
  0
APPID
  2
GENIUS_GENOBJ-N-TIT_13
 70
     0
  0
APPID
  2
GENIUS_GENTITLE_13
 70
     0
  0
APPID
  2
GENIUS_GENZVEED_13
 70
     0
  0
APPID
  2
GENIUS_GENOBJ-N-LEADER_13
 70
     0
  0
APPID
  2
GENIUS_GENOBJ-N-FIL_13
 70
     0
  0
APPID
  2
GENIUS_GENOBJ-N-SEC_13
 70
     0
  0
APPID
  2
GENIUS_GENOBJ-N-CRS_13
 70
     0
  0
APPID
  2
GENIUS_GENOBJ-N-ZOO_13
 70
     0
  0
APPID
  2
GENIUS_GENZOO_13
 70
     0
  0
APPID
  2
GENIUS_GENOBJ-F-TOL_13
 70
     0
  0
APPID
  2
GENIUS_GENFIL_13
 70
     0
  0
APPID
  2
GENIUS_GENOBJ-N-CHA_13
 70
     0
  0
APPID
  2
_CALL_MAC$
 70
     0
  0
APPID
  2
ASM_BASE
 70
     0
  0
APPID
  2
ASM_EXPLO_VER_2_00
 70
     0
  0
APPID
  2
ASM_CADM_VER_12_00
 70
     0
  0
APPID
  2
ASM_BASEFORO
 70
     0
  0
APPID
  2
ASM_BASETRAVI
 70
     0
  0
APPID
  2
ASM_BASETRAVI1
 70
     0
  0
APPID
  2
ASM_GRUPPI
 70
     0
  0
APPID
  2
ASM_CADM_ALBERO
 70
     0
  0
APPID
  2
ASM_GOLE
 70
     0
  0
APPID
  2
ACAD_MLEADERVER
 70
     0
  0
APPID
  2
ACAD_EXEMPT_FROM_CAD_STANDARDS
 70
     0
  0
APPID
  2
ACAD_DSTYLE_DIMJAG
 70
     0
  0
APPID
  2
ACAD_DSTYLE_DIMTALN
 70
     0
  0
APPID
  2
ACAD_NAV_VCDISPLAY
 70
     0
  0
APPID
  2
ACAECLAYERSTANDARD
 70
     0
  0
APPID
  2
ACCMTRANSPARENCY
 70
     0
  0
ENDTAB
  0
TABLE
  2
DIMSTYLE
 70
     2
  0
DIMSTYLE
  2
ISO-25
 70
     0
  3

  4

  5

  6

  7

 40
1.0
 41
2.5
 42
0.625
 43
3.75
 44
1.25
 45
0.0
 46
0.0
 47
0.0
 48
0.0
140
2.5
141
2.5
142
0.0
143
0.03937007874016
144
1.0
145
0.0
146
1.0
147
0.625
 71
     0
 72
     0
 73
     0
 74
     0
 75
     0
 76
     0
 77
     1
 78
     8
170
     0
171
     3
172
     1
173
     0
174
     0
175
     0
176
     0
177
     0
178
     0
  0
DIMSTYLE
  2
STANDARD
 70
     0
  3

  4

  5

  6

  7

 40
1.0
 41
0.18
 42
0.0625
 43
0.38
 44
0.18
 45
0.0
 46
0.0
 47
0.0
 48
0.0
140
0.18
141
0.09
142
0.0
143
25.3999999999999986
144
1.0
145
0.0
146
1.0
147
0.09
 71
     0
 72
     0
 73
     1
 74
     1
 75
     0
 76
     0
 77
     0
 78
     0
170
     0
171
     2
172
     0
173
     0
174
     0
175
     0
176
     0
177
     0
178
     0
  0
ENDTAB
  0
ENDSEC
  0
SECTION
  2
BLOCKS
  0
BLOCK
  8
0
  2
$MODEL_SPACE
 70
     0
 10
0.0
 20
0.0
 30
0.0
  3
$MODEL_SPACE
  1

  0
ENDBLK
  5
21
  8
0
  0
BLOCK
 67
     1
  8
0
  2
$PAPER_SPACE
 70
     0
 10
0.0
 20
0.0
 30
0.0
  3
$PAPER_SPACE
  1

  0
ENDBLK
  5
53
 67
     1
  8
0
  0
ENDSEC
  0
SECTION
  2
ENTITIES
  0
TEXT
  5
C317
  8
0
 62
     3
 10
0.0
 20
0.0
 30
0.0
 40
10.0
  1
ST-H305U-L-S
  7
STANDARD1
  0
LINE
  5
123CC
  8
0
 10
121.5728762512899976
 20
181.7828093929529985
 30
0.0
 11
121.5728762512899976
 21
183.7828093929529985
 31
0.0
  0
LINE
  5
123CD
  8
0
 10
121.5728762512899976
 20
175.7828093929529985
 30
0.0
 11
121.5728762512899976
 21
177.7828093929529985
 31
0.0
  0
ARC
  5
123CE
  8
0
 10
108.5812341897649986
 20
184.5828093929536919
 30
0.0
 40
0.5
 50
0.0
 51
90.0
  0
ARC
  5
123CF
  8
0
 10
108.5812341897648992
 20
174.9828093929536976
 30
0.0
 40
0.5
 50
270.0000000000007958
 51
0.0
  0
LINE
  5
123D0
  8
0
 10
109.0812341897648992
 20
183.7828093929529985
 30
0.0
 11
109.0812341897648992
 21
184.5828093929536919
 31
0.0
  0
LINE
  5
123D1
  8
0
 10
109.0812341897648992
 20
174.9828093929536976
 30
0.0
 11
109.0812341897648992
 21
175.7828093929529985
 31
0.0
  0
LINE
  5
123D2
  8
0
 10
103.2382201303300064
 20
164.2828093929529985
 30
0.0
 11
103.2397547420407022
 21
164.2828093929529985
 31
0.0
  0
LINE
  5
123D3
  8
0
 10
103.2397547420636954
 20
195.2828093929531121
 30
0.0
 11
103.2382201303529996
 21
195.2828093929531121
 31
0.0
  0
LINE
  5
123D7
  8
0
 10
135.7578742497674966
 20
177.7912792843480929
 30
0.0
 11
135.7578742497674966
 21
181.7828093929529985
 31
0.0
  0
LINE
  5
123D8
  8
0
 10
114.0728762512908929
 20
175.7828093929529985
 30
0.0
 11
114.0728762512908929
 21
174.5686893929529901
 31
0.0
  0
ARC
  5
123D9
  8
0
 10
119.5728762512899976
 20
184.5828093929530098
 30
0.0
 40
0.5
 50
0.0
 51
90.0
  0
ARC
  5
123DA
  8
0
 10
115.5728762512899976
 20
184.5828093929530098
 30
0.0
 40
0.5
 50
90.0
 51
180.0
  0
ARC
  5
123DB
  8
0
 10
115.5728762512899976
 20
170.9828093929529871
 30
0.0
 40
0.5
 50
180.0
 51
270.0000000000007958
  0
ARC
  5
123DC
  8
0
 10
119.5728762512899976
 20
170.9828093929529871
 30
0.0
 40
0.5
 50
270.0000000000007958
 51
0.0
  0
LINE
  5
123DD
  8
0
 10
115.0728762512899976
 20
184.5828093929530098
 30
0.0
 11
115.0728762512899976
 21
183.7828093929529985
 31
0.0
  0
LINE
  5
123DE
  8
0
 10
120.0728762512899976
 20
183.7828093929529985
 30
0.0
 11
120.0728762512899976
 21
184.5828093929530098
 31
0.0
  0
LINE
  5
123DF
  8
0
 10
120.0728762512899976
 20
170.9828093929529871
 30
0.0
 11
120.0728762512899976
 21
171.7828093929529985
 31
0.0
  0
LINE
  5
123E0
  8
0
 10
115.0728762512899976
 20
171.7828093929529985
 30
0.0
 11
115.0728762512899976
 21
170.9828093929529871
 31
0.0
  0
LINE
  5
123E1
  8
0
 10
116.0728762512899976
 20
174.5686893929529901
 30
0.0
 11
116.0728762512899976
 21
171.7828093929529985
 31
0.0
  0
LINE
  5
123E2
  8
0
 10
119.0728762512899976
 20
171.7828093929529985
 30
0.0
 11
119.0728762512899976
 21
174.5686893929529901
 31
0.0
  0
ARC
  5
123E3
  8
0
 10
134.2578742497674966
 20
184.5653523538971115
 30
0.0
 40
0.5
 50
0.0
 51
90.0
  0
ARC
  5
123E4
  8
0
 10
130.2578742497674966
 20
184.5653523538971115
 30
0.0
 40
0.5
 50
90.0
 51
180.0
  0
ARC
  5
123E5
  8
0
 10
130.2578742497674966
 20
174.9653523538970035
 30
0.0
 40
0.5
 50
180.0
 51
270.0000000000007958
  0
ARC
  5
123E6
  8
0
 10
134.2578742497674966
 20
174.9653523538970035
 30
0.0
 40
0.5000000000000285
 50
270.0000000000040927
 51
0.0
  0
LINE
  5
123E7
  8
0
 10
134.7578742497674966
 20
174.9653523538970035
 30
0.0
 11
134.7578742497674966
 21
175.7828093929533964
 31
0.0
  0
LINE
  5
123E8
  8
0
 10
129.7578742497674966
 20
175.78280939295351
 30
0.0
 11
129.7578742497674966
 21
174.9653523538970035
 31
0.0
  0
LINE
  5
123E9
  8
0
 10
129.7578742497674966
 20
184.5653523538971115
 30
0.0
 11
129.7578742497674966
 21
183.7828093929533964
 31
0.0
  0
LINE
  5
123EA
  8
0
 10
134.7578742497674966
 20
183.7828093929533964
 30
0.0
 11
134.7578742497674966
 21
184.5653523538971115
 31
0.0
  0
LINE
  5
123EF
  8
0
 10
123.0579346097013058
 20
174.5686893929529901
 30
0.0
 11
123.0579346097013058
 21
168.7653523539107141
 31
0.0
  0
LINE
  5
123F0
  8
0
 10
126.0579346097013058
 20
168.7653523539107141
 30
0.0
 11
126.0579346097013058
 21
174.5686893929529901
 31
0.0
  0
ARC
  5
12407
  8
0
 10
89.7340412889055443
 20
179.7828093960631861
 30
0.0
 40
7.499999999999992
 50
139.67883526659989
 51
220.3211647334011047
  0
ARC
  5
12409
  8
0
 10
89.7340412889055443
 20
179.7828093960631861
 30
0.0
 40
7.5000000000000338
 50
319.6788352666005721
 51
40.3211647334000887
  0
ARC
  5
1240D
  8
0
 10
89.7340412903257061
 20
186.5005162275080863
 30
0.0
 40
13.9097488918397598
 50
252.8489148025336135
 51
287.1510851974679213
  0
ARC
  5
1240E
  8
0
 10
89.7340412903256635
 20
173.0651024414503922
 30
0.0
 40
13.9097490048072405
 50
72.8489149461398426
 51
107.1510850538604984
  0
CIRCLE
  5
1240F
  8
0
 10
89.7340412905406453
 20
179.7828093929529985
 30
0.0
 40
2.5000000000000142
  0
LINE
  5
12411
  8
0
 10
108.2397532701562994
 20
183.7828093929529985
 30
0.0
 11
122.3416222611462985
 21
183.7828093929529985
 31
0.0
  0
LINE
  5
12413
  8
0
 10
122.6911766979132068
 20
175.7828093929529985
 30
0.0
 11
108.2397532701562994
 21
175.7828093929529985
 31
0.0
  0
ARC
  5
12417
  8
0
 10
94.9889986288880692
 20
182.5228093929530075
 30
0.0
 40
2.010000000000026
 50
45.000000000001009
 51
71.7106191578367742
  0
LINE
  5
12418
  8
0
 10
98.2382216022373882
 20
182.1161556799735877
 30
0.0
 11
96.4102832590730259
 21
183.9440940231380068
 31
0.0
  0
LINE
  5
12419
  8
0
 10
98.2382216022373882
 20
177.4494631059324092
 30
0.0
 11
96.4102832590730259
 21
175.6215247627681038
 31
0.0
  0
ARC
  5
1241A
  8
0
 10
94.9889986288880692
 20
177.0428093929529894
 30
0.0
 40
2.0099999999999878
 50
288.2893806425743719
 51
315.0000000000022737
  0
ARC
  5
1241B
  8
0
 10
84.4790839523659827
 20
179.5328093929531121
 30
0.0
 40
4.5
 50
180.0
 51
262.5996005473180048
  0
ARC
  5
1241C
  8
0
 10
84.4790839523659827
 20
180.0328093929529985
 30
0.0
 40
4.5000000000000062
 50
97.400399524745481
 51
180.0
  0
ARC
  5
1241D
  8
0
 10
84.4790839523659827
 20
179.5328093929531121
 30
0.0
 40
2.5000000000000151
 50
180.0000000000015916
 51
214.6602259503245875
  0
ARC
  5
1241E
  8
0
 10
98.5757100248817153
 20
177.7728093929530075
 30
0.0
 40
2.010000000000014
 50
99.6660154696116649
 51
132.5970866077067001
  0
ARC
  5
1241F
  8
0
 10
98.5757100248816869
 20
181.7928093929529894
 30
0.0
 40
2.0100000000000091
 50
227.4029134105616947
 51
260.333984530390012
  0
ARC
  5
12420
  8
0
 10
84.4790839523659827
 20
180.0328093929529985
 30
0.0
 40
2.5000000000000142
 50
145.3397741353165031
 51
180.0
  0
LINE
  5
12421
  8
0
 10
81.9790839523659685
 20
180.0328093929529985
 30
0.0
 11
81.9790839523659685
 21
179.5328093929529985
 31
0.0
  0
LINE
  5
12422
  8
0
 10
79.9790839523659827
 20
179.5328093929531121
 30
0.0
 11
79.9790839523659827
 21
180.0328093929529985
 31
0.0
  0
LINE
  5
12423
  8
0
 10
108.2382186584456036
 20
190.2828093929531121
 30
0.0
 11
108.2382186584456036
 21
169.2828093929531121
 31
0.0
  0
ARC
  5
1242A
  8
0
 10
103.2382209176207937
 20
169.2828087083364039
 30
0.0
 40
4.9999993153834383
 50
179.9999921548701138
 51
269.9999909784436909
  0
ARC
  5
1242D
  8
0
 10
103.238220814958396
 20
190.2828101802319907
 30
0.0
 40
4.9999992127211401
 50
90.0000078451329557
 51
180.0000090215544901
  0
LINE
  5
1242E
  8
0
 10
98.2382216022373882
 20
169.2828093929531121
 30
0.0
 11
98.2382216022373882
 21
190.2828093929531121
 31
0.0
  0
LINE
  5
12447
  8
0
 10
115.2443256121231059
 20
177.7828093929529985
 30
0.0
 11
115.2443256121231059
 21
181.7828093929529985
 31
0.0
  0
LINE
  5
1244B
  8
0
 10
118.4694037902671937
 20
177.7828093929529132
 30
0.0
 11
118.469403792147105
 21
181.7828093929529985
 31
0.0
  0
LINE
  5
1244D
  8
0
 10
128.3243637841657971
 20
177.5606274204835131
 30
0.0
 11
128.3243637841657971
 21
183.0206274204834926
 31
0.0
  0
LINE
  5
1244E
  8
0
 10
122.2445404369138942
 20
177.5606274204835131
 30
0.0
 11
128.3243637841657971
 21
177.5606274204835131
 31
0.0
  0
LINE
  5
1244F
  8
0
 10
122.2445404369138942
 20
183.0206274204834926
 30
0.0
 11
122.2445404369138942
 21
177.5606274204835131
 31
0.0
  0
ARC
  5
12450
  8
0
 10
125.2844521105399025
 20
183.020696890896005
 30
0.0
 40
3.0399116744197321
 50
359.9986906325357268
 51
180.001309367466007
  0
LINE
  5
12458
  8
0
 10
122.7270782071784936
 20
174.6091113964278918
 30
0.0
 11
122.6911766979132068
 21
174.5686893929529901
 31
0.0
  0
ARC
  5
12459
  8
0
 10
15.83070604632778
 20
176.3681404812872984
 30
0.0
 40
106.9108439985041059
 50
359.0572566203986753
 51
0.6390921912106422
  0
ARC
  5
1245A
  8
0
 10
55.1972385843978586
 20
176.2293115578142135
 30
0.0
 40
72.6288596006179716
 50
358.689846789630792
 51
1.0503132343129411
  0
LINE
  5
1245F
  8
0
 10
122.6911766979132068
 20
175.7828093929529985
 30
0.0
 11
122.7400877018735059
 21
175.8089638532443075
 31
0.0
  0
LINE
  5
12460
  8
0
 10
122.6911766979132068
 20
175.7828093929529985
 30
0.0
 11
122.6911766979132068
 21
174.5686893929529901
 31
0.0
  0
LINE
  5
12462
  8
0
 10
122.3097897959737992
 20
174.5686893929529901
 30
0.0
 11
122.6911766979132068
 21
174.5686893929529901
 31
0.0
  0
LINE
  5
12465
  8
0
 10
114.0728762512908929
 20
174.5686893929529901
 30
0.0
 11
127.8071110599217945
 21
174.5686893929529049
 31
0.0
  0
LINE
  5
12468
  8
0
 10
137.1007578595392999
 20
177.7928093929533873
 30
0.0
 11
128.3243637841657971
 21
177.7828093929529132
 31
0.0
  0
LINE
  5
12469
  8
0
 10
122.2445404369138942
 20
177.7828093929529132
 30
0.0
 11
115.2443256121231059
 21
177.7828093929529132
 31
0.0
  0
LINE
  5
1246A
  8
0
 10
137.1007578595392999
 20
181.7728093929534907
 30
0.0
 11
128.3243637841657971
 21
181.7828093929529985
 31
0.0
  0
LINE
  5
1246B
  8
0
 10
122.2445404369138942
 20
181.7828093929529985
 30
0.0
 11
115.2443256121231059
 21
181.7828093929529985
 31
0.0
  0
LINE
  5
1246F
  8
0
 10
120.0728762512899976
 20
171.7828093929529985
 30
0.0
 11
115.0728762512899976
 21
171.7828093929529985
 31
0.0
  0
LINE
  5
12470
  8
0
 10
115.1724729821537068
 20
174.1967150050599002
 30
0.0
 11
115.1376096960433983
 21
174.2296775196759029
 31
0.0
  0
ARC
  5
12471
  8
0
 10
140.70650174227859
 20
174.0470072652192073
 30
0.0
 40
25.5695445578111915
 50
179.0476032526044889
 51
179.5906722691208017
  0
LINE
  5
12475
  8
0
 10
115.8024981459776939
 20
173.296271295671886
 30
0.0
 11
115.1724729821537068
 21
174.1967150050599002
 31
0.0
  0
LINE
  5
12478
  8
0
 10
119.0728762512899976
 20
172.5686893929529901
 30
0.0
 11
123.0579346097013058
 21
172.5686893929531038
 31
0.0
  0
LINE
  5
1247C
  8
0
 10
128.4589646049142004
 20
173.7828093929529985
 30
0.0
 11
128.4589646049142004
 21
172.5686893929529901
 31
0.0
  0
LINE
  5
1247E
  8
0
 10
128.4589646049142004
 20
173.7828093929529985
 30
0.0
 11
126.0579346097013058
 21
173.7828093929531121
 31
0.0
  0
LINE
  5
1247F
  8
0
 10
126.0579346097013058
 20
172.5686893929529901
 30
0.0
 11
128.4589646049142004
 21
172.5686893929529901
 31
0.0
  0
LINE
  5
1248A
  8
0
 10
137.090757859539309
 20
175.78280939295351
 30
0.0
 11
127.8247256860665004
 21
175.78280939295351
 31
0.0
  0
LINE
  5
1248C
  8
0
 10
128.2272697027163133
 20
183.7828093929533964
 30
0.0
 11
137.0907578595393943
 21
183.78280939295351
 31
0.0
  0
LINE
  5
12490
  8
0
 10
136.3619040628717869
 20
175.78280939295351
 30
0.0
 11
136.3619040628717869
 21
177.7919675280708987
 31
0.0
  0
LINE
  5
12493
  8
0
 10
136.3619040628717016
 20
183.78280939295351
 30
0.0
 11
136.3619040628717016
 21
181.7736512578358941
 31
0.0
  0
LINE
  5
12496
  8
0
 10
123.0579346097013058
 20
168.7653523539107141
 30
0.0
 11
126.0579346097013058
 21
168.7653523539107141
 31
0.0
  0
ARC
  5
12499
  8
0
 10
137.090757859539309
 20
181.7728093929534907
 30
0.0
 40
2.00999999999999
 50
0.0
 51
89.9999999999967457
  0
LINE
  5
1249A
  8
0
 10
139.1007578595392999
 20
181.7728093929534907
 30
0.0
 11
139.1007578595392999
 21
177.7928093929533873
 31
0.0
  0
ARC
  5
1249B
  8
0
 10
137.090757859539309
 20
177.7928093929533873
 30
0.0
 40
2.00999999999999
 50
270.0000000000007958
 51
0.0
  0
LINE
  5
1249D
  8
0
 10
137.1007578595392999
 20
177.7928093929533873
 30
0.0
 11
137.1007578595392999
 21
181.7728093929534907
 31
0.0
  0
LINE
  5
124A3
  8
0
 10
110.0681127444420042
 20
175.7728093929534907
 30
0.0
 11
110.0681127444420042
 21
175.78280939295351
 31
0.0
  0
LINE
  5
124A5
  8
0
 10
110.0681127444420042
 20
183.7828093929531974
 30
0.0
 11
110.0681127444419047
 21
183.792809392953302
 31
0.0
  0
CIRCLE
  5
124A6
  8
0
 10
129.8681127444419019
 20
187.78280939295351
 30
0.0
 40
2.25
  0
CIRCLE
  5
124A7
  8
0
 10
116.3681127444419019
 20
187.7828093929533964
 30
0.0
 40
2.2499999999999849
  0
LINE
  5
124A8
  8
0
 10
134.1681127444419133
 20
192.4828093929532997
 30
0.0
 11
112.0681127444419047
 21
192.4828093929532997
 31
0.0
  0
ARC
  5
124A9
  8
0
 10
134.1681127444419133
 20
190.4828093929532997
 30
0.0
 40
2.000000000000028
 50
0.0000000000008142
 51
90.0
  0
ARC
  5
124AA
  8
0
 10
112.0681127444419047
 20
190.482809392953186
 30
0.0
 40
2.000000000000028
 50
90.0
 51
180.0
  0
LINE
  5
124AB
  8
0
 10
136.1681127444419985
 20
183.78280939295351
 30
0.0
 11
136.1681127444419133
 21
190.4828093929532997
 31
0.0
  0
LINE
  5
124AC
  8
0
 10
110.0681127444419047
 20
190.482809392953186
 30
0.0
 11
110.0681127444419047
 21
183.792809392953302
 31
0.0
  0
ARC
  5
124AD
  8
0
 10
129.8681127444419872
 20
171.78280939295351
 30
0.0
 40
2.2500000000000142
 50
159.5567169714674094
 51
180.0000000000015916
  0
ARC
  5
124AE
  8
0
 10
129.8681127444419872
 20
171.78280939295351
 30
0.0
 40
2.2500000000000071
 50
180.0000000000015916
 51
128.7767903516302113
  0
ARC
  5
124AF
  8
0
 10
116.3681127444420014
 20
171.78280939295351
 30
0.0
 40
2.25
 50
114.630492932573901
 51
180.0000000000015916
  0
ARC
  5
124B0
  8
0
 10
116.3681127444420014
 20
171.78280939295351
 30
0.0
 40
2.25
 50
180.0000000000015916
 51
324.2941682045450875
  0
ARC
  5
124B1
  8
0
 10
134.1681127444419985
 20
169.0828093929534077
 30
0.0
 40
2.0
 50
270.0000000000007958
 51
0.0
  0
LINE
  5
124B2
  8
0
 10
112.0681127444420042
 20
167.0828093929534077
 30
0.0
 11
134.1681127444419985
 21
167.0828093929534077
 31
0.0
  0
ARC
  5
124B3
  8
0
 10
112.0681127444420042
 20
169.0828093929534077
 30
0.0
 40
2.0
 50
180.0
 51
270.0000000000007958
  0
LINE
  5
124B4
  8
0
 10
136.1681127444419985
 20
169.0828093929534077
 30
0.0
 11
136.1681127444419985
 21
175.78280939295351
 31
0.0
  0
LINE
  5
124B5
  8
0
 10
110.0681127444420042
 20
175.7728093929534907
 30
0.0
 11
110.0681127444420042
 21
169.0828093929534077
 31
0.0
  0
ARC
  5
124B8
  8
0
 10
103.2382194457245959
 20
169.2828086056740915
 30
0.0
 40
4.9999992127210833
 50
270.0000078451337799
 51
0.0000090215536878
  0
ARC
  5
124B9
  8
0
 10
103.2382193430623971
 20
190.2828100775699909
 30
0.0
 40
4.9999993153832669
 50
359.9999921548679822
 51
89.9999909784442735
  0
LINE
  5
124BC
  8
0
 10
123.0486211792348001
 20
174.1967150050599002
 30
0.0
 11
119.0728762512899976
 21
174.1967150050599002
 31
0.0
  0
LINE
  5
124BE
  8
0
 10
123.0579346097013058
 20
173.296271295671886
 30
0.0
 11
119.0728762512899976
 21
173.296271295671886
 31
0.0
  0
LINE
  5
124C5
  8
0
 10
114.0728762512908929
 20
175.7728093929534907
 30
0.0
 11
110.0681127444420042
 21
175.7728093929534907
 31
0.0
  0
LINE
  5
124C6
  8
0
 10
110.0681127444419047
 20
183.792809392953302
 30
0.0
 11
115.0728762512899976
 21
183.792809392953302
 31
0.0
  0
ARC
  5
124CA
  8
2
 10
116.3681127444282026
 20
171.7828093929533111
 30
0.0
 40
2.2500000000113309
 50
324.7056053235319837
 51
114.6304929322529063
  0
ARC
  5
124CB
  8
2
 10
129.8681127444282026
 20
171.78280939295351
 30
0.0
 40
2.2499999999912932
 50
128.7760311143190108
 51
159.5567169713444002
  0
LINE
  5
124CE
  8
1
 10
144.6951319690398066
 20
179.78280939295351
 30
0.0
 11
74.4378446516853955
 21
179.7828093929529132
 31
0.0
  0
LINE
  5
124CF
  8
1
 10
89.734041284488498
 20
170.5907673356682892
 30
0.0
 11
89.7340412845208419
 21
188.9748514462575883
 31
0.0
  0
LINE
  5
124D0
  8
0
 10
82.234041290637407
 20
114.1010025006803943
 30
0.0
 11
82.2340412906287668
 21
112.8510025006803943
 31
0.0
  0
LINE
  5
124D1
  8
0
 10
97.234041290628781
 20
112.8510025005767972
 30
0.0
 11
97.234041290637407
 21
114.1010025005767972
 31
0.0
  0
LINE
  5
124D2
  8
0
 10
82.234041288905587
 20
123.3510024899061932
 30
0.0
 11
82.2340412906926446
 21
122.1010024899061932
 31
0.0
  0
LINE
  5
124D3
  8
0
 10
97.2340412906926446
 20
122.1010025113510977
 30
0.0
 11
97.2340412889055727
 21
123.3510026130079069
 31
0.0
  0
LINE
  5
124D4
  8
0
 10
84.0840412905113936
 20
106.1010025006012967
 30
0.0
 11
85.9840412905246865
 21
100.1010025006285957
 31
0.0
  0
LINE
  5
124D5
  8
0
 10
93.4840412905566751
 20
100.1010025006285957
 30
0.0
 11
95.3840412905699537
 21
106.1010025006012967
 31
0.0
  0
LINE
  5
124D6
  8
0
 10
95.3840412905698969
 20
106.1010025006012967
 30
0.0
 11
93.9840412905435869
 21
108.6010025006285957
 31
0.0
  0
LINE
  5
124D7
  8
0
 10
85.484041290537661
 20
108.6010025006285957
 30
0.0
 11
84.084041290511351
 21
106.1010025006012967
 31
0.0
  0
LINE
  5
124D8
  8
0
 10
87.2340412905406453
 20
132.9010028403750994
 30
0.0
 11
87.2340412905406453
 21
127.0510025047669984
 31
0.0
  0
LINE
  5
124D9
  8
0
 10
87.2340412905406453
 20
109.1510025007221003
 30
0.0
 11
87.2340412905406453
 21
108.6010025006285957
 31
0.0
  0
LINE
  5
124DA
  8
0
 10
92.2340412905406453
 20
108.6010025006285957
 30
0.0
 11
92.2340412905406453
 21
109.1510025006874969
 31
0.0
  0
LINE
  5
124DB
  8
0
 10
92.2340412905406453
 20
127.0510025119152999
 30
0.0
 11
92.2340412905406737
 21
132.9010028403750994
 31
0.0
  0
ARC
  5
124DC
  8
0
 10
89.7340412905889337
 20
107.0779124191268039
 30
0.0
 40
8.4532869557978376
 50
60.9717538512092005
 51
119.0282461479998943
  0
ARC
  5
124DE
  8
0
 10
89.7340412905846136
 20
106.4529124191268039
 30
0.0
 40
8.4532869557978483
 50
60.9717538512088382
 51
119.0282461479994964
  0
LINE
  5
124E5
  8
0
 10
82.2340412906287668
 20
112.8510025006803943
 30
0.0
 11
97.234041290628781
 21
112.8510025005767972
 31
0.0
  0
LINE
  5
124EC
  8
0
 10
89.7340412906244893
 20
112.2322003470358993
 30
0.0
 11
89.7340412967179049
 21
109.7698046577874038
 31
0.0
  0
LINE
  5
124EE
  8
0
 10
93.7340412890726924
 20
112.8510025006009982
 30
0.0
 11
93.7340412982536435
 21
109.1510025006962934
 31
0.0
  0
LINE
  5
124F1
  8
0
 10
85.7340412906031872
 20
109.1510025007513036
 30
0.0
 11
85.7340412906287668
 21
112.8510025006563069
 31
0.0
  0
LINE
  5
124FD
  8
0
 10
93.7340412982536435
 20
109.1510025006962934
 30
0.0
 11
85.7340412906220877
 21
109.1510025007513036
 31
0.0
  0
ARC
  5
124FE
  8
0
 10
89.7340412806519652
 20
129.1240926076274036
 30
0.0
 40
8.4532869661456225
 50
240.9717539724418032
 51
299.0282461913876091
  0
ARC
  5
12500
  8
0
 10
89.7340412797584435
 20
129.7490926103212985
 30
0.0
 40
8.4532869661459014
 50
240.9717539724429116
 51
299.0282461913864722
  0
LINE
  5
1250C
  8
0
 10
89.7340412845005631
 20
126.4322003585285046
 30
0.0
 11
89.7340412941312024
 21
123.9698046692797959
 31
0.0
  0
LINE
  5
1250F
  8
0
 10
93.7340412965559011
 20
123.3510025184226038
 30
0.0
 11
93.7340412820598061
 21
127.0510025407489962
 31
0.0
  0
LINE
  5
12512
  8
0
 10
85.7340412836363583
 20
127.0510024948342931
 30
0.0
 11
85.7340412889014942
 21
123.3510025069852958
 31
0.0
  0
LINE
  5
12517
  8
0
 10
97.2340412889055727
 20
123.3510026130079069
 30
0.0
 11
82.2340412889055443
 21
123.3510024899061932
 31
0.0
  0
LINE
  5
1251B
  8
0
 10
93.7340412820598061
 20
127.0510025407489962
 30
0.0
 11
85.7340412836363583
 21
127.0510024948342931
 31
0.0
  0
LINE
  5
12520
  8
0
 10
95.3840412905699537
 20
106.1010025006012967
 30
0.0
 11
84.0840412905113936
 21
106.1010025006012967
 31
0.0
  0
LINE
  5
12521
  8
0
 10
85.9840412905246865
 20
100.1010025006285957
 30
0.0
 11
93.4840412905566751
 21
100.1010025006285957
 31
0.0
  0
LINE
  5
12522
  8
0
 10
85.484041290537661
 20
108.6010025006285957
 30
0.0
 11
93.9840412905435869
 21
108.6010025006285957
 31
0.0
  0
CIRCLE
  5
12526
  8
0
 10
106.5812341897648992
 20
121.7995146205121983
 30
0.0
 40
2.5000000000000151
  0
LINE
  5
12527
  8
0
 10
106.425334331550701
 20
117.8025538708657933
 30
0.0
 11
115.1315142152088953
 21
117.4629728005332936
 31
0.0
  0
LINE
  5
12528
  8
0
 10
116.8064445687758024
 20
125.4037259335669034
 30
0.0
 11
106.7371340479773067
 21
125.7964753701573954
 31
0.0
  0
ARC
  5
12529
  8
0
 10
106.5812341897639044
 20
121.7995146205116015
 30
0.0
 40
4.0000000000000711
 50
87.7663332730615906
 51
267.7663332730635943
  0
LINE
  5
1252A
  8
0
 10
79.9790839523659827
 20
122.101002500388006
 30
0.0
 11
79.9790839523659827
 21
114.1010025003879065
 31
0.0
  0
LINE
  5
1252B
  8
0
 10
79.9790839523659827
 20
122.101002500388006
 30
0.0
 11
84.0158211990483323
 21
122.101002500388006
 31
0.0
  0
LINE
  5
1252D
  8
0
 10
84.0158211114849962
 20
114.1010025006682014
 30
0.0
 11
79.9790839523659827
 21
114.1010025003879065
 31
0.0
  0
LINE
  5
12530
  8
0
 10
100.5027287897013935
 20
114.101002500388006
 30
0.0
 11
95.4522614697897609
 21
114.1010025005892032
 31
0.0
  0
LINE
  5
12533
  8
0
 10
100.779083952365994
 20
122.101002500388006
 30
0.0
 11
95.4522614698447853
 21
122.1010025208791063
 31
0.0
  0
LINE
  5
12535
  8
0
 10
98.5757100248817153
 20
122.101002500388006
 30
0.0
 11
98.5757100248817153
 21
114.1010025003879065
 31
0.0
  0
ARC
  5
12538
  8
0
 10
111.6643811011167031
 20
118.0952969803879995
 30
0.0
 40
3.0
 50
187.2967271423815987
 51
270.0000000000007958
  0
LINE
  5
12539
  8
0
 10
111.976169079558403
 20
115.0952969803879995
 30
0.0
 11
111.6643811011167031
 21
115.0952969803879995
 31
0.0
  0
ARC
  5
1253A
  8
0
 10
110.5935235634854052
 20
115.0952969803879995
 30
0.0
 40
6.5000000000000266
 50
212.7647663059069032
 51
268.4025055713759116
  0
ARC
  5
1253B
  8
0
 10
100.5027287897013935
 20
108.6010025040581013
 30
0.0
 40
5.4999999963298301
 50
32.7647663059059582
 51
90.0
  0
ARC
  5
1253C
  8
0
 10
100.779083952365994
 20
125.1010025003879065
 30
0.0
 40
2.9999999999999529
 50
270.0000000000007958
 51
310.0533083813530766
  0
ARC
  5
12540
  8
0
 10
107.2397535645355049
 20
136.0932460669284012
 30
0.0
 40
0.9999999999999898
 50
270.0439633914202204
 51
0.0439633914202652
  0
ARC
  5
12542
  8
0
 10
99.2397559195688928
 20
136.0871076200857033
 30
0.0
 40
1.000000000000018
 50
180.0439633914209878
 51
270.0439633914219257
  0
ARC
  5
12544
  8
0
 10
99.238221307858197
 20
138.087107031327406
 30
0.0
 40
1.000000000000018
 50
90.0439633914202915
 51
180.0439633914243132
  0
ARC
  5
12546
  8
0
 10
107.2382189528247949
 20
138.0932454781699903
 30
0.0
 40
1.000000000000046
 50
0.0439633914186368
 51
90.0439633914210731
  0
LINE
  5
12547
  8
0
 10
98.2428254373694045
 20
132.0863414917469925
 30
0.0
 11
98.2382216022373882
 21
138.0863397254719871
 31
0.0
  0
LINE
  5
12548
  8
0
 10
108.2382186584456036
 20
138.0940127840252956
 30
0.0
 11
108.2397532701562994
 21
136.0940133727837065
 31
0.0
  0
CIRCLE
  5
1254B
  8
0
 10
117.5728762512899976
 20
121.3707900104250967
 30
0.0
 40
2.4999999999999849
  0
LINE
  5
12552
  8
0
 10
123.0666015224912968
 20
120.5267087486687956
 30
0.0
 11
123.0056183182773992
 21
112.5269411864950939
 31
0.0
  0
ARC
  5
12553
  8
0
 10
124.5935721793689055
 20
112.5148360204586027
 30
0.0
 40
1.5880000000000321
 50
179.5632357421391987
 51
299.5632357421412166
  0
LINE
  5
12554
  8
0
 10
125.3770657286100061
 20
111.1335750536976974
 30
0.0
 11
127.2642807709934942
 21
112.2040612596502029
 31
0.0
  0
ARC
  5
12555
  8
0
 10
127.6589878486967962
 20
111.5082119061182055
 30
0.0
 40
0.7999999999999945
 50
359.5632357421404777
 51
119.5632357421408045
  0
LINE
  5
12556
  8
0
 10
128.4589646049142004
 20
111.5021135856968044
 30
0.0
 11
128.4520922713105904
 21
110.6006018965820061
 31
0.0
  0
ARC
  5
12557
  8
0
 10
127.6521155150932003
 20
110.606700217003393
 30
0.0
 40
0.8000000000000181
 50
296.2394357421421773
 51
359.563235742142524
  0
LINE
  5
12558
  8
0
 10
128.0058141681610095
 20
109.889136796239697
 30
0.0
 11
123.8453115762687986
 21
107.8383575616027059
 31
0.0
  0
ARC
  5
12559
  8
0
 10
122.4020058452393016
 20
110.5846519910920023
 30
0.0
 40
3.1024610435373492
 50
199.6983147145984958
 51
297.7240187946849801
  0
LINE
  5
1255A
  8
0
 10
119.4810993959226977
 20
109.5389129983178975
 30
0.0
 11
115.1385754141483062
 21
118.3892598160099965
 31
0.0
  0
LINE
  5
1255C
  8
0
 10
115.7959537907021996
 20
116.4643306893684951
 30
0.0
 11
115.1659286268782978
 21
117.3696033203599001
 31
0.0
  0
LINE
  5
12561
  8
0
 10
115.1659286268782978
 20
117.3696033203599001
 30
0.0
 11
115.131314714673394
 21
117.4368023502762952
 31
0.0
  0
LINE
  5
12562
  8
0
 10
115.131314714673394
 20
117.4368023502762952
 30
0.0
 11
115.1404896142620942
 21
118.6403642992150935
 31
0.0
  0
CIRCLE
  5
12567
  8
0
 10
123.6298736768714974
 20
128.8248346968032934
 30
0.0
 40
0.4999999999999968
  0
ARC
  5
12569
  8
0
 10
117.5728762512908929
 20
121.3707900104259068
 30
0.0
 40
3.500000000000024
 50
132.2653741394861129
 51
207.6647127096431973
  0
LINE
  5
1256A
  8
0
 10
115.2188973321158016
 20
123.960921908241005
 30
0.0
 11
122.3097897959737992
 21
130.4053085404972023
 31
0.0
  0
ARC
  5
1256B
  8
0
 10
121.2632572396026944
 20
131.4276252482833911
 30
0.0
 40
1.4629975538473341
 50
315.6706155863861909
 51
347.4279695255594902
  0
LINE
  5
1256D
  8
0
 10
127.8071110599217945
 20
131.0701798435088108
 30
0.0
 11
127.8060247228428068
 21
130.9276743087827128
 31
0.0
  0
ARC
  5
1256E
  8
0
 10
125.8060828322994951
 20
130.9429201098361091
 30
0.0
 40
1.99999999999996
 50
334.5632357421408756
 51
359.5632357421408756
  0
LINE
  5
1256F
  8
0
 10
127.6122025873796986
 20
130.0838907562578868
 30
0.0
 11
123.0666015224912968
 21
120.5267087486687956
 31
0.0
  0
LINE
  5
12571
  8
0
 10
122.7270782071784936
 20
131.5300643139916872
 30
0.0
 11
122.6911766979132068
 21
131.1091792353684866
 31
0.0
  0
LINE
  5
12572
  8
0
 10
122.740745865636498
 20
133.3229856960788879
 30
0.0
 11
122.7270782071784936
 21
131.5300643139916872
 31
0.0
  0
LINE
  5
12573
  8
0
 10
127.8239890764361064
 20
133.2842355128537974
 30
0.0
 11
122.740745865636498
 21
133.3229856960788879
 31
0.0
  0
LINE
  5
12574
  8
0
 10
127.8071110599217945
 20
131.0701798435088108
 30
0.0
 11
127.8239890764361064
 21
133.2842355128537974
 31
0.0
  0
ARC
  5
1257D
  8
0
 10
109.2387819806930054
 20
137.3602405880305071
 30
0.0
 40
0.9999999999999943
 50
180.0439633914243132
 51
254.8970792415499034
  0
LINE
  5
12585
  8
0
 10
110.8791548887455036
 20
127.2719952725389021
 30
0.0
 11
115.2443256121232054
 21
133.386876934465306
 31
0.0
  0
LINE
  5
12589
  8
0
 10
103.103833626711193
 20
127.6045277193904042
 30
0.0
 11
107.2831819812704026
 21
127.9411116563818069
 31
0.0
  0
ARC
  5
1258B
  8
0
 10
107.8451078280976958
 20
120.9637024421627984
 30
0.0
 40
7.0000000000000178
 50
64.3142290482470429
 51
94.6043798677718542
  0
ARC
  5
1258D
  8
0
 10
104.0277074795081944
 20
118.0510535895290047
 30
0.0
 40
19.0
 50
53.8182698622330875
 51
74.8970792415467344
  0
ARC
  5
1258F
  8
0
 10
102.7426125643903987
 20
132.0897942057738135
 30
0.0
 40
4.4997884516650721
 50
180.0439633914214994
 51
274.6043798677731047
  0
LINE
  5
12590
  8
0
 10
122.2276938267498991
 20
131.6127269496332133
 30
0.0
 11
122.2445404369138942
 21
133.8226627386835901
 31
0.0
  0
LINE
  5
12591
  8
0
 10
122.2445404369138942
 20
133.8226627386835901
 30
0.0
 11
128.3243637841657971
 21
133.7763155034811007
 31
0.0
  0
LINE
  5
12592
  8
0
 10
128.3075171740017879
 20
131.5663797144306955
 30
0.0
 11
128.3243637841657971
 21
133.7763155034811007
 31
0.0
  0
LINE
  5
12593
  8
0
 10
128.3075171740017879
 20
131.5663797144306955
 30
0.0
 11
127.8109225101851933
 21
131.5701653161447098
 31
0.0
  0
LINE
  5
12594
  8
0
 10
122.7276792993856986
 20
131.6089154993698003
 30
0.0
 11
122.2276938267498991
 21
131.6127269496332133
 31
0.0
  0
ARC
  5
12595
  8
0
 10
106.8043256119974984
 20
116.0786725637929067
 30
0.0
 40
17.9999999999976588
 50
49.604514233309331
 51
64.6765345163555025
  0
ARC
  5
12596
  8
0
 10
130.1344819685367895
 20
143.4958898620361936
 30
0.0
 40
17.9999999999976907
 50
255.7199612251843064
 51
270.2408657414845834
  0
ARC
  5
12597
  8
0
 10
130.1344819685367895
 20
143.4958898620361936
 30
0.0
 40
17.9999999999977085
 50
229.6045142333105105
 51
236.4961526995863039
  0
ARC
  5
12598
  8
0
 10
125.2999405864102016
 20
111.119784024451306
 30
0.0
 40
9.5000000030289584
 50
95.4674283233824212
 51
103.6050357334022038
  0
ARC
  5
12599
  8
0
 10
108.7124332020681976
 20
123.5742043578550948
 30
0.0
 40
5.00000000000004
 50
23.1526290312669616
 51
58.8941605372947166
  0
CIRCLE
  5
1259A
  8
0
 10
115.0675058462505973
 20
128.3688696851324949
 30
0.0
 40
0.7499999999999996
  0
LINE
  5
1259E
  8
0
 10
136.1681127444281003
 20
100.588349680579995
 30
0.0
 11
110.068112744428106
 21
100.5883496807607997
 31
0.0
  0
LINE
  5
125A0
  8
0
 10
110.0681127444420042
 20
102.5883496807607997
 30
0.0
 11
136.1681127444419985
 21
102.5883496805795971
 31
0.0
  0
CIRCLE
  5
125A6
  8
0
 10
124.5579346097013058
 20
112.5952969803879995
 30
0.0
 40
1.500000000000004
  0
CIRCLE
  5
125A9
  8
0
 10
132.2578742497674966
 20
122.1010025003344026
 30
0.0
 40
2.49999999999998
  0
LINE
  5
125AD
  8
0
 10
130.0369213600478133
 20
125.3583998644407984
 30
0.0
 11
123.058347189826506
 21
119.4439066304502006
 31
0.0
  0
ARC
  5
125AE
  8
0
 10
132.2998469035580058
 20
122.6883496805435954
 30
0.0
 40
3.5000000000000591
 50
3.5441507314148679
 51
130.2820005268038983
  0
LINE
  5
125AF
  8
0
 10
136.3619040628717869
 20
113.7218453905154973
 30
0.0
 11
135.7931530120532955
 21
122.9047114894422066
 31
0.0
  0
LINE
  5
125B0
  8
0
 10
139.1007578595392999
 20
113.7218453904964974
 30
0.0
 11
136.3619040628717869
 21
113.7218453905154973
 31
0.0
  0
LINE
  5
125B2
  8
0
 10
139.1007578594698941
 20
103.721845390496398
 30
0.0
 11
136.1681127444497861
 21
103.7218453905168047
 31
0.0
  0
LINE
  5
125B3
  8
0
 10
111.9486881160931944
 20
114.9894914724295063
 30
0.0
 11
110.0681127444736944
 21
107.1658517258356937
 31
0.0
  0
ARC
  5
125B4
  8
0
 10
114.8656043281150971
 20
114.2883496807469044
 30
0.0
 40
3.0000000000000089
 50
90.0
 51
166.4841744908050032
  0
LINE
  5
125B5
  8
0
 10
115.2224771580676048
 20
117.2883496807469044
 30
0.0
 11
114.8656043281150971
 21
117.2883496807469044
 31
0.0
  0
LINE
  5
125B6
  8
0
 10
136.1681127444281003
 20
100.588349680579995
 30
0.0
 11
136.1681127444497861
 21
103.7218453905168047
 31
0.0
  0
LINE
  5
125B7
  8
0
 10
110.0681127444736944
 20
107.1658517258356937
 30
0.0
 11
110.068112744428106
 21
100.5883496807607997
 31
0.0
  0
LINE
  5
125B9
  8
0
 10
139.1007578594698941
 20
103.7218453904964974
 30
0.0
 11
139.1007578595392999
 21
113.7218453904964974
 31
0.0
  0
LINE
  5
125BF
  8
1
 10
89.7340412905406879
 20
135.1010025006285957
 30
0.0
 11
89.7340412905407021
 21
97.1840680312645446
 31
0.0
  0
LINE
  5
125C0
  8
1
 10
89.7340412905407021
 20
98.1010025006286384
 30
0.0
 11
89.7340412905406879
 21
135.1010025006285957
 31
0.0
  0
LINE
  5
125C1
  8
1
 10
129.8681127444559991
 20
104.5883496806232955
 30
0.0
 11
129.8681127444143897
 21
98.588349680623466
 31
0.0
  0
LINE
  5
125C2
  8
1
 10
116.3681127444559991
 20
104.5883496807170019
 30
0.0
 11
116.3681127444144039
 21
98.5883496807171866
 31
0.0
  0
LINE
  5
125C3
  8
0
 10
29.3984998028133013
 20
115.526805999134595
 30
0.0
 11
28.3159680480827589
 21
114.901805999134595
 31
0.0
  0
LINE
  5
125C4
  8
0
 10
42.6840319519177029
 20
114.901805999134595
 30
0.0
 11
41.6015001971871499
 21
115.526805999134595
 31
0.0
  0
LINE
  5
125C5
  8
0
 10
39.4999999999812985
 20
109.151002500723493
 30
0.0
 11
40.118802160267883
 21
109.7698046610100988
 31
0.0
  0
LINE
  5
125C6
  8
0
 10
30.8811978461793117
 20
109.7698046545634014
 30
0.0
 11
31.5000000000190497
 21
109.1510025007237061
 31
0.0
  0
LINE
  5
125C7
  8
0
 10
31.5000000000002593
 20
112.8510025005340935
 30
0.0
 11
30.881197846485211
 21
112.2322003470190026
 31
0.0
  0
LINE
  5
125C8
  8
0
 10
40.1188021534813473
 20
112.2322003470528955
 30
0.0
 11
39.50000000000027
 21
112.8510025005339941
 31
0.0
  0
LINE
  5
125C9
  8
0
 10
28.3159680500753907
 20
121.3001989842473023
 30
0.0
 11
29.398499806361059
 21
120.6751989869407993
 31
0.0
  0
LINE
  5
125CA
  8
0
 10
41.6015002007349324
 20
120.6751990173043936
 30
0.0
 11
42.684031953910349
 21
121.3001990199980042
 31
0.0
  0
LINE
  5
125CB
  8
0
 10
31.4999999877025516
 20
127.0510024906000979
 30
0.0
 11
30.8811978322594491
 21
126.4322003320775991
 31
0.0
  0
LINE
  5
125CC
  8
0
 10
40.1188021392556422
 20
126.4322003619943047
 30
0.0
 11
39.4999999876648502
 21
127.0510025105055973
 31
0.0
  0
LINE
  5
125CD
  8
0
 10
39.499999996776161
 20
123.3510025105813952
 30
0.0
 11
40.1188021591357327
 21
123.9698046760204022
 31
0.0
  0
LINE
  5
125CE
  8
0
 10
30.8811978385667807
 20
123.969804646033495
 30
0.0
 11
31.4999999970039006
 21
123.3510024906757963
 31
0.0
  0
LINE
  5
125CF
  8
0
 10
29.8499999999709793
 20
106.1010025006012967
 30
0.0
 11
31.7499999999842899
 21
100.1010025006285957
 31
0.0
  0
LINE
  5
125D0
  8
0
 10
39.250000000016243
 20
100.1010025006285957
 30
0.0
 11
41.1500000000295429
 21
106.1010025006012967
 31
0.0
  0
LINE
  5
125D1
  8
0
 10
41.1500000000295429
 20
106.1010025006012967
 30
0.0
 11
39.7500000000032188
 21
108.6010025006285957
 31
0.0
  0
LINE
  5
125D2
  8
0
 10
31.2499999999972999
 20
108.6010025006285957
 30
0.0
 11
29.8499999999709793
 21
106.1010025006012967
 31
0.0
  0
LINE
  5
125D3
  8
0
 10
33.0000000000002771
 20
132.9010028403750994
 30
0.0
 11
33.0000000000002771
 21
127.0510024898870967
 31
0.0
  0
LINE
  5
125D4
  8
0
 10
33.0000000000002771
 20
109.1510025007264062
 30
0.0
 11
33.0000000000002771
 21
108.6010025006285957
 31
0.0
  0
LINE
  5
125D5
  8
0
 10
38.00000000000027
 20
108.6010025006285957
 30
0.0
 11
38.0000000000002771
 21
109.1510025007264062
 31
0.0
  0
LINE
  5
125D6
  8
0
 10
38.00000000000027
 20
127.0510025023281031
 30
0.0
 11
38.00000000000027
 21
132.9010028403750994
 31
0.0
  0
ARC
  5
125D7
  8
0
 10
30.6999999999993598
 20
123.7995146205121983
 30
0.0
 40
0.5
 50
90.0
 51
180.0
  0
ARC
  5
125D8
  8
0
 10
30.6999999999993491
 20
119.7995146205120989
 30
0.0
 40
0.5
 50
180.0
 51
270.0000000000007958
  0
ARC
  5
125D9
  8
0
 10
40.2999999999993577
 20
119.7995146205121983
 30
0.0
 40
0.5
 50
270.0
 51
0.0
  0
ARC
  5
125DA
  8
0
 10
40.2999999999993577
 20
123.7995146205121983
 30
0.0
 40
0.5
 50
0.0
 51
90.0
  0
LINE
  5
125DB
  8
0
 10
30.6999999999993491
 20
119.2995146205121983
 30
0.0
 11
30.7500000000002913
 21
119.2995146205121983
 31
0.0
  0
LINE
  5
125DC
  8
0
 10
30.8811978379600092
 20
124.2995146205121983
 30
0.0
 11
30.6999999999993598
 21
124.2995146205121983
 31
0.0
  0
LINE
  5
125DD
  8
0
 10
40.2999999999993577
 20
124.2995146205121983
 30
0.0
 11
40.1188021510998496
 21
124.2995146205121983
 31
0.0
  0
LINE
  5
125DE
  8
0
 10
40.2500000000002913
 20
119.2995146205121983
 30
0.0
 11
40.2999999999993506
 21
119.2995146205121983
 31
0.0
  0
LINE
  5
125E2
  8
0
 10
20.0000000000000497
 20
138.093245183790799
 30
0.0
 11
20.0000000000000497
 21
136.0871079144648945
 31
0.0
  0
LINE
  5
125E3
  8
0
 10
51.0000000000000426
 20
136.0871079144648093
 30
0.0
 11
51.0000000000000426
 21
138.0932451837909127
 31
0.0
  0
ARC
  5
125E7
  8
0
 10
30.6999999999999282
 20
119.3707900104250967
 30
0.0
 40
0.5
 50
180.0
 51
270.0000000000007958
  0
ARC
  5
125E8
  8
0
 10
44.299999999999919
 20
119.3707900104250967
 30
0.0
 40
0.5
 50
270.0000000000007958
 51
359.9999999999976126
  0
ARC
  5
125E9
  8
0
 10
44.2999999999999332
 20
123.3707900104250967
 30
0.0
 40
0.5
 50
0.0
 51
90.0
  0
LINE
  5
125EA
  8
0
 10
30.6999999999999282
 20
118.8707900104250967
 30
0.0
 11
30.7500000000002913
 21
118.8707900104250967
 31
0.0
  0
LINE
  5
125EB
  8
0
 10
44.2999999999999332
 20
123.8707900104250967
 30
0.0
 11
43.4999999999999289
 21
123.8707900104250967
 31
0.0
  0
LINE
  5
125EC
  8
0
 10
43.4999999999999218
 20
118.8707900104250967
 30
0.0
 11
44.299999999999919
 21
118.8707900104250967
 31
0.0
  0
LINE
  5
125ED
  8
0
 10
40.7999999999993577
 20
119.8707900104250967
 30
0.0
 11
43.4999999999999218
 21
119.8707900104250967
 31
0.0
  0
LINE
  5
125EE
  8
0
 10
43.4999999999999289
 20
122.8707900104250967
 30
0.0
 11
41.6478238629675701
 21
122.8707900104250967
 31
0.0
  0
LINE
  5
125EF
  8
0
 10
41.4999999999998934
 20
107.4821909475546988
 30
0.0
 11
42.7141199999998875
 21
107.4821909475546988
 31
0.0
  0
LINE
  5
125F0
  8
0
 10
29.2221819724694107
 20
133.799489121082388
 30
0.0
 11
29.2221819724694107
 21
131.5895533320320112
 31
0.0
  0
LINE
  5
125F1
  8
0
 10
40.1188021551358673
 20
111.0952969803879995
 30
0.0
 11
41.4999999999999432
 21
111.0952969803879995
 31
0.0
  0
LINE
  5
125F2
  8
0
 10
42.7141199999999301
 20
111.0952969803879995
 30
0.0
 11
46.5174570390422275
 21
111.0952969803879995
 31
0.0
  0
LINE
  5
125F3
  8
0
 10
46.5174570390422275
 20
114.0952969803879995
 30
0.0
 11
42.7141199999999372
 21
114.0952969803879995
 31
0.0
  0
ARC
  5
125F6
  8
0
 10
30.7174570390557413
 20
124.1010025003344026
 30
0.0
 40
0.5
 50
90.0
 51
180.0
  0
ARC
  5
125F8
  8
0
 10
40.3174570390557534
 20
124.1010025003344026
 30
0.0
 40
0.5
 50
0.0
 51
37.5025805062340822
  0
LINE
  5
125F9
  8
0
 10
30.881197837644109
 20
124.6010025003344026
 30
0.0
 11
30.7174570390557413
 21
124.6010025003344026
 31
0.0
  0
LINE
  5
125FB
  8
0
 10
30.6469640447723783
 20
114.1010025006682014
 30
0.0
 11
30.7874838101945585
 21
114.101002500350404
 31
0.0
  0
LINE
  5
125FC
  8
0
 10
40.2125161898059602
 20
114.1010025003503046
 30
0.0
 11
40.3530359552281794
 21
114.1010025006682014
 31
0.0
  0
LINE
  5
125FE
  8
0
 10
30.6469640447723783
 20
112.8510025006681019
 30
0.0
 11
40.3530359552281723
 21
112.8510025006681019
 31
0.0
  0
LINE
  5
12605
  8
0
 10
29.39849980281328
 20
115.526805999134595
 30
0.0
 11
30.00904973234476
 21
114.469302500656994
 31
0.0
  0
LINE
  5
12606
  8
0
 10
28.3159680480827305
 20
114.901805999134595
 30
0.0
 11
28.9265179776142105
 21
113.844302500656994
 31
0.0
  0
LINE
  5
12607
  8
0
 10
40.9909502676557835
 20
114.4693025006568945
 30
0.0
 11
41.6015001971871499
 21
115.526805999134595
 31
0.0
  0
LINE
  5
12608
  8
0
 10
42.0734820223863295
 20
113.8443025006568945
 30
0.0
 11
42.6840319519176887
 21
114.901805999134595
 31
0.0
  0
LINE
  5
1260B
  8
0
 10
30.88119784650209
 20
112.2322003470359988
 30
0.0
 11
30.8811978429554799
 21
109.7698046577873043
 31
0.0
  0
LINE
  5
1260E
  8
0
 10
33.1905989267697024
 20
109.7698046578151008
 30
0.0
 11
33.190598923232308
 21
112.2322003470541034
 31
0.0
  0
LINE
  5
12614
  8
0
 10
37.8094010413671029
 20
109.7698046365914024
 30
0.0
 11
37.8094010767398174
 21
112.2322003470541034
 31
0.0
  0
LINE
  5
1261A
  8
0
 10
40.1188021534982866
 20
112.2322003470358993
 30
0.0
 11
40.1188021570450815
 21
109.7698046577874038
 31
0.0
  0
LINE
  5
1261C
  8
0
 10
39.4999999999995808
 20
109.1510025007047062
 30
0.0
 11
31.500000000037911
 21
109.1510025007048057
 31
0.0
  0
LINE
  5
1261F
  8
0
 10
40.3530359552282931
 20
122.1010025045289069
 30
0.0
 11
30.6469640447724885
 21
122.1010024803781988
 31
0.0
  0
LINE
  5
12621
  8
0
 10
40.3530359521180273
 20
123.3510025045289069
 30
0.0
 11
30.6469640416622298
 21
123.3510024803781988
 31
0.0
  0
LINE
  5
12628
  8
0
 10
30.0090497332612394
 20
121.7327024811016969
 30
0.0
 11
29.3984998063610696
 21
120.6751989869407993
 31
0.0
  0
LINE
  5
12629
  8
0
 10
28.9265179769755783
 20
122.3577024784081999
 30
0.0
 11
28.3159680500753907
 21
121.3001989842473023
 31
0.0
  0
LINE
  5
1262A
  8
0
 10
41.6015002007349111
 20
120.6751990173043936
 30
0.0
 11
40.9909502685722629
 21
121.7327025084268968
 31
0.0
  0
LINE
  5
1262B
  8
0
 10
42.6840319539103419
 20
121.3001990199979048
 30
0.0
 11
42.0734820217476866
 21
122.3577025111204932
 31
0.0
  0
LINE
  5
1262E
  8
0
 10
30.8811978357253594
 20
126.4322003355433992
 30
0.0
 11
30.8811978383054786
 21
123.9698046462949037
 31
0.0
  0
LINE
  5
12631
  8
0
 10
33.1905989124744067
 20
126.4322003355709967
 30
0.0
 11
33.1905989221199391
 21
123.9698046463226007
 31
0.0
  0
LINE
  5
12636
  8
0
 10
37.8094010659725015
 20
126.4322003470634996
 30
0.0
 11
37.8094010791650277
 21
123.9698046578152031
 31
0.0
  0
LINE
  5
1263D
  8
0
 10
40.118802142721492
 20
126.4322003585285046
 30
0.0
 11
40.1188021523951193
 21
123.9698046692797959
 31
0.0
  0
LINE
  5
1263E
  8
0
 10
39.5000000306118721
 20
127.0510024675586038
 30
0.0
 11
31.4999999877213988
 21
127.0510024906189983
 31
0.0
  0
LINE
  5
12640
  8
0
 10
41.1500000000295287
 20
106.1010025006012967
 30
0.0
 11
29.8499999999709793
 21
106.1010025006012967
 31
0.0
  0
LINE
  5
12641
  8
0
 10
31.7499999999842792
 20
100.1010025006285957
 30
0.0
 11
39.2500000000162501
 21
100.1010025006285957
 31
0.0
  0
LINE
  5
12642
  8
0
 10
31.2499999999972999
 20
108.6010025006285957
 30
0.0
 11
39.750000000003233
 21
108.6010025006285957
 31
0.0
  0
LINE
  5
12648
  8
0
 10
35.2500000000003411
 20
114.101002500388006
 30
0.0
 11
35.2500000000003411
 21
122.101002500388006
 31
0.0
  0
LINE
  5
12649
  8
0
 10
30.7500000000002913
 20
122.101002500388006
 30
0.0
 11
30.7500000000002913
 21
114.101002500388006
 31
0.0
  0
LINE
  5
1264A
  8
0
 10
30.7874838101945585
 20
114.101002500350404
 30
0.0
 11
35.2500000000003411
 21
114.101002500388006
 31
0.0
  0
LINE
  5
1264C
  8
0
 10
40.2500000000002913
 20
122.101002500388006
 30
0.0
 11
40.2500000000002913
 21
114.1010025003879065
 31
0.0
  0
LINE
  5
1264D
  8
0
 10
35.7500000000002984
 20
122.101002500388006
 30
0.0
 11
35.7500000000002984
 21
114.1010025003879065
 31
0.0
  0
LINE
  5
1264E
  8
0
 10
40.2125161898059602
 20
114.1010025003503046
 30
0.0
 11
35.7500000000002984
 21
114.1010025003879065
 31
0.0
  0
LINE
  5
12650
  8
0
 10
35.2500000000003411
 20
114.101002500388006
 30
0.0
 11
35.7500000000002984
 21
114.1010025003879065
 31
0.0
  0
LINE
  5
1265F
  8
0
 10
21.0000000000000497
 20
135.0871079144648945
 30
0.0
 11
31.5000000000001883
 21
135.0871079144648093
 31
0.0
  0
LINE
  5
12662
  8
0
 10
32.5000000000001918
 20
134.0871082088440005
 30
0.0
 11
32.5000000000000497
 21
128.0964878618862883
 31
0.0
  0
LINE
  5
12664
  8
0
 10
39.5000000000001776
 20
135.0871079144648945
 30
0.0
 11
50.0000000000000426
 21
135.0871079144648093
 31
0.0
  0
LINE
  5
12666
  8
0
 10
38.5000000000001776
 20
134.0871082088440005
 30
0.0
 11
38.5000000000000426
 21
128.0964878618862883
 31
0.0
  0
ARC
  5
12669
  8
0
 10
31.5000001471897804
 20
134.0871080616543907
 30
0.0
 40
0.9999998528104294
 50
0.000008433344653
 51
90.0000084333434245
  0
ARC
  5
1266A
  8
0
 10
39.4999998528106389
 20
134.0871080616543907
 30
0.0
 40
0.9999998528104862
 50
89.9999915666594035
 51
179.9999915666552965
  0
LINE
  5
1266D
  8
0
 10
21.0000000000000391
 20
139.093245183790799
 30
0.0
 11
50.0000000000000284
 21
139.0932451837909127
 31
0.0
  0
LINE
  5
12673
  8
0
 10
40.7141199999999586
 20
119.1291685055457066
 30
0.0
 11
40.7141199999999586
 21
119.5193278513749959
 31
0.0
  0
LINE
  5
12676
  8
0
 10
41.0860943878930698
 20
118.2280908616872068
 30
0.0
 11
41.0531318732770387
 21
118.2625770601821955
 31
0.0
  0
ARC
  5
12677
  8
0
 10
41.9840765137597813
 20
119.1263694614583954
 30
0.0
 40
1.269958753718412
 50
202.5006342217893973
 51
222.8572092591342937
  0
LINE
  5
1267B
  8
0
 10
43.4999999999999289
 20
123.8707900104250967
 30
0.0
 11
43.4999999999999218
 21
118.8707907463730038
 31
0.0
  0
LINE
  5
1267E
  8
0
 10
41.9865380972811124
 20
117.3228182306956029
 30
0.0
 11
41.0860943878930698
 21
118.2280908616872068
 31
0.0
  0
LINE
  5
12680
  8
0
 10
41.1280256121068888
 20
116.4643306893684951
 30
0.0
 11
40.2500000000002913
 21
117.3470649987566929
 31
0.0
  0
LINE
  5
12684
  8
0
 10
40.7141199999999372
 20
124.0797013896493013
 30
0.0
 11
40.7141199999999088
 21
130.4053085404972023
 31
0.0
  0
LINE
  5
12685
  8
0
 10
39.4999999999999289
 20
131.1063726527862912
 30
0.0
 11
39.4999999999999716
 21
127.0510025105245973
 31
0.0
  0
LINE
  5
1268A
  8
0
 10
42.7141199999998875
 20
107.4821909475546988
 30
0.0
 11
42.7141199999999515
 21
115.5607104330393042
 31
0.0
  0
LINE
  5
1268C
  8
0
 10
41.4999999999999503
 20
115.5607104330392048
 30
0.0
 11
41.4999999999999432
 21
115.351002500640007
 31
0.0
  0
LINE
  5
1268D
  8
0
 10
41.4999999999999218
 20
113.2160615696327994
 30
0.0
 11
41.4999999999998934
 21
107.4821909475546988
 31
0.0
  0
LINE
  5
12697
  8
0
 10
40.7141199999999088
 20
130.4053085404972023
 30
0.0
 11
40.714119999999923
 21
131.1091792353684866
 31
0.0
  0
LINE
  5
12699
  8
0
 10
40.6736979965249716
 20
131.5300643139916872
 30
0.0
 11
40.714119999999923
 21
131.1091792353684866
 31
0.0
  0
ARC
  5
1269A
  8
0
 10
38.5000240972353112
 20
131.1088826736209114
 30
0.0
 40
2.2141030225891929
 50
10.9660178416801006
 51
90.0006235797843459
  0
ARC
  5
1269B
  8
0
 10
38.5000108834368433
 20
131.1089086398565087
 30
0.0
 40
0.9999923322084441
 50
359.8546973740808994
 51
90.0006235797833369
  0
LINE
  5
1269F
  8
0
 10
39.4999999999995808
 20
109.1510025007047062
 30
0.0
 11
39.4999999999995808
 21
108.6010025006285957
 31
0.0
  0
LINE
  5
126A0
  8
0
 10
40.0376599404005304
 20
102.5883496807607997
 30
0.0
 11
48.1999999999995623
 21
102.5883496807607997
 31
0.0
  0
LINE
  5
126A2
  8
0
 10
48.1999999999995623
 20
100.5883496807607997
 30
0.0
 11
39.509999999999593
 21
100.5883496807607997
 31
0.0
  0
LINE
  5
126A3
  8
0
 10
39.509999999999593
 20
100.5883496807607997
 30
0.0
 11
39.4051924849449833
 21
100.5910840319768056
 31
0.0
  0
LINE
  5
126A4
  8
0
 10
31.5948075150555283
 20
100.5910840319769051
 30
0.0
 11
31.4899999999997817
 21
100.5883496807607997
 31
0.0
  0
LINE
  5
126A5
  8
0
 10
31.4899999999997817
 20
100.5883496807607997
 30
0.0
 11
22.7999999999997698
 21
100.5883496807607997
 31
0.0
  0
LINE
  5
126A7
  8
0
 10
22.7999999999997698
 20
102.5883496807607997
 30
0.0
 11
30.9623400595999883
 21
102.5883496807607997
 31
0.0
  0
LINE
  5
126A8
  8
0
 10
31.4999999999997904
 20
108.6010025006285957
 30
0.0
 11
31.4999999999997904
 21
109.1510025007430045
 31
0.0
  0
LINE
  5
126A9
  8
0
 10
22.7999999999997698
 20
102.5883496807607997
 30
0.0
 11
22.7999999999997698
 21
100.5883496807607997
 31
0.0
  0
LINE
  5
126AD
  8
0
 10
48.1999999999995623
 20
100.5883496807607997
 30
0.0
 11
48.1999999999995623
 21
102.5883496807607997
 31
0.0
  0
LINE
  5
126B1
  8
0
 10
46.5174570390422275
 20
111.0952969803879995
 30
0.0
 11
46.5174570390422275
 21
114.0952969803879995
 31
0.0
  0
LINE
  5
126C6
  8
1
 10
35.5000000000001208
 20
145.0061601260460122
 30
0.0
 11
35.5000000000002984
 21
94.4135549240385217
 31
0.0
  0
LINE
  5
126C7
  8
1
 10
43.4999999999995026
 20
104.5883496807170019
 30
0.0
 11
43.4999999999995097
 21
98.5883496807171866
 31
0.0
  0
LINE
  5
126C8
  8
1
 10
27.4999999999996092
 20
104.5883496807171014
 30
0.0
 11
27.4999999999996305
 21
98.5883496807170872
 31
0.0
  0
LINE
  5
126C9
  8
0
 10
189.6306817438727137
 20
114.901805999134595
 30
0.0
 11
188.548149989142189
 21
115.526805999134595
 31
0.0
  0
LINE
  5
126CA
  8
0
 10
187.0654519454365925
 20
112.2322003470526965
 30
0.0
 11
186.4466497919551955
 21
112.8510025005340935
 31
0.0
  0
LINE
  5
126CB
  8
0
 10
186.4466497919364087
 20
109.1510025007237061
 30
0.0
 11
187.0654519522564954
 21
109.769804661043807
 31
0.0
  0
LINE
  5
126CC
  8
0
 10
177.827847638100792
 20
109.7698046545968964
 30
0.0
 11
178.4394336347426986
 21
109.158218657955004
 31
0.0
  0
LINE
  5
126CD
  8
0
 10
188.5481499855943923
 20
120.6751989869407993
 30
0.0
 11
189.6306817418800961
 21
121.3001989842473023
 31
0.0
  0
LINE
  5
126CE
  8
0
 10
187.0654519527290915
 20
126.4322003390444991
 30
0.0
 11
186.4466498042530134
 21
127.0510024906000979
 31
0.0
  0
LINE
  5
126CF
  8
0
 10
188.096649791984504
 20
106.1010025006012967
 30
0.0
 11
186.6966497919582082
 21
108.6010025006285957
 31
0.0
  0
LINE
  5
126D0
  8
0
 10
178.1966497919522965
 20
108.6010025006285957
 30
0.0
 11
176.796649791925887
 21
106.1010025006012967
 31
0.0
  0
LINE
  5
126D1
  8
0
 10
176.796649791925887
 20
106.1010025006012967
 30
0.0
 11
177.9089898516122901
 21
102.5883496805796966
 31
0.0
  0
LINE
  5
126D2
  8
0
 10
178.5414573070669064
 20
100.5910840317987009
 30
0.0
 11
178.6966497919393078
 21
100.1010025006285957
 31
0.0
  0
LINE
  5
126D3
  8
0
 10
186.1966497919711969
 20
100.1010025006285957
 30
0.0
 11
186.351842276843513
 21
100.5910840317986015
 31
0.0
  0
LINE
  5
126D4
  8
0
 10
186.9843097322981009
 20
102.5883496805794977
 30
0.0
 11
188.096649791984504
 21
106.1010025006012967
 31
0.0
  0
LINE
  5
126D5
  8
0
 10
179.9466497919551955
 20
127.3826117718109998
 30
0.0
 11
179.9466497919551955
 21
127.0510025112563994
 31
0.0
  0
LINE
  5
126D6
  8
0
 10
184.9466497919551955
 20
127.051002498815393
 30
0.0
 11
184.9466497919551955
 21
127.3834325743712981
 31
0.0
  0
LINE
  5
126D9
  8
0
 10
184.4466497919553092
 20
125.6010025003344026
 30
0.0
 11
180.4466497919551955
 21
125.6010025003344026
 31
0.0
  0
LINE
  5
126DB
  8
0
 10
176.4466497919553092
 20
112.3082119061182027
 30
0.0
 11
175.2325297919551872
 21
112.3082119061182027
 31
0.0
  0
LINE
  5
126DC
  8
0
 10
188.7244678194857102
 20
131.5663797144306955
 30
0.0
 11
188.7244678194857102
 21
133.7763155034811859
 31
0.0
  0
LINE
  5
126DD
  8
0
 10
175.2325297919551872
 20
107.4821909475546988
 30
0.0
 11
176.4466497919553092
 21
107.4821909475546988
 31
0.0
  0
ARC
  5
126DE
  8
0
 10
173.6466497919552125
 20
123.3707900104250967
 30
0.0
 40
0.5
 50
90.0
 51
180.0
  0
ARC
  5
126DF
  8
0
 10
173.6466497919552978
 20
119.3707900104250967
 30
0.0
 40
0.5
 50
180.0
 51
270.0000000000007958
  0
ARC
  5
126E0
  8
0
 10
187.2466497919552921
 20
119.3707900104250967
 30
0.0
 40
0.5
 50
270.0000000000007958
 51
0.0
  0
LINE
  5
126E2
  8
0
 10
173.6466497919552978
 20
118.8707900104250967
 30
0.0
 11
174.4466497919553092
 21
118.8707900104250967
 31
0.0
  0
LINE
  5
126E3
  8
0
 10
174.4466497919553092
 20
123.8707900104250967
 30
0.0
 11
173.6466497919552125
 21
123.8707900104250967
 31
0.0
  0
LINE
  5
126E4
  8
0
 10
186.4466497919553092
 20
118.8707900104250967
 30
0.0
 11
187.2466497919552921
 21
118.8707900104250967
 31
0.0
  0
LINE
  5
126E5
  8
0
 10
180.4466497919551955
 20
117.9611844491173969
 30
0.0
 11
184.4466497919553092
 21
117.9611844491173969
 31
0.0
  0
LINE
  5
126E6
  8
0
 10
177.1291927528993142
 20
122.8707900104250967
 30
0.0
 11
174.4466497919553092
 21
122.8707900104250967
 31
0.0
  0
LINE
  5
126E7
  8
0
 10
174.4466497919553092
 20
119.8707900104250967
 30
0.0
 11
177.185343443459999
 21
119.8707900104250967
 31
0.0
  0
ARC
  5
126E8
  8
0
 10
167.9466496447656993
 20
136.090176990696591
 30
0.0
 40
0.9999998528104326
 50
180.0000084333470909
 51
270.0000096391237889
  0
ARC
  5
126E9
  8
0
 10
196.9466499391444927
 20
136.0901769906969037
 30
0.0
 40
0.999999852810898
 50
269.9999240999329118
 51
359.9999915666414836
  0
LINE
  5
126EA
  8
0
 10
166.9466497919553092
 20
138.0901762547487124
 30
0.0
 11
166.9466497919553092
 21
136.0901768435070096
 31
0.0
  0
LINE
  5
126EB
  8
0
 10
197.9466497919553092
 20
136.0901768435070096
 30
0.0
 11
197.9466497919553092
 21
138.0901762547485987
 31
0.0
  0
ARC
  5
126EC
  8
0
 10
167.9466496447660973
 20
138.0901761075587899
 30
0.0
 40
0.9999998528108127
 50
89.999924099932116
 51
179.9999915666438994
  0
ARC
  5
126ED
  8
0
 10
196.9466499391448053
 20
138.0901761075589889
 30
0.0
 40
0.9999998528105146
 50
0.000008433344653
 51
90.0000096391213162
  0
LINE
  5
126EE
  8
0
 10
180.4466497919557071
 20
126.1883496805436948
 30
0.0
 11
178.4466497919557071
 21
126.1883496805436948
 31
0.0
  0
LINE
  5
126EF
  8
0
 10
186.4466497919557071
 20
126.1883496805434959
 30
0.0
 11
184.4466497919557071
 21
126.1883496805434959
 31
0.0
  0
ARC
  5
126F0
  8
0
 10
177.6291927528993142
 20
124.1010025003344026
 30
0.0
 40
0.5
 50
90.0
 51
180.0
  0
ARC
  5
126F1
  8
0
 10
177.6291927528993142
 20
120.1010025003344026
 30
0.0
 40
0.5
 50
180.0
 51
270.0000000000007958
  0
ARC
  5
126F2
  8
0
 10
187.2466497919552921
 20
120.1010025003344026
 30
0.0
 40
0.5
 50
270.0000000000007958
 51
354.2563324778828928
  0
ARC
  5
126F3
  8
0
 10
187.2291927528993085
 20
124.1010025003344026
 30
0.0
 40
0.5
 50
0.0
 51
90.0
  0
LINE
  5
126F4
  8
0
 10
177.6291927528993142
 20
119.6010025003344026
 30
0.0
 11
178.4438585431504976
 21
119.6010025003344026
 31
0.0
  0
LINE
  5
126F5
  8
0
 10
178.4459771872182898
 20
124.6010025003344026
 30
0.0
 11
177.6291927528993142
 21
124.6010025003344026
 31
0.0
  0
LINE
  5
126F6
  8
0
 10
187.2291927528993085
 20
124.6010025003344026
 30
0.0
 11
186.4466497919557071
 21
124.6010025003344026
 31
0.0
  0
LINE
  5
126F7
  8
0
 10
186.4466497919557071
 20
119.6010025003344026
 30
0.0
 11
187.2466497919552921
 21
119.6010025003344026
 31
0.0
  0
LINE
  5
126FC
  8
0
 10
178.4466497919557071
 20
114.0952969803879995
 30
0.0
 11
171.4291927529129111
 21
114.0952969803879995
 31
0.0
  0
LINE
  5
126FD
  8
0
 10
171.4291927529129111
 20
111.0952969803879995
 30
0.0
 11
175.2325297919551872
 21
111.0952969803879995
 31
0.0
  0
LINE
  5
126FE
  8
0
 10
176.4466497919553092
 20
111.0952969803879995
 30
0.0
 11
178.4402544306421134
 21
111.0952969803879995
 31
0.0
  0
LINE
  5
12701
  8
0
 10
186.446649791955906
 20
112.8510025005847979
 30
0.0
 11
187.2996857471831902
 21
112.8510025005891038
 31
0.0
  0
LINE
  5
12703
  8
0
 10
187.0951119417775885
 20
114.1010025003294999
 30
0.0
 11
187.2996857471831902
 21
114.1010025005892032
 31
0.0
  0
LINE
  5
12709
  8
0
 10
176.4466497919553944
 20
115.3510025006165023
 30
0.0
 11
176.9556995242996891
 21
114.4693025006003069
 31
0.0
  0
LINE
  5
1270A
  8
0
 10
187.9376000596107872
 20
114.4693025006003069
 30
0.0
 11
188.548149989142189
 21
115.526805999134595
 31
0.0
  0
LINE
  5
1270B
  8
0
 10
189.0201318143413118
 20
113.8443025006003069
 30
0.0
 11
189.6306817438727137
 21
114.901805999134595
 31
0.0
  0
LINE
  5
1270D
  8
0
 10
177.8278476368195982
 20
111.0952969803879995
 30
0.0
 11
177.8278476349103983
 21
109.7698046577874038
 31
0.0
  0
LINE
  5
12710
  8
0
 10
187.0654519454533897
 20
112.2322003470359988
 30
0.0
 11
187.0654519489999927
 21
109.7698046577873043
 31
0.0
  0
LINE
  5
12713
  8
0
 10
187.7371209995075105
 20
121.9527406439717936
 30
0.0
 11
187.9376000586943007
 21
121.732702492830299
 31
0.0
  0
LINE
  5
12715
  8
0
 10
188.5481499855943923
 20
120.6751989869407993
 30
0.0
 11
187.9376000586943007
 21
121.732702492830299
 31
0.0
  0
LINE
  5
12716
  8
0
 10
189.6306817418800961
 20
121.3001989842473023
 30
0.0
 11
189.0201318149800045
 21
122.3577024901367025
 31
0.0
  0
LINE
  5
12719
  8
0
 10
180.1372487257077069
 20
126.1883496805436948
 30
0.0
 11
180.1372487259642128
 21
126.4322003584914
 31
0.0
  0
LINE
  5
1271A
  8
0
 10
180.1372487259642128
 20
126.4322003584914
 30
0.0
 11
180.4466497919553092
 21
126.5601731173063058
 31
0.0
  0
LINE
  5
1271B
  8
0
 10
184.4466497919553944
 20
126.5627784091498
 30
0.0
 11
184.7560508794715872
 21
126.4322003469988971
 31
0.0
  0
LINE
  5
1271C
  8
0
 10
184.756050875362007
 20
126.1883496805434959
 30
0.0
 11
184.7560508794715872
 21
126.4322003469988971
 31
0.0
  0
LINE
  5
1271F
  8
0
 10
187.0654519562301061
 20
126.4322003355433992
 30
0.0
 11
187.0654519543114134
 21
124.6010025003344026
 31
0.0
  0
LINE
  5
12720
  8
0
 10
180.4466497919551955
 20
127.0510025105006946
 30
0.0
 11
178.9825481891504069
 21
127.0510025120316016
 31
0.0
  0
LINE
  5
12721
  8
0
 10
185.9107514193933071
 20
127.0510024947927974
 30
0.0
 11
184.4466497919553092
 21
127.0510025005477956
 31
0.0
  0
LINE
  5
12722
  8
0
 10
178.9825481891504069
 20
127.0510025120316016
 30
0.0
 11
178.446649804309601
 21
127.0510025105245973
 31
0.0
  0
LINE
  5
12723
  8
0
 10
186.4466498042341129
 20
127.0510024906189983
 30
0.0
 11
185.9107514193933071
 21
127.0510024947927974
 31
0.0
  0
LINE
  5
12724
  8
0
 10
178.446649791955906
 20
106.1010025006012967
 30
0.0
 11
176.796649791925887
 21
106.1010025006012967
 31
0.0
  0
LINE
  5
12725
  8
0
 10
188.096649791984504
 20
106.1010025006012967
 30
0.0
 11
186.446649791955906
 21
106.1010025006012967
 31
0.0
  0
LINE
  5
12726
  8
0
 10
186.446649791955906
 20
108.6010025006285957
 30
0.0
 11
186.6966497919582082
 21
108.6010025006285957
 31
0.0
  0
LINE
  5
12727
  8
0
 10
178.1966497919522965
 20
108.6010025006285957
 30
0.0
 11
178.4391975262014967
 21
108.6010025006285957
 31
0.0
  0
LINE
  5
12728
  8
0
 10
182.4466497919551955
 20
100.1010025006285957
 30
0.0
 11
186.1966497919711969
 21
100.1010025006285957
 31
0.0
  0
LINE
  5
12729
  8
0
 10
178.6966497919393078
 20
100.1010025006285957
 30
0.0
 11
182.4466497919551955
 21
100.1010025006285957
 31
0.0
  0
LINE
  5
1272D
  8
0
 10
184.4466497919553092
 20
116.5952969803879995
 30
0.0
 11
180.4466497919553092
 21
116.5952969803879995
 31
0.0
  0
LINE
  5
1272F
  8
0
 10
186.6079344221402039
 20
114.101002500388006
 30
0.0
 11
186.4466497919557924
 21
114.101002500388006
 31
0.0
  0
LINE
  5
12730
  8
0
 10
177.6966497919551955
 20
117.2871450357201013
 30
0.0
 11
177.6966497919551955
 21
114.0952969803879995
 31
0.0
  0
LINE
  5
12732
  8
0
 10
187.1966497919553092
 20
114.101002500388006
 30
0.0
 11
187.1966497919553092
 21
118.8707900104250967
 31
0.0
  0
LINE
  5
12733
  8
0
 10
186.6079344221402039
 20
114.101002500388006
 30
0.0
 11
187.0951119417775885
 21
114.1010025003294999
 31
0.0
  0
LINE
  5
12735
  8
0
 10
184.4466497919557071
 20
102.5983496805793038
 30
0.0
 11
184.4466497919557071
 21
103.7218453904965969
 31
0.0
  0
LINE
  5
12736
  8
0
 10
180.4466497919557071
 20
102.5983496805797017
 30
0.0
 11
180.4466497919557071
 21
103.7218453904964974
 31
0.0
  0
LINE
  5
1273B
  8
0
 10
176.4466497919553092
 20
107.4821909475546988
 30
0.0
 11
176.4466497919553092
 21
112.3082119061182027
 31
0.0
  0
LINE
  5
1273C
  8
0
 10
175.2325297919551872
 20
112.3082119061182027
 30
0.0
 11
175.2325297919551872
 21
107.4821909475546988
 31
0.0
  0
LINE
  5
12740
  8
0
 10
180.2244678194857102
 20
131.5663797144306955
 30
0.0
 11
180.2244678194857102
 21
133.7763155034811007
 31
0.0
  0
LINE
  5
12741
  8
0
 10
180.2244678194857102
 20
133.7763155034811007
 30
0.0
 11
188.7244678194857102
 21
133.7763155034811859
 31
0.0
  0
LINE
  5
12743
  8
0
 10
188.7244678194857102
 20
131.5663797144306955
 30
0.0
 11
180.2244678194857102
 21
131.5663797144306955
 31
0.0
  0
LINE
  5
1274B
  8
0
 10
179.4466497919551955
 20
132.0701507887806088
 30
0.0
 11
180.2244678194857102
 21
132.0701507887806088
 31
0.0
  0
ARC
  5
1274C
  8
0
 10
179.4466352648020973
 20
131.070165315933707
 30
0.0
 40
0.9999854729523939
 50
89.9991676433442507
 51
179.9991676191679062
  0
ARC
  5
12750
  8
0
 10
179.4466176270950939
 20
131.0701476777140044
 30
0.0
 40
2.2140878353734981
 50
89.999167643348926
 51
179.9991676191613976
  0
LINE
  5
12751
  8
0
 10
180.2244678194857102
 20
133.2842355128537974
 30
0.0
 11
179.4466497919551955
 21
133.2842355128537974
 31
0.0
  0
LINE
  5
12754
  8
0
 10
179.4466497919551955
 20
133.3229856960788879
 30
0.0
 11
180.2244678194857102
 21
133.3229856960788879
 31
0.0
  0
LINE
  5
12758
  8
0
 10
178.4466497919555081
 20
126.1883496805436948
 30
0.0
 11
178.4466497919551955
 21
131.0701798435088108
 31
0.0
  0
LINE
  5
12759
  8
0
 10
177.2325297919551872
 20
131.0701798435088108
 30
0.0
 11
177.2325297919551872
 21
124.4054010801850012
 31
0.0
  0
ARC
  5
1275C
  8
0
 10
175.9626379428476923
 20
119.0660557808041062
 30
0.0
 40
2.4840118491154271
 50
314.9989667163638956
 51
357.1510063794884218
  0
LINE
  5
1275D
  8
0
 10
177.7190678892364133
 20
117.309562481649607
 30
0.0
 11
176.8186241798483138
 21
116.4091449344089
 31
0.0
  0
ARC
  5
1275E
  8
0
 10
177.7165945000880072
 20
115.5111422252297046
 30
0.0
 40
1.2699447081367581
 50
134.9989667163673062
 51
179.9998561243735082
  0
ARC
  5
1275F
  8
0
 10
177.7165416410630883
 20
115.5111391765815938
 30
0.0
 40
2.4840118491156469
 50
134.9989667163690967
 51
179.9998561243735082
  0
LINE
  5
12760
  8
0
 10
176.860555404062211
 20
118.1680500229768001
 30
0.0
 11
175.9601116946741115
 21
117.2676324757360931
 31
0.0
  0
ARC
  5
12761
  8
0
 10
175.9625850838228871
 20
119.0660527321558959
 30
0.0
 40
1.26994470813636
 50
314.9989667163570175
 51
359.9998561243796189
  0
LINE
  5
12762
  8
0
 10
177.2325297919551872
 20
119.796603920483804
 30
0.0
 11
177.2325297919553009
 21
119.0660495431935004
 31
0.0
  0
LINE
  5
12763
  8
0
 10
176.4466497919553092
 20
114.0952969803879995
 30
0.0
 11
176.4466497919553092
 21
115.5111454141921001
 31
0.0
  0
LINE
  5
12764
  8
0
 10
175.2325297919553009
 20
115.5111454141921001
 30
0.0
 11
175.2325297919553009
 21
114.0952969803879995
 31
0.0
  0
LINE
  5
12771
  8
0
 10
174.4466497919553092
 20
118.8707907463730038
 30
0.0
 11
174.4466497919553092
 21
123.8707900104250967
 31
0.0
  0
LINE
  5
12774
  8
0
 10
179.4466497919551955
 20
128.0964878618862883
 30
0.0
 11
179.4466497919551955
 21
132.0701507887806088
 31
0.0
  0
LINE
  5
12776
  8
0
 10
185.4466497919551955
 20
131.5663797144306955
 30
0.0
 11
185.4466497919551955
 21
128.0964878618862883
 31
0.0
  0
LINE
  5
1277F
  8
0
 10
184.4466497919551955
 20
136.394781238105395
 30
0.0
 11
180.4466497919551955
 21
136.3947812381055087
 31
0.0
  0
ARC
  5
1278A
  8
0
 10
178.4466499391448053
 20
134.0932465084970886
 30
0.0
 40
0.999999852810401
 50
0.0000084333430245
 51
90.0000084333430266
  0
ARC
  5
1278C
  8
0
 10
186.4466496447656993
 20
134.0932465084970886
 30
0.0
 40
0.9999998528105146
 50
89.999991566661862
 51
179.9999915666537049
  0
LINE
  5
12792
  8
0
 10
167.9466498130001071
 20
135.0901771378862009
 30
0.0
 11
178.4466497919551955
 21
135.0932463613075072
 31
0.0
  0
LINE
  5
12797
  8
0
 10
186.4466497919551955
 20
135.0932463613075072
 30
0.0
 11
196.946648614438601
 21
135.0901771378869114
 31
0.0
  0
LINE
  5
127A0
  8
0
 10
196.9466497709105113
 20
139.0901759603694927
 30
0.0
 11
167.9466509694719889
 21
139.0901759603688106
 31
0.0
  0
LINE
  5
127A7
  8
0
 10
180.456649791955698
 20
113.7218453904964974
 30
0.0
 11
178.4413673748836118
 21
113.7218453905103956
 31
0.0
  0
LINE
  5
127A9
  8
0
 10
178.4466497919557071
 20
103.7218453905103956
 30
0.0
 11
186.4466497919557071
 21
103.7218453904549023
 31
0.0
  0
LINE
  5
127AD
  8
0
 10
184.4366497919556878
 20
113.7218453904964974
 30
0.0
 11
180.456649791955698
 21
113.7218453904964974
 31
0.0
  0
LINE
  5
127B0
  8
0
 10
186.4466497919557071
 20
113.7218453905103956
 30
0.0
 11
184.4366497919556878
 21
113.7218453904964974
 31
0.0
  0
ARC
  5
127B7
  8
0
 10
178.4366497919556878
 20
102.5983496805797017
 30
0.0
 40
2.0100000000000189
 50
270.0000000000007958
 51
0.0
  0
LINE
  5
127B8
  8
0
 10
178.4366497919556878
 20
100.5883496805796966
 30
0.0
 11
169.74664979195569
 21
100.5883496805796966
 31
0.0
  0
LINE
  5
127BA
  8
0
 10
169.74664979195569
 20
102.5883496805796966
 30
0.0
 11
178.4366497919556878
 21
102.5883496805796966
 31
0.0
  0
LINE
  5
127BF
  8
0
 10
186.4466497919557071
 20
102.5883496805794977
 30
0.0
 11
195.1466497919556105
 21
102.5883496805795971
 31
0.0
  0
LINE
  5
127C1
  8
0
 10
195.1466497919556105
 20
100.5883496805795971
 30
0.0
 11
186.456649791955698
 21
100.5883496805794977
 31
0.0
  0
ARC
  5
127C2
  8
0
 10
186.456649791955698
 20
102.5983496805795028
 30
0.0
 40
2.0100000000000051
 50
180.0000000000057128
 51
270.0000000000007958
  0
LINE
  5
127C5
  8
0
 10
169.74664979195569
 20
102.5883496805933959
 30
0.0
 11
169.74664979195569
 21
100.5883496805935948
 31
0.0
  0
LINE
  5
127C8
  8
0
 10
195.1466497919556105
 20
100.5883496805934953
 30
0.0
 11
195.1466497919556105
 21
102.5883496805934953
 31
0.0
  0
LINE
  5
127CC
  8
0
 10
178.4466497919557071
 20
126.1883496805436948
 30
0.0
 11
178.4366497919556878
 21
102.5883496805796966
 31
0.0
  0
LINE
  5
127CD
  8
0
 10
186.4466497919557071
 20
102.5883496805794977
 30
0.0
 11
186.4466497919557071
 21
126.1883496805434959
 31
0.0
  0
LINE
  5
127D4
  8
0
 10
171.4291927529129111
 20
114.0952969803879995
 30
0.0
 11
171.4291927529129111
 21
111.0952969803879995
 31
0.0
  0
LINE
  5
127D6
  8
0
 10
178.2853651617703008
 20
118.1855707142455998
 30
0.0
 11
178.2853651617703008
 21
114.0952969803879995
 31
0.0
  0
LINE
  5
127D7
  8
0
 10
186.6079344221402039
 20
118.8707900104250967
 30
0.0
 11
186.6079344221402039
 21
114.101002500388006
 31
0.0
  0
LINE
  5
127E4
  8
1
 10
182.4466497919557071
 20
94.7594042415065871
 30
0.0
 11
182.446649791955906
 21
144.4039342055349948
 31
0.0
  0
LINE
  5
127E5
  8
1
 10
190.4466497919557071
 20
104.5883496806232955
 30
0.0
 11
190.4466497919557071
 21
98.5883496806233239
 31
0.0
  0
LINE
  5
127E6
  8
1
 10
174.4466497919557071
 20
104.5883496806232955
 30
0.0
 11
174.4466497919557071
 21
98.588349680623466
 31
0.0
  0
LINE
  5
127E7
  8
0
 10
102.5812341897639044
 20
53.5000000000000782
 30
0.0
 11
102.5812341897639044
 21
51.5000000000000924
 31
0.0
  0
LINE
  5
127E8
  8
0
 10
102.5812341897639044
 20
59.5000000000001421
 30
0.0
 11
102.5812341897639044
 21
57.5089344857272025
 31
0.0
  0
ARC
  5
127E9
  8
0
 10
104.5812341897648992
 20
50.6999999999993989
 30
0.0
 40
0.5
 50
180.0
 51
270.0000000000007958
  0
ARC
  5
127EA
  8
0
 10
108.5812341897649986
 20
50.6999999999993989
 30
0.0
 40
0.5
 50
270.0000000000007958
 51
0.0
  0
ARC
  5
127EB
  8
0
 10
108.5812341897648992
 20
60.2999999999994074
 30
0.0
 40
0.5
 50
0.0
 51
90.0
  0
ARC
  5
127EC
  8
0
 10
104.5812341897648992
 20
60.2999999999994074
 30
0.0
 40
0.5
 50
90.0
 51
180.0
  0
LINE
  5
127ED
  8
0
 10
109.0812341897648992
 20
50.6999999999993989
 30
0.0
 11
109.0812341897648992
 21
51.5000000000000924
 31
0.0
  0
LINE
  5
127EE
  8
0
 10
104.0812341897649986
 20
51.5000000000000924
 30
0.0
 11
104.0812341897649986
 21
50.6999999999993989
 31
0.0
  0
LINE
  5
127EF
  8
0
 10
104.0812341897648992
 20
60.2999999999994074
 30
0.0
 11
104.0812341897648992
 21
59.5000000000000924
 31
0.0
  0
LINE
  5
127F0
  8
0
 10
109.0812341897648992
 20
59.5000000000000924
 30
0.0
 11
109.0812341897648992
 21
60.2999999999994074
 31
0.0
  0
LINE
  5
127F1
  8
0
 10
128.5579346097013058
 20
53.5000000000000995
 30
0.0
 11
128.5579346097013058
 21
57.5000000000001066
 31
0.0
  0
LINE
  5
127F2
  8
0
 10
135.7578742497674966
 20
53.5000000000000995
 30
0.0
 11
135.7578742497674966
 21
57.5000000000001776
 31
0.0
  0
ARC
  5
127F3
  8
0
 10
115.5728762512899976
 20
64.3000000000000966
 30
0.0
 40
0.5
 50
90.0
 51
180.0
  0
LINE
  5
127F4
  8
0
 10
115.0728762512899976
 20
64.3000000000000966
 30
0.0
 11
115.0728762512899976
 21
63.5000000000000995
 31
0.0
  0
LINE
  5
127F5
  8
0
 10
116.0728762512899976
 20
63.5000000000000995
 30
0.0
 11
116.0728762512899976
 21
62.4192840743997905
 31
0.0
  0
LINE
  5
127F6
  8
0
 10
103.2382201303985028
 20
40.0000000000000568
 30
0.0
 11
103.2397547421091986
 21
40.0000000000000568
 31
0.0
  0
LINE
  5
127F7
  8
0
 10
103.2397547419951991
 20
71.0000000000000711
 30
0.0
 11
103.2382201302845033
 21
71.0000000000000711
 31
0.0
  0
ARC
  5
127F8
  8
0
 10
89.7340412906287668
 20
55.5000000000000995
 30
0.0
 40
7.5000000000000266
 50
319.6788352666005153
 51
40.3211647333999466
  0
ARC
  5
127F9
  8
0
 10
89.7340412906287668
 20
55.5000000000000995
 30
0.0
 40
7.5000000000000462
 50
139.67883526659989
 51
220.3211647334011047
  0
ARC
  5
12800
  8
0
 10
89.7340412906356164
 20
62.2177068930312203
 30
0.0
 40
13.9097489483256993
 50
252.8489148743398118
 51
287.1510851256617798
  0
ARC
  5
12801
  8
0
 10
89.7340412906356448
 20
48.7822931069722614
 30
0.0
 40
13.9097489483225392
 50
72.8489148743350796
 51
107.151085125664693
  0
CIRCLE
  5
12802
  8
0
 10
89.7340412905406737
 20
55.5000000000001279
 30
0.0
 40
5.65000000002928
  0
CIRCLE
  5
12803
  8
0
 10
89.7340412905406737
 20
55.5000000000001279
 30
0.0
 40
3.750000000016001
  0
LINE
  5
12805
  8
0
 10
110.068112744428106
 20
51.5000000000000924
 30
0.0
 11
102.5812341897639044
 21
51.5000000000000924
 31
0.0
  0
LINE
  5
12807
  8
0
 10
102.5812341897639044
 20
59.5000000000001421
 30
0.0
 11
110.068112744428106
 21
59.5000000000000924
 31
0.0
  0
ARC
  5
12816
  8
0
 10
98.5757100248816869
 20
53.4900000000001015
 30
0.0
 40
2.01000000000001
 50
90.0000000000044764
 51
132.5970865271931984
  0
ARC
  5
12817
  8
0
 10
98.5757100248817153
 20
57.5100000000001117
 30
0.0
 40
2.0100000000000331
 50
227.4029134728068016
 51
269.9999999999955094
  0
ARC
  5
12818
  8
0
 10
84.4790839523659827
 20
55.7500000000000924
 30
0.0
 40
2.5000000000000142
 50
145.339773988741797
 51
180.0
  0
LINE
  5
12819
  8
0
 10
81.9790839523659685
 20
55.2500000000000995
 30
0.0
 11
81.9790839523659685
 21
55.7500000000000924
 31
0.0
  0
ARC
  5
1281A
  8
0
 10
84.4790839523659827
 20
55.2500000000000924
 30
0.0
 40
2.5000000000000142
 50
179.9999999999996021
 51
214.6602260112591978
  0
ARC
  5
1281B
  8
0
 10
84.4790839523659827
 20
55.7500000000000924
 30
0.0
 40
4.5
 50
97.4003994639947877
 51
180.0
  0
ARC
  5
1281C
  8
0
 10
94.9889986288880692
 20
58.2400000000001086
 30
0.0
 40
2.009999999999998
 50
44.9999999999994174
 51
71.7106191876251984
  0
LINE
  5
1281D
  8
0
 10
96.4102832590730259
 20
59.6612846301850297
 30
0.0
 11
98.5586389570698032
 21
57.5129289321882595
 31
0.0
  0
ARC
  5
1281E
  8
0
 10
98.5657100248816818
 20
57.5200000000001381
 30
0.0
 40
0.0100000000000085
 50
225.0000000002879119
 51
268.6630793819231258
  0
ARC
  5
1281F
  8
0
 10
98.5657100248817244
 20
53.4800000000000821
 30
0.0
 40
0.0100000000000241
 50
91.3369206222302097
 51
134.9999999999423892
  0
LINE
  5
12820
  8
0
 10
96.4102832590730259
 20
51.3387153698151266
 30
0.0
 11
98.5586389570698316
 21
53.4870710678119821
 31
0.0
  0
ARC
  5
12821
  8
0
 10
94.9889986288880266
 20
52.7600000000001188
 30
0.0
 40
2.0100000000000442
 50
288.2893808123779991
 51
315.0000000000011937
  0
ARC
  5
12822
  8
0
 10
84.4790839523659827
 20
55.2500000000000924
 30
0.0
 40
4.5
 50
180.0
 51
262.5996005360069034
  0
LINE
  5
12823
  8
0
 10
79.9790839523659827
 20
55.2500000000000995
 30
0.0
 11
79.9790839523659827
 21
55.7500000000000924
 31
0.0
  0
LINE
  5
12826
  8
0
 10
128.0058141681610095
 20
62.7141200000001078
 30
0.0
 11
127.7598213448345064
 21
62.7141200000001078
 31
0.0
  0
LINE
  5
12828
  8
0
 10
116.5264355491464983
 20
61.5000000000000995
 30
0.0
 11
117.3988891508330994
 21
61.5000000000000924
 31
0.0
  0
LINE
  5
12829
  8
0
 10
118.4764041440216999
 20
62.7141200000001078
 30
0.0
 11
116.5264355491464983
 21
62.7141200000000865
 31
0.0
  0
LINE
  5
1282A
  8
0
 10
128.4520922713105904
 20
62.7141200000001078
 30
0.0
 11
128.0058141681610095
 21
62.7141200000001078
 31
0.0
  0
LINE
  5
1282B
  8
0
 10
128.4589646049142004
 20
61.7459186105242566
 30
0.0
 11
128.4589646049142004
 21
62.7141200000001078
 31
0.0
  0
LINE
  5
1282C
  8
0
 10
128.4589646049142004
 20
62.7141200000001078
 30
0.0
 11
128.4520922713105904
 21
62.7141200000001078
 31
0.0
  0
LINE
  5
12830
  8
0
 10
115.8024981459776939
 20
61.9865380972812474
 30
0.0
 11
115.4303923255318978
 21
61.4547175217134267
 31
0.0
  0
LINE
  5
12831
  8
0
 10
130.3845844177614026
 20
57.5000000000001776
 30
0.0
 11
130.3845844180532083
 21
53.5000000000000782
 31
0.0
  0
LINE
  5
12834
  8
0
 10
115.0728762512899976
 20
63.5000000000000995
 30
0.0
 11
118.6181127444280037
 21
63.5000000000000924
 31
0.0
  0
LINE
  5
1283A
  8
0
 10
98.2382216022373882
 20
66.0000000000000568
 30
0.0
 11
98.2382216022373882
 21
57.8333462870208521
 31
0.0
  0
LINE
  5
1283B
  8
0
 10
98.2382216022374166
 20
55.5285355000454928
 30
0.0
 11
98.2382216022374166
 21
55.4714644999550615
 31
0.0
  0
LINE
  5
1283D
  8
0
 10
98.239756213948084
 20
66.0000000000000711
 30
0.0
 11
98.2382216022373882
 21
66.0000000000000568
 31
0.0
  0
LINE
  5
1283F
  8
0
 10
98.239756213948084
 20
45.0000000000000711
 30
0.0
 11
98.239756213948084
 21
53.1681883246903482
 31
0.0
  0
LINE
  5
12845
  8
0
 10
108.2397532701562994
 20
66.0000000000000711
 30
0.0
 11
108.2397532701562994
 21
60.79999999999945
 31
0.0
  0
ARC
  5
12847
  8
0
 10
103.2397547420521988
 20
66.0000011472256318
 30
0.0
 40
4.9999985281042463
 50
359.9999868537605039
 51
180.0000131462410877
  0
ARC
  5
1284E
  8
0
 10
103.2397547420520993
 20
44.9999988527745813
 30
0.0
 40
4.9999985281042321
 50
179.9999868537605039
 51
0.0000131462394875
  0
LINE
  5
1284F
  8
0
 10
108.2397532701562994
 20
50.1999999999994486
 30
0.0
 11
108.2397532701562994
 21
45.0000000000000711
 31
0.0
  0
CIRCLE
  5
12852
  8
0
 10
129.8681127444280037
 20
47.4999999999996732
 30
0.0
 40
2.2499999999999711
  0
CIRCLE
  5
12853
  8
0
 10
116.3681127444280037
 20
47.4999999999997726
 30
0.0
 40
2.25
  0
ARC
  5
12854
  8
0
 10
112.0681127444280065
 20
44.7999999999998693
 30
0.0
 40
2.0
 50
180.0
 51
270.0000000000007958
  0
LINE
  5
12855
  8
0
 10
110.0681127444280065
 20
51.4899999999998599
 30
0.0
 11
110.0681127444280065
 21
44.7999999999998693
 31
0.0
  0
LINE
  5
12857
  8
0
 10
136.1681127444281003
 20
44.7999999999997698
 30
0.0
 11
136.1681127444281003
 21
51.4899999999996822
 31
0.0
  0
ARC
  5
12858
  8
0
 10
134.1681127444281003
 20
44.7999999999997698
 30
0.0
 40
2.0
 50
270.0000000000007958
 51
0.0
  0
LINE
  5
12859
  8
0
 10
112.0681127444280065
 20
42.7999999999998622
 30
0.0
 11
134.1681127444281003
 21
42.7999999999997698
 31
0.0
  0
LINE
  5
1285A
  8
0
 10
110.0681127444419047
 20
53.4930571077898875
 30
0.0
 11
110.0681127444280065
 21
51.4899999999998599
 31
0.0
  0
LINE
  5
1285B
  8
0
 10
98.5654767093879229
 20
53.4899972778236119
 30
0.0
 11
136.1681127444419985
 21
53.4999999999996732
 31
0.0
  0
LINE
  5
1285C
  8
0
 10
136.1681127444419985
 20
53.4999999999996732
 30
0.0
 11
136.1681127444281003
 21
51.4899999999996822
 31
0.0
  0
LINE
  5
1285D
  8
0
 10
110.0681127444280065
 20
59.5099999999996783
 30
0.0
 11
110.0681127444420042
 21
57.5069428922100627
 31
0.0
  0
LINE
  5
1285F
  8
0
 10
136.1681127444281003
 20
59.5099999999996783
 30
0.0
 11
136.1681127444419985
 21
57.4999999999996589
 31
0.0
  0
LINE
  5
12860
  8
0
 10
136.1681127444419985
 20
57.4999999999996589
 30
0.0
 11
98.5654767093886193
 21
57.5100027221766013
 31
0.0
  0
CIRCLE
  5
12861
  8
0
 10
129.8681127444280889
 20
63.4999999999996732
 30
0.0
 40
2.25
  0
CIRCLE
  5
12862
  8
0
 10
116.3681127444280037
 20
63.4999999999996732
 30
0.0
 40
2.25
  0
ARC
  5
12863
  8
0
 10
134.1681127444281003
 20
66.199999999999676
 30
0.0
 40
2.000000000000028
 50
0.0
 51
90.0
  0
LINE
  5
12864
  8
0
 10
110.0681127444280065
 20
66.199999999999676
 30
0.0
 11
110.0681127444280065
 21
59.5099999999996783
 31
0.0
  0
ARC
  5
12865
  8
0
 10
112.0681127444280065
 20
66.199999999999676
 30
0.0
 40
2.0
 50
90.0
 51
180.0
  0
LINE
  5
12866
  8
0
 10
134.1681127444281003
 20
68.1999999999996618
 30
0.0
 11
112.0681127444280065
 21
68.1999999999996618
 31
0.0
  0
LINE
  5
12867
  8
0
 10
136.1681127444281003
 20
59.5099999999996783
 30
0.0
 11
136.1681127444281003
 21
66.199999999999676
 31
0.0
  0
ARC
  5
12868
  8
0
 10
137.0907578594697895
 20
53.5099999999996712
 30
0.0
 40
2.00999999999999
 50
270.0
 51
0.0
  0
ARC
  5
12869
  8
0
 10
137.0907578594697895
 20
53.5099999999996712
 30
0.0
 40
0.0099999999999909
 50
270.0000000000007958
 51
0.0
  0
LINE
  5
1286A
  8
0
 10
137.1007578594698089
 20
53.5099999999996712
 30
0.0
 11
137.1007578594698941
 21
57.4899999999996609
 31
0.0
  0
ARC
  5
1286B
  8
0
 10
137.0907578594697895
 20
57.4899999999996609
 30
0.0
 40
0.0100000000000193
 50
0.0
 51
90.0
  0
ARC
  5
1286C
  8
0
 10
137.0907578594697895
 20
57.4899999999996609
 30
0.0
 40
2.0100000000000189
 50
0.0
 51
90.0
  0
LINE
  5
1286D
  8
0
 10
139.1007578594698941
 20
57.4899999999996609
 30
0.0
 11
139.1007578594698089
 21
53.5099999999996712
 31
0.0
  0
LINE
  5
1286E
  8
0
 10
137.0907578594697895
 20
59.4999999999996589
 30
0.0
 11
136.1681127444497861
 21
59.4999999999996589
 31
0.0
  0
LINE
  5
1286F
  8
0
 10
137.0907578594697895
 20
57.4999999999996589
 30
0.0
 11
136.1681127444497861
 21
57.4999999999996589
 31
0.0
  0
LINE
  5
12870
  8
0
 10
137.0907578594697895
 20
53.4999999999996732
 30
0.0
 11
136.1681127444497861
 21
53.4999999999996732
 31
0.0
  0
LINE
  5
12871
  8
0
 10
137.0907578594697895
 20
51.4999999999996732
 30
0.0
 11
136.1681127444497861
 21
51.4999999999996732
 31
0.0
  0
LINE
  5
12879
  8
0
 10
128.0058141681610095
 20
62.2373266404829835
 30
0.0
 11
128.0058141681610095
 21
62.7141200000001078
 31
0.0
  0
LINE
  5
1287A
  8
0
 10
128.4520922713105904
 20
61.7514617477124617
 30
0.0
 11
128.4520922713105904
 21
62.7141200000001078
 31
0.0
  0
LINE
  5
1287C
  8
0
 10
98.2428254373694045
 20
55.5277568637031891
 30
0.0
 11
98.2428254373694045
 21
55.4722431362973012
 31
0.0
  0
LINE
  5
12883
  8
1
 10
74.3479861086688345
 20
55.5000000000002416
 30
0.0
 11
143.6953715988771876
 21
55.4999999999996021
 31
0.0
  0
ARC
  5
1288A
  8
0
 10
21.0000000000000497
 20
138.093245183790799
 30
0.0
 40
1.0
 50
90.0000000000002132
 51
180.0000000000001137
  0
ARC
  5
1288B
  8
0
 10
21.0000000000000497
 20
136.0871079144648945
 30
0.0
 40
1.0
 50
180.0000000000001137
 51
269.9999999999997726
  0
ARC
  5
1288C
  8
0
 10
50.0000000000000426
 20
138.0932451837909127
 30
0.0
 40
1.0
 50
0.0000000000002036
 51
90.0000000000002558
  0
ARC
  5
1288D
  8
0
 10
50.0000000000000497
 20
136.0871079144648093
 30
0.0
 40
1.0
 50
269.9999999999997726
 51
0.0000000000002036
  0
LINE
  5
1288E
  8
0
 10
29.2221819724694107
 20
133.799489121082388
 30
0.0
 11
32.5000000000001918
 21
133.799489121082388
 31
0.0
  0
LINE
  5
1288F
  8
0
 10
29.2221819724694107
 20
131.5895533320320112
 30
0.0
 11
32.500000000000199
 21
131.5895533320318975
 31
0.0
  0
ARC
  5
12890
  8
0
 10
32.2277417950088108
 20
125.3062664454754014
 30
0.0
 40
1.7552514807330739
 50
96.2747824942133548
 51
129.9012117214510056
  0
ARC
  5
12891
  8
0
 10
31.8519686541020199
 20
125.3210336126274029
 30
0.0
 40
1.73971907353093
 50
39.6952988010854781
 51
83.9311303992849247
  0
ARC
  5
12892
  8
0
 10
35.4999999991762678
 20
122.4322002238265981
 30
0.0
 40
4.6188022552622341
 50
60.0000008713954927
 51
119.9999994137316008
  0
ARC
  5
12893
  8
0
 10
39.1559452906586714
 20
125.3062661413214016
 30
0.0
 40
1.7552518863957509
 50
96.2748180492253738
 51
140.0987860565626875
  0
ARC
  5
12894
  8
0
 10
38.7801724582475984
 20
125.3210343302891943
 30
0.0
 40
1.73971818823267
 50
50.3047070166137118
 51
83.9311748503327237
  0
ARC
  5
12895
  8
0
 10
32.2277417950088108
 20
125.3062664454754014
 30
0.0
 40
1.7552514807330739
 50
140.0987883873071098
 51
140.0987885636774877
  0
ARC
  5
12896
  8
0
 10
32.2277417950088108
 20
125.0957385823327996
 30
0.0
 40
1.7552514807330739
 50
230.0987882785491081
 51
263.7252175057865884
  0
ARC
  5
12897
  8
0
 10
31.8519686541020199
 20
125.0809714151807981
 30
0.0
 40
1.73971907353093
 50
276.0688696007151179
 51
320.3047011989144721
  0
ARC
  5
12898
  8
0
 10
35.4999999991762678
 20
127.9698048039817024
 30
0.0
 40
4.6188022552622341
 50
240.0000005862681007
 51
299.9999991286047134
  0
ARC
  5
12899
  8
0
 10
39.1559452906586714
 20
125.0957388864868989
 30
0.0
 40
1.7552518863957509
 50
219.9012139434369999
 51
263.7251819507746973
  0
ARC
  5
1289A
  8
0
 10
38.7801724582475984
 20
125.0809706975191062
 30
0.0
 40
1.73971818823267
 50
276.0688251496673047
 51
309.6952929833867074
  0
ARC
  5
1289B
  8
0
 10
30.6485748809023804
 20
121.3616124312317055
 30
0.0
 40
1.9893907013067991
 50
90.0463932499329474
 51
149.9536069197579025
  0
ARC
  5
1289C
  8
0
 10
30.6418215295982108
 20
121.3733095788070955
 30
0.0
 40
0.7277110721016041
 50
89.5951045966483406
 51
150.4048953770112007
  0
ARC
  5
1289D
  8
0
 10
40.352063544488523
 20
121.3627182342228963
 30
0.0
 40
1.9882845080930129
 50
30.0280219714830103
 51
89.9719784290771258
  0
ARC
  5
1289E
  8
0
 10
40.3600075186084908
 20
121.3764776011714019
 30
0.0
 40
0.7245584436614086
 50
29.4487030091124886
 51
90.5512975873375865
  0
ARC
  5
1289F
  8
0
 10
30.6479363496967707
 20
114.8392865822087998
 30
0.0
 40
1.9882843192775139
 50
210.0280186145184018
 51
269.9719813860382942
  0
ARC
  5
128A0
  8
0
 10
30.6399923124076601
 20
114.8255271060065041
 30
0.0
 40
0.7245581472820558
 50
209.4486888252691017
 51
270.5513111762347194
  0
ARC
  5
128A1
  8
0
 10
40.3581783819784405
 20
114.8286955562734022
 30
0.0
 40
0.7277112255070821
 50
269.5951116443139881
 51
330.4048883541756254
  0
ARC
  5
128A2
  8
0
 10
40.3514251454601691
 20
114.8403925050389063
 30
0.0
 40
1.9893906565072219
 50
270.0463924021598245
 51
329.9536075972811204
  0
ARC
  5
128A3
  8
0
 10
32.2277418077139401
 20
111.1062664543082974
 30
0.0
 40
1.755251483482883
 50
96.2747824936127188
 51
129.9012116218939923
  0
ARC
  5
128A4
  8
0
 10
31.8519686669218096
 20
111.1210336287958
 30
0.0
 40
1.73971906895191
 50
39.6952987257282004
 51
83.9311303927242989
  0
ARC
  5
128A5
  8
0
 10
35.4999999999860734
 20
108.2322003477075043
 30
0.0
 40
4.6188021529488168
 50
59.9999999959987207
 51
120.0000000040012935
  0
ARC
  5
128A6
  8
0
 10
39.1559450379930993
 20
111.1062664541862972
 30
0.0
 40
1.7552514836046309
 50
96.2747824932957741
 51
140.0987883754455083
  0
ARC
  5
128A7
  8
0
 10
38.7801718973716092
 20
111.1210336290328939
 30
0.0
 40
1.739719068647438
 50
50.3047012768689186
 51
83.9311304051781661
  0
ARC
  5
128A8
  8
0
 10
38.7722581900715184
 20
110.8957385537733984
 30
0.0
 40
1.7552514903982479
 50
276.2747825450024948
 51
309.9012114346760995
  0
ARC
  5
128A9
  8
0
 10
39.1480314242974217
 20
110.8809716513638932
 30
0.0
 40
1.739719355764799
 50
219.6953035762618072
 51
263.9311283830779757
  0
ARC
  5
128AA
  8
0
 10
35.5000000024487008
 20
113.7698046273125954
 30
0.0
 40
4.6188021265613344
 50
239.9999998224070055
 51
299.9999996510362053
  0
ARC
  5
128AB
  8
0
 10
31.8440549606224792
 20
110.8957385510596936
 30
0.0
 40
1.755251487600719
 50
276.274782524966497
 51
320.0987884684844857
  0
ARC
  5
128AC
  8
0
 10
32.2198281029383722
 20
110.8809713732336064
 30
0.0
 40
1.7397190695601039
 50
230.3047012732743042
 51
263.9311303986519874
  0
ARC
  5
128AD
  8
0
 10
38.7722581900715184
 20
110.8957385537733984
 30
0.0
 40
1.7552514903982479
 50
320.0987884013238727
 51
320.0987885653240141
  0
LINE
  5
128AF
  8
3
 10
37.5670000000002702
 20
127.0510025023281031
 30
0.0
 11
37.5670000000002702
 21
133.1010025006285957
 31
0.0
  0
LINE
  5
128B0
  8
3
 10
33.4330000000002698
 20
127.0510025023281031
 30
0.0
 11
33.4330000000002698
 21
133.1010025006285957
 31
0.0
  0
LINE
  5
128B1
  8
0
 10
44.7999999999999332
 20
123.3707900104250967
 30
0.0
 11
44.799999999999919
 21
119.3707900104250967
 31
0.0
  0
LINE
  5
128B2
  8
0
 10
30.2174570390557413
 20
124.1010025003344026
 30
0.0
 11
30.2174570390557413
 21
124.1010025003344026
 31
0.0
  0
LINE
  5
128B3
  8
0
 10
30.2174570390557413
 20
124.1010025003344026
 30
0.0
 11
30.2174570390557413
 21
124.1010025003344026
 31
0.0
  0
LINE
  5
128B4
  8
0
 10
30.2174570390557413
 20
124.1010025003344026
 30
0.0
 11
30.2174570390557413
 21
123.9304813752393954
 31
0.0
  0
LINE
  5
128B5
  8
0
 10
30.1999999999993598
 20
123.7995146205121983
 30
0.0
 11
30.1999999999993598
 21
123.2997703037148938
 31
0.0
  0
LINE
  5
128B6
  8
0
 10
30.1999999999999389
 20
121.9515458111920054
 30
0.0
 11
30.1999999999999211
 21
119.3707900104250967
 31
0.0
  0
ARC
  5
128B8
  8
0
 10
40.2173329912387629
 20
115.5610733963433034
 30
0.0
 40
1.2826670601160539
 50
359.9837867000982783
 51
44.7651475845242501
  0
ARC
  5
128B9
  8
0
 10
40.2140871849394514
 20
115.5597008611045027
 30
0.0
 40
2.5000330189048849
 50
0.0231373794307758
 51
44.8487452871549266
  0
LINE
  5
128BA
  8
0
 10
115.5728762512899976
 20
185.0828093929530098
 30
0.0
 11
119.5728762512899976
 21
185.0828093929530098
 31
0.0
  0
LINE
  5
128BB
  8
0
 10
130.2578742497674966
 20
185.0653523538971115
 30
0.0
 11
134.2578742497674966
 21
185.0653523538971115
 31
0.0
  0
LINE
  5
128BC
  8
0
 10
134.2578742497674966
 20
174.4653523538970035
 30
0.0
 11
130.2578742497674966
 21
174.4653523538970035
 31
0.0
  0
ARC
  5
128BE
  8
0
 10
109.1074771961698957
 20
175.9137617287074136
 30
0.0
 40
0.8692997101863644
 50
91.3797589199520246
 51
179.4423547642124106
  0
ARC
  5
128BF
  8
0
 10
109.1085914227575984
 20
183.6529343959859943
 30
0.0
 40
0.8704042460300652
 50
180.4873126120803875
 51
268.5486241695347758
  0
ARC
  5
128CA
  8
0
 10
114.6348712905675029
 20
177.2294566779395097
 30
0.0
 40
0.4475495805929369
 50
273.6388526152176155
 51
315.3443717698455089
  0
ARC
  5
128CB
  8
0
 10
113.967970528175897
 20
177.7281216789523057
 30
0.0
 40
1.2775261431300029
 50
320.4641874455335255
 51
2.4534393964737631
  0
LINE
  5
128CC
  8
0
 10
114.663276041985398
 20
176.7828093929529985
 30
0.0
 11
109.0865453209709983
 21
176.7828093929529985
 31
0.0
  0
ARC
  5
128CD
  8
0
 10
114.6348712905675029
 20
182.3361621079664872
 30
0.0
 40
0.4475495805929369
 50
44.6556282301556635
 51
86.3611473847824271
  0
ARC
  5
128CE
  8
0
 10
113.967970528175897
 20
181.8374971069536912
 30
0.0
 40
1.2775261431300029
 50
357.5465606035264159
 51
39.5358125544654371
  0
LINE
  5
128CF
  8
0
 10
114.663276041985398
 20
182.7828093929529985
 30
0.0
 11
109.0865453209709983
 21
182.7828093929529985
 31
0.0
  0
POLYLINE
  5
128D0
  8
0
 66
     1
 10
0.0
 20
0.0
 30
0.0
 70
     1
  0
VERTEX
  5
16360
  8
0
 10
89.7340412845005204
 20
184.4016115572279091
 30
0.0
  0
VERTEX
  5
16361
  8
0
 10
85.7340412854080398
 20
182.0922104820149059
 30
0.0
  0
VERTEX
  5
16362
  8
0
 10
85.7340412845233573
 20
177.4734083300565999
 30
0.0
  0
VERTEX
  5
16363
  8
0
 10
89.7340412827311837
 20
175.1640072533112971
 30
0.0
  0
VERTEX
  5
16364
  8
0
 10
93.7340412818236643
 20
177.4734083285243003
 30
0.0
  0
VERTEX
  5
16365
  8
0
 10
93.7340412827083185
 20
182.0922104804826915
 30
0.0
  0
SEQEND
  5
16366
  8
0
  0
CIRCLE
  5
128D1
  8
0
 10
89.7340412905406453
 20
179.7828093929529985
 30
0.0
 40
4.0000000071849531
  0
CIRCLE
  5
128D2
  8
3
 10
89.7340412905406453
 20
179.7828093929529985
 30
0.0
 40
2.0669999999999988
  0
ARC
  5
128D3
  8
0
 10
117.8687937092906992
 20
174.316637641039506
 30
0.0
 40
2.304500994516133
 50
206.2808197033548083
 51
218.802684444171291
  0
ARC
  5
128D4
  8
0
 10
114.7656920647487055
 20
173.7943155712160035
 30
0.0
 40
0.7744363210934428
 50
61.055529184338539
 51
89.2720769575644084
  0
ARC
  5
128D5
  8
0
 10
87.7340412928857631
 20
123.5095506220116022
 30
0.0
 40
3.5414518843013338
 50
55.6157526960528514
 51
124.384247632393496
  0
ARC
  5
128D6
  8
0
 10
91.7340412844652491
 20
123.5095506277527022
 30
0.0
 40
3.5414518842789211
 50
55.6157525310502194
 51
124.3842474678858991
  0
ARC
  5
128D7
  8
0
 10
91.7340412941513677
 20
126.8924546983720063
 30
0.0
 40
3.5414521305014901
 50
235.6157552570032863
 51
304.3842447422110808
  0
ARC
  5
128D8
  8
0
 10
87.7340412826992946
 20
126.8924545473833945
 30
0.0
 40
3.5414520123399238
 50
235.615754053535511
 51
304.3842462749021252
  0
ARC
  5
128D9
  8
0
 10
87.7340412906112022
 20
109.3095506166945938
 30
0.0
 40
3.5414518839477598
 50
55.6157525274944433
 51
124.384247471983997
  0
ARC
  5
128DA
  8
0
 10
91.7340412905961529
 20
109.3095506166712028
 30
0.0
 40
3.5414518839435458
 50
55.615752527473461
 51
124.3842474717354065
  0
ARC
  5
128DB
  8
0
 10
91.7340412967381553
 20
112.6924543682855955
 30
0.0
 40
3.5414518675758728
 50
235.6157523461021981
 51
304.3842476531095258
  0
ARC
  5
128DC
  8
0
 10
87.7340412781755532
 20
112.6924544283083947
 30
0.0
 40
3.5414519275709968
 50
235.6157532544322066
 51
304.3842473527884067
  0
LINE
  5
128DD
  8
0
 10
107.2405208703907959
 20
135.0932463613075925
 30
0.0
 11
99.2405232254242406
 21
135.0871079144648093
 31
0.0
  0
LINE
  5
128DE
  8
0
 10
107.2374516469694044
 20
139.0932451837909127
 30
0.0
 11
99.2374540020028633
 21
139.0871067369481864
 31
0.0
  0
ARC
  5
128DF
  8
0
 10
117.7569204876781015
 20
120.974533893604999
 30
0.0
 40
3.5062883810005241
 50
200.5149015502258862
 51
221.7367817377669894
  0
LINE
  5
128E0
  8
0
 10
98.5757100248817153
 20
55.5000000000000995
 30
0.0
 11
135.7578742497674966
 21
55.5000000000001421
 31
0.0
  0
LINE
  5
128E1
  8
0
 10
115.5728762512899976
 20
64.8000000000000966
 30
0.0
 11
115.5728762512899976
 21
64.8000000000000966
 31
0.0
  0
LINE
  5
128E2
  8
0
 10
115.5728762512899976
 20
64.8000000000000966
 30
0.0
 11
115.5728762512899976
 21
64.8000000000000966
 31
0.0
  0
LINE
  5
128E3
  8
0
 10
115.5728762512899976
 20
64.8000000000000966
 30
0.0
 11
115.5728762512899976
 21
64.8000000000000966
 31
0.0
  0
LINE
  5
128E4
  8
0
 10
115.5728762512899976
 20
64.8000000000000966
 30
0.0
 11
118.2045495116483949
 21
64.8000000000000966
 31
0.0
  0
ARC
  5
128E5
  8
0
 10
116.5795652624392034
 20
60.5601504482674287
 30
0.0
 40
0.941350065770804
 50
93.2354879651782227
 51
129.7308990095476133
  0
ARC
  5
128EA
  8
0
 10
116.6231742608293018
 20
62.0690192660666398
 30
0.0
 40
0.6523138318781189
 50
98.5284725674121518
 51
147.5232377100284964
  0
ARC
  5
128EB
  8
0
 10
118.6116569117713055
 20
60.5322245793304319
 30
0.0
 40
3.1632895504411072
 50
143.3768128607806034
 51
152.6292039265109111
  0
ARC
  5
128EC
  8
0
 10
88.5249345811281216
 20
57.7362620069052213
 30
0.0
 40
5.2134067728133271
 50
123.7018864104669973
 51
149.8721194894206121
  0
ARC
  5
128ED
  8
0
 10
91.0891371103640637
 20
57.8734172395267095
 30
0.0
 40
5.0185020823942033
 50
29.6101166389618697
 51
56.8158774606608432
  0
ARC
  5
128EE
  8
0
 10
88.378929222098165
 20
53.1265674949232789
 30
0.0
 40
5.0184804129312877
 50
209.6100567737765061
 51
236.8159373263333976
  0
ARC
  5
128EF
  8
0
 10
90.9434328695478484
 20
53.2634703612510734
 30
0.0
 40
5.2130260550332679
 50
303.700913808168707
 51
329.8730920922129144
  0
LINE
  5
128F0
  8
0
 10
108.5812341897649986
 20
50.1999999999993989
 30
0.0
 11
104.5812341897648992
 21
50.1999999999993989
 31
0.0
  0
LINE
  5
128F1
  8
0
 10
108.5812341897648992
 20
60.7999999999994074
 30
0.0
 11
104.5812341897648992
 21
60.7999999999994074
 31
0.0
  0
LINE
  5
128F5
  8
0
 10
185.4466497919551955
 20
135.394781238105395
 30
0.0
 11
185.4466497919551955
 21
133.7763155034811859
 31
0.0
  0
LINE
  5
128F6
  8
0
 10
179.4466497919551955
 20
135.3947812381055087
 30
0.0
 11
179.4466497919551955
 21
133.2842355128537974
 31
0.0
  0
ARC
  5
128F7
  8
0
 10
180.4466497919551955
 20
135.3947812381055087
 30
0.0
 40
1.0
 50
89.9999999999995879
 51
180.0
  0
ARC
  5
128F8
  8
0
 10
184.4466497919551955
 20
135.394781238105395
 30
0.0
 40
1.0
 50
0.0
 51
89.9999999999995879
  0
LINE
  5
128FA
  8
0
 10
179.4466497919551955
 20
132.0701507887806088
 30
0.0
 11
179.4466497919551955
 21
128.0964878618860894
 31
0.0
  0
LINE
  5
128FB
  8
0
 10
184.4466497919555081
 20
113.7218453904965969
 30
0.0
 11
184.4466497919553092
 21
131.5663797144306955
 31
0.0
  0
LINE
  5
128FC
  8
0
 10
180.4466497919555081
 20
113.7218453904964974
 30
0.0
 11
180.4466497919551955
 21
131.5663797144306955
 31
0.0
  0
LINE
  5
128FD
  8
0
 10
173.1466497919552125
 20
123.3707900104250967
 30
0.0
 11
173.1466497919552978
 21
119.3707900104250967
 31
0.0
  0
LINE
  5
128FE
  8
0
 10
187.7291927528993085
 20
124.1010025003344026
 30
0.0
 11
187.7466497919552921
 21
119.3707900104250967
 31
0.0
  0
LINE
  5
128FF
  8
0
 10
177.1291927528993142
 20
120.1010025003344026
 30
0.0
 11
177.1291927528993142
 21
124.1010025003344026
 31
0.0
  0
ARC
  5
12900
  8
0
 10
177.6021792444514062
 20
114.8409314180700989
 30
0.0
 40
0.7456836332299741
 50
209.8924458785417073
 51
269.3418488977458765
  0
ARC
  5
12901
  8
0
 10
187.3284339968577967
 20
121.3912335262431981
 30
0.0
 40
1.948307923817211
 50
29.739378785717129
 51
78.0406137583660069
  0
ARC
  5
12902
  8
0
 10
187.3048282619081135
 20
114.8286954037960044
 30
0.0
 40
0.7277110737341582
 50
269.5951046330791883
 51
330.4048953684277876
  0
ARC
  5
12903
  8
0
 10
187.2980749105942948
 20
114.840392551392398
 30
0.0
 40
1.989390702961485
 50
270.0463931735339997
 51
329.9536068270239753
  0
ARC
  5
12904
  8
0
 10
185.4271850381545903
 20
111.2847602649845982
 30
0.0
 40
2.2313693022334471
 50
297.1858682240618919
 51
312.7605072645649216
  0
ARC
  5
12905
  8
0
 10
185.5900167798558016
 20
110.906299376836003
 30
0.0
 40
1.9836638602997401
 50
48.0555257314270818
 51
64.4153683230836833
  0
ARC
  5
12906
  8
0
 10
179.3041665684777968
 20
111.0966724513245936
 30
0.0
 40
1.984967439313797
 50
228.0518195738939085
 51
244.1759812872072928
  0
ARC
  5
12907
  8
0
 10
178.9704284374984127
 20
126.0557522214017041
 30
0.0
 40
0.9953240825876756
 50
89.3023098788197842
 51
121.7517096458963977
  0
ARC
  5
12908
  8
0
 10
178.8085340009577919
 20
125.3331945994475944
 30
0.0
 40
1.7243249342453739
 50
39.5948114551829278
 51
85.0170154706352008
  0
LINE
  5
12909
  8
3
 10
91.8010412905406668
 20
127.0510025023281031
 30
0.0
 11
91.8010412905406668
 21
133.1010025006285957
 31
0.0
  0
LINE
  5
1290A
  8
3
 10
87.6670412905406522
 20
127.0510025023281031
 30
0.0
 11
87.6670412905406522
 21
133.1010025006285957
 31
0.0
  0
LINE
  5
1290D
  8
1
 10
112.1181127444419019
 20
187.7828093929533111
 30
0.0
 11
120.6181127444419019
 21
187.7828093929533111
 31
0.0
  0
LINE
  5
1290E
  8
1
 10
116.3681127444419019
 20
183.5328093929533964
 30
0.0
 11
116.3681127444419019
 21
192.0328093929533111
 31
0.0
  0
LINE
  5
1290F
  8
1
 10
129.8681127444419019
 20
192.03280939295351
 30
0.0
 11
129.8681127444419019
 21
183.53280939295351
 31
0.0
  0
LINE
  5
12911
  8
1
 10
125.6181127444419019
 20
187.78280939295351
 30
0.0
 11
134.1181127444419019
 21
187.78280939295351
 31
0.0
  0
LINE
  5
12912
  8
1
 10
112.1181127444419019
 20
171.7828093929531121
 30
0.0
 11
120.6181127444419019
 21
171.7828093929531121
 31
0.0
  0
LINE
  5
12913
  8
1
 10
116.3681127444419019
 20
176.0328093929529985
 30
0.0
 11
116.3681127444419019
 21
167.5328093929531121
 31
0.0
  0
LINE
  5
12914
  8
1
 10
129.8681127444419019
 20
167.5328093929529132
 30
0.0
 11
129.8681127444419019
 21
176.0328093929529985
 31
0.0
  0
LINE
  5
12915
  8
1
 10
125.6181127444419019
 20
171.7828093929529985
 30
0.0
 11
134.1181127444419019
 21
171.7828093929529985
 31
0.0
  0
LINE
  5
12919
  8
1
 10
89.7340412844873612
 20
46.3079579427143671
 30
0.0
 11
89.7340412845197051
 21
64.6920420533036946
 31
0.0
  0
LINE
  5
1291A
  8
1
 10
112.1181127444407934
 20
63.4999999999993179
 30
0.0
 11
120.6181127444407934
 21
63.4999999999993179
 31
0.0
  0
LINE
  5
1291B
  8
1
 10
116.3681127444407934
 20
59.24999999999946
 30
0.0
 11
116.3681127444407934
 21
67.7499999999994031
 31
0.0
  0
LINE
  5
1291C
  8
1
 10
129.8681127444407934
 20
67.7499999999995168
 30
0.0
 11
129.8681127444407934
 21
59.2499999999995097
 31
0.0
  0
LINE
  5
1291D
  8
1
 10
125.6181127444407934
 20
63.4999999999995097
 30
0.0
 11
134.1181127444407934
 21
63.4999999999995097
 31
0.0
  0
LINE
  5
1291E
  8
1
 10
112.1181127444407934
 20
47.4999999999991971
 30
0.0
 11
120.6181127444407934
 21
47.4999999999991971
 31
0.0
  0
LINE
  5
1291F
  8
1
 10
116.3681127444407934
 20
51.7499999999990621
 30
0.0
 11
116.3681127444407934
 21
43.2499999999991189
 31
0.0
  0
LINE
  5
12920
  8
1
 10
129.8681127444407934
 20
43.2499999999989981
 30
0.0
 11
129.8681127444407934
 21
51.7499999999990123
 31
0.0
  0
LINE
  5
12921
  8
1
 10
125.6181127444407934
 20
47.4999999999989981
 30
0.0
 11
134.1181127444407934
 21
47.4999999999989981
 31
0.0
  0
POLYLINE
  5
15450
  8
0
 66
     1
 10
0.0
 20
0.0
 30
0.0
  0
VERTEX
  5
16367
  8
0
 10
115.7959537907021996
 20
116.4643306893684951
 30
0.0
  0
VERTEX
  5
16368
  8
0
 10
115.8623696366959024
 20
116.3958418832196031
 30
0.0
  0
VERTEX
  5
16369
  8
0
 10
115.9287651580439018
 20
116.3256269091423007
 30
0.0
  0
VERTEX
  5
1636A
  8
0
 10
115.9951201789014021
 20
116.2519657336192012
 30
0.0
  0
VERTEX
  5
1636B
  8
0
 10
116.0614339545127933
 20
116.1739393817783963
 30
0.0
  0
VERTEX
  5
1636C
  8
0
 10
116.1277442706686998
 20
116.0922173243273932
 30
0.0
  0
VERTEX
  5
1636D
  8
0
 10
116.194092438329406
 20
116.0076482081861968
 30
0.0
  0
VERTEX
  5
1636E
  8
0
 10
116.2604946946889015
 20
115.9208836807606957
 30
0.0
  0
VERTEX
  5
1636F
  8
0
 10
116.3269411949177936
 20
115.832370468265907
 30
0.0
  0
VERTEX
  5
16370
  8
0
 10
116.3934208780485022
 20
115.7425457419691952
 30
0.0
  0
VERTEX
  5
16371
  8
0
 10
116.4599226831138026
 20
115.6518466731378965
 30
0.0
  0
VERTEX
  5
16372
  8
0
 10
116.5264355491464983
 20
115.5607104330392048
 30
0.0
  0
SEQEND
  5
16373
  8
0
  0
POLYLINE
  5
15451
  8
0
 66
     1
 10
0.0
 20
0.0
 30
0.0
  0
VERTEX
  5
16374
  8
0
 10
93.8359204962676472
 20
122.3577025228490953
 30
0.0
  0
VERTEX
  5
16375
  8
0
 10
93.941834237299858
 20
122.4525278399035955
 30
0.0
  0
VERTEX
  5
16376
  8
0
 10
94.0469500372627181
 20
122.5463166418925027
 30
0.0
  0
VERTEX
  5
16377
  8
0
 10
94.1504699550869901
 20
122.6380324137502953
 30
0.0
  0
VERTEX
  5
16378
  8
0
 10
94.2516364600308663
 20
122.7266515113670948
 30
0.0
  0
VERTEX
  5
16379
  8
0
 10
94.3503795286312368
 20
122.8113692662334984
 30
0.0
  0
VERTEX
  5
1637A
  8
0
 10
94.4472042382948018
 20
122.8915641832580974
 30
0.0
  0
VERTEX
  5
1637B
  8
0
 10
94.542633365044864
 20
122.9666204108251009
 30
0.0
  0
VERTEX
  5
1637C
  8
0
 10
94.6370955219448291
 20
123.0359993019769007
 30
0.0
  0
VERTEX
  5
1637D
  8
0
 10
94.7306857481942046
 20
123.0994357085510984
 30
0.0
  0
VERTEX
  5
1637E
  8
0
 10
94.8234252520562535
 20
123.1567250167205003
 30
0.0
  0
VERTEX
  5
1637F
  8
0
 10
94.9153358229086308
 20
123.2076373997916932
 30
0.0
  0
VERTEX
  5
16380
  8
0
 10
95.0064486850776575
 20
123.251533676046094
 30
0.0
  0
VERTEX
  5
16381
  8
0
 10
95.0968027239058529
 20
123.2874422745157972
 30
0.0
  0
VERTEX
  5
16382
  8
0
 10
95.1864370462413376
 20
123.3143820143559992
 30
0.0
  0
VERTEX
  5
16383
  8
0
 10
95.2754226108630462
 20
123.3321007994516947
 30
0.0
  0
VERTEX
  5
16384
  8
0
 10
95.3639552666653572
 20
123.3432052450417018
 30
0.0
  0
VERTEX
  5
16385
  8
0
 10
95.4522614680579551
 20
123.3510025208791063
 30
0.0
  0
SEQEND
  5
16386
  8
0
  0
POLYLINE
  5
15452
  8
0
 66
     1
 10
0.0
 20
0.0
 30
0.0
  0
VERTEX
  5
16387
  8
0
 10
84.0158211097532188
 20
123.3510025045289069
 30
0.0
  0
VERTEX
  5
16388
  8
0
 10
84.0985325888317163
 20
123.3430221481884956
 30
0.0
  0
VERTEX
  5
16389
  8
0
 10
84.1823860998905644
 20
123.3315192957229982
 30
0.0
  0
VERTEX
  5
1638A
  8
0
 10
84.2685228525047876
 20
123.3129735692952949
 30
0.0
  0
VERTEX
  5
1638B
  8
0
 10
84.3576268329713059
 20
123.285042271408301
 30
0.0
  0
VERTEX
  5
1638C
  8
0
 10
84.4491656497987719
 20
123.248515756348894
 30
0.0
  0
VERTEX
  5
1638D
  8
0
 10
84.542407735095054
 20
123.2046982465932956
 30
0.0
  0
VERTEX
  5
1638E
  8
0
 10
84.6368179172278872
 20
123.1545785464741982
 30
0.0
  0
VERTEX
  5
1638F
  8
0
 10
84.7323050755061757
 20
123.0984323015126023
 30
0.0
  0
VERTEX
  5
16390
  8
0
 10
84.8288391187360844
 20
123.0364365394301984
 30
0.0
  0
VERTEX
  5
16391
  8
0
 10
84.926393060588552
 20
122.9686937394437933
 30
0.0
  0
VERTEX
  5
16392
  8
0
 10
85.0249458658775978
 20
122.8951634924754046
 30
0.0
  0
VERTEX
  5
16393
  8
0
 10
85.1244767383999772
 20
122.8157923669658942
 30
0.0
  0
VERTEX
  5
16394
  8
0
 10
85.2249133100005878
 20
122.7308993240017969
 30
0.0
  0
VERTEX
  5
16395
  8
0
 10
85.326083546665302
 20
122.6415229955676978
 30
0.0
  0
VERTEX
  5
16396
  8
0
 10
85.4278040321280656
 20
122.5487842030311043
 30
0.0
  0
VERTEX
  5
16397
  8
0
 10
85.5298913501229094
 20
122.4538037677594957
 30
0.0
  0
VERTEX
  5
16398
  8
0
 10
85.6321620843837366
 20
122.3577025111204932
 30
0.0
  0
SEQEND
  5
16399
  8
0
  0
POLYLINE
  5
15454
  8
0
 66
     1
 10
0.0
 20
0.0
 30
0.0
  0
VERTEX
  5
1639A
  8
0
 10
95.4522614697811633
 20
112.8510025005891038
 30
0.0
  0
VERTEX
  5
1639B
  8
0
 10
95.3695499907141055
 20
112.858982857374599
 30
0.0
  0
VERTEX
  5
1639C
  8
0
 10
95.2856964796717847
 20
112.8704857102835035
 30
0.0
  0
VERTEX
  5
1639D
  8
0
 10
95.1995597270842069
 20
112.8890314371516013
 30
0.0
  0
VERTEX
  5
1639E
  8
0
 10
95.11045574665782
 20
112.9169627354743994
 30
0.0
  0
VERTEX
  5
1639F
  8
0
 10
95.0189169298828347
 20
112.9534892509635995
 30
0.0
  0
VERTEX
  5
163A0
  8
0
 10
94.925674844649464
 20
112.9973067611422977
 30
0.0
  0
VERTEX
  5
163A1
  8
0
 10
94.8312646625886231
 20
113.0474264616764941
 30
0.0
  0
VERTEX
  5
163A2
  8
0
 10
94.7357775043910095
 20
113.1035727070450037
 30
0.0
  0
VERTEX
  5
163A3
  8
0
 10
94.6392434612501461
 20
113.1655684695257946
 30
0.0
  0
VERTEX
  5
163A4
  8
0
 10
94.5416895194949944
 20
113.233311269901094
 30
0.0
  0
VERTEX
  5
163A5
  8
0
 10
94.4431367143115779
 20
113.3068415172462977
 30
0.0
  0
VERTEX
  5
163A6
  8
0
 10
94.3436058419032264
 20
113.3862126431179007
 30
0.0
  0
VERTEX
  5
163A7
  8
0
 10
94.2431692704245876
 20
113.4711056864286007
 30
0.0
  0
VERTEX
  5
163A8
  8
0
 10
94.1419990338882826
 20
113.5604820151963992
 30
0.0
  0
VERTEX
  5
163A9
  8
0
 10
94.0402785485587458
 20
113.6532208080571991
 30
0.0
  0
VERTEX
  5
163AA
  8
0
 10
93.938191230700383
 20
113.748201243646605
 30
0.0
  0
VERTEX
  5
163AB
  8
0
 10
93.8359204965776001
 20
113.8443025006003069
 30
0.0
  0
SEQEND
  5
163AC
  8
0
  0
POLYLINE
  5
15455
  8
0
 66
     1
 10
0.0
 20
0.0
 30
0.0
  0
VERTEX
  5
163AD
  8
0
 10
95.4522614697897609
 20
114.1010025005892032
 30
0.0
  0
VERTEX
  5
163AE
  8
0
 10
95.311041431698456
 20
114.1082835985726973
 30
0.0
  0
VERTEX
  5
163AF
  8
0
 10
95.1688378775353954
 20
114.1191965976291982
 30
0.0
  0
VERTEX
  5
163B0
  8
0
 10
95.0247615022380359
 20
114.1370731214100971
 30
0.0
  0
VERTEX
  5
163B1
  8
0
 10
94.8787981258083164
 20
114.1624555197850981
 30
0.0
  0
VERTEX
  5
163B2
  8
0
 10
94.7314086569320324
 20
114.1943718991586962
 30
0.0
  0
VERTEX
  5
163B3
  8
0
 10
94.583058723572023
 20
114.2318353242505964
 30
0.0
  0
VERTEX
  5
163B4
  8
0
 10
94.4341711899124761
 20
114.2738675969358013
 30
0.0
  0
VERTEX
  5
163B5
  8
0
 10
94.2849235321471753
 20
114.3195406548141051
 30
0.0
  0
VERTEX
  5
163B6
  8
0
 10
94.1354058610384357
 20
114.367944285296204
 30
0.0
  0
VERTEX
  5
163B7
  8
0
 10
93.985708181034056
 20
114.4181682975142991
 30
0.0
  0
VERTEX
  5
163B8
  8
0
 10
93.8359204965818776
 20
114.4693025006003069
 30
0.0
  0
SEQEND
  5
163B9
  8
0
  0
POLYLINE
  5
15456
  8
0
 66
     1
 10
0.0
 20
0.0
 30
0.0
  0
VERTEX
  5
163BA
  8
0
 10
85.6321620846979954
 20
114.4693025006568945
 30
0.0
  0
VERTEX
  5
163BB
  8
0
 10
85.4814944748355146
 20
114.4188053273772994
 30
0.0
  0
VERTEX
  5
163BC
  8
0
 10
85.3311379093564568
 20
114.3690591230640052
 30
0.0
  0
VERTEX
  5
163BD
  8
0
 10
85.1814034326442879
 20
114.3208148566832989
 30
0.0
  0
VERTEX
  5
163BE
  8
0
 10
85.0326020890824168
 20
114.274823497201595
 30
0.0
  0
VERTEX
  5
163BF
  8
0
 10
84.8850046867599843
 20
114.2319098258160039
 30
0.0
  0
VERTEX
  5
163C0
  8
0
 10
84.7385481321176286
 20
114.1935111559146065
 30
0.0
  0
VERTEX
  5
163C1
  8
0
 10
84.5930040817688393
 20
114.1613679465552025
 30
0.0
  0
VERTEX
  5
163C2
  8
0
 10
84.448143869403566
 20
114.1371683413824059
 30
0.0
  0
VERTEX
  5
163C3
  8
0
 10
84.3037682815946141
 20
114.1207252946056059
 30
0.0
  0
VERTEX
  5
163C4
  8
0
 10
84.1597142959889908
 20
114.1095475676753068
 30
0.0
  0
VERTEX
  5
163C5
  8
0
 10
84.0158211114850104
 20
114.1010025006682014
 30
0.0
  0
SEQEND
  5
163C6
  8
0
  0
POLYLINE
  5
15457
  8
0
 66
     1
 10
0.0
 20
0.0
 30
0.0
  0
VERTEX
  5
163C7
  8
0
 10
85.6321620846937321
 20
113.8443025006568945
 30
0.0
  0
VERTEX
  5
163C8
  8
0
 10
85.5262483435252534
 20
113.7494771835993959
 30
0.0
  0
VERTEX
  5
163C9
  8
0
 10
85.4211325434276461
 20
113.6556883816001999
 30
0.0
  0
VERTEX
  5
163CA
  8
0
 10
85.3176126254716252
 20
113.5639726097178936
 30
0.0
  0
VERTEX
  5
163CB
  8
0
 10
85.216446120400434
 20
113.4753535120554062
 30
0.0
  0
VERTEX
  5
163CC
  8
0
 10
85.1177030516783617
 20
113.3906357571208048
 30
0.0
  0
VERTEX
  5
163CD
  8
0
 10
85.0208783418996177
 20
113.3104408400085958
 30
0.0
  0
VERTEX
  5
163CE
  8
0
 10
84.9254492150417377
 20
113.2353846123376968
 30
0.0
  0
VERTEX
  5
163CF
  8
0
 10
84.8309870580421261
 20
113.1660057210687
 30
0.0
  0
VERTEX
  5
163D0
  8
0
 10
84.7373968317016164
 20
113.1025693143649988
 30
0.0
  0
VERTEX
  5
163D1
  8
0
 10
84.6446573277572583
 20
113.0452800060541989
 30
0.0
  0
VERTEX
  5
163D2
  8
0
 10
84.5527467568316951
 20
112.9943676228303957
 30
0.0
  0
VERTEX
  5
163D3
  8
0
 10
84.4616338945996148
 20
112.9504713464134937
 30
0.0
  0
VERTEX
  5
163D4
  8
0
 10
84.3712798557198482
 20
112.9145627477724929
 30
0.0
  0
VERTEX
  5
163D5
  8
0
 10
84.2816455333456389
 20
112.8876230077538025
 30
0.0
  0
VERTEX
  5
163D6
  8
0
 10
84.1926599686984645
 20
112.869904222473906
 30
0.0
  0
VERTEX
  5
163D7
  8
0
 10
84.1041273128801663
 20
112.858799776695605
 30
0.0
  0
VERTEX
  5
163D8
  8
0
 10
84.0158211114763134
 20
112.8510025006681019
 30
0.0
  0
SEQEND
  5
163D9
  8
0
  0
POLYLINE
  5
15458
  8
0
 66
     1
 10
0.0
 20
0.0
 30
0.0
  0
VERTEX
  5
163DA
  8
0
 10
93.8359204971611547
 20
121.7327025201555983
 30
0.0
  0
VERTEX
  5
163DB
  8
0
 10
93.9865881069511033
 20
121.7831996935611016
 30
0.0
  0
VERTEX
  5
163DC
  8
0
 10
94.1369446723586947
 20
121.8329458979955007
 30
0.0
  0
VERTEX
  5
163DD
  8
0
 10
94.2866791490015856
 20
121.8811901644875064
 30
0.0
  0
VERTEX
  5
163DE
  8
0
 10
94.4354804924973621
 20
121.9271815240660004
 30
0.0
  0
VERTEX
  5
163DF
  8
0
 10
94.5830778947581479
 20
121.9700951955295949
 30
0.0
  0
VERTEX
  5
163E0
  8
0
 10
94.7295344493453371
 20
122.0084938654908058
 30
0.0
  0
VERTEX
  5
163E1
  8
0
 10
94.8750784996479268
 20
122.0406370748954998
 30
0.0
  0
VERTEX
  5
163E2
  8
0
 10
95.0199387119784546
 20
122.0648366801021041
 30
0.0
  0
VERTEX
  5
163E3
  8
0
 10
95.1643142997637739
 20
122.0812797269044978
 30
0.0
  0
VERTEX
  5
163E4
  8
0
 10
95.3083682853533531
 20
122.0924574538548057
 30
0.0
  0
VERTEX
  5
163E5
  8
0
 10
95.4522614698450553
 20
122.1010025208791063
 30
0.0
  0
SEQEND
  5
163E6
  8
0
  0
POLYLINE
  5
15459
  8
0
 66
     1
 10
0.0
 20
0.0
 30
0.0
  0
VERTEX
  5
163E7
  8
0
 10
84.0158211115403191
 20
122.1010025045289069
 30
0.0
  0
VERTEX
  5
163E8
  8
0
 10
84.1570411496420832
 20
122.0937214069492995
 30
0.0
  0
VERTEX
  5
163E9
  8
0
 10
84.2992447038208041
 20
122.0828084082919958
 30
0.0
  0
VERTEX
  5
163EA
  8
0
 10
84.4433210791438427
 20
122.0649318849011991
 30
0.0
  0
VERTEX
  5
163EB
  8
0
 10
84.5892844556100272
 20
122.0395494869051021
 30
0.0
  0
VERTEX
  5
163EC
  8
0
 10
84.7366739245321554
 20
122.0076331078981013
 30
0.0
  0
VERTEX
  5
163ED
  8
0
 10
84.8850238579459955
 20
121.9701696831598952
 30
0.0
  0
VERTEX
  5
163EE
  8
0
 10
85.033911391665896
 20
121.928137410815097
 30
0.0
  0
VERTEX
  5
163EF
  8
0
 10
85.1831590494967941
 20
121.882464353265803
 30
0.0
  0
VERTEX
  5
163F0
  8
0
 10
85.3326767206750674
 20
121.8340607231042014
 30
0.0
  0
VERTEX
  5
163F1
  8
0
 10
85.4823744007515955
 20
121.7838367112009053
 30
0.0
  0
VERTEX
  5
163F2
  8
0
 10
85.632162085277244
 20
121.7327025084268968
 30
0.0
  0
SEQEND
  5
163F3
  8
0
  0
LINE
  5
1545A
  8
0
 10
92.2340412905406453
 20
132.9010028403750141
 30
0.0
 11
92.0340416302871347
 21
133.1010025006285957
 31
0.0
  0
LINE
  5
1545B
  8
0
 10
87.4340409507941132
 20
133.1010025006285957
 30
0.0
 11
87.2340412905406026
 21
132.9010028403750141
 31
0.0
  0
LINE
  5
1545C
  8
0
 10
92.0340416302871063
 20
133.1010025006285957
 30
0.0
 11
87.4340409507941416
 21
133.1010025006285957
 31
0.0
  0
LINE
  5
1545D
  8
0
 10
92.2340412905406453
 20
132.9010028403750141
 30
0.0
 11
87.2340412905406311
 21
132.9010028403750994
 31
0.0
  0
LINE
  5
15466
  8
0
 10
115.5728762512899976
 20
170.4828093929529871
 30
0.0
 11
119.5728762512899976
 21
170.4828093929529871
 31
0.0
  0
LINE
  5
15468
  8
0
 10
108.5812341897648992
 20
174.4828093929536976
 30
0.0
 11
108.2382186584456036
 21
174.4828093929536976
 31
0.0
  0
LINE
  5
15469
  8
0
 10
108.5812341897649986
 20
185.0828093929536919
 30
0.0
 11
108.2382186584456036
 21
185.0828093929536919
 31
0.0
  0
POLYLINE
  5
1546C
  8
0
 66
     1
 10
0.0
 20
0.0
 30
0.0
  0
VERTEX
  5
163F4
  8
0
 10
95.4522614680579551
 20
184.6358453512910955
 30
0.0
  0
VERTEX
  5
163F5
  8
0
 10
95.3695503689420718
 20
184.7669806562988128
 30
0.0
  0
VERTEX
  5
163F6
  8
0
 10
95.2856971658695926
 20
184.8968180567185016
 30
0.0
  0
VERTEX
  5
163F7
  8
0
 10
95.1995605778223535
 20
185.0240602066135125
 30
0.0
  0
VERTEX
  5
163F8
  8
0
 10
95.1104566110408172
 20
185.1477201892598998
 30
0.0
  0
VERTEX
  5
163F9
  8
0
 10
95.0189177271683576
 20
185.267636878037905
 30
0.0
  0
VERTEX
  5
163FA
  8
0
 10
94.9256755598229631
 20
185.3837848504996941
 30
0.0
  0
VERTEX
  5
163FB
  8
0
 10
94.8312653027243471
 20
185.4961171224668988
 30
0.0
  0
VERTEX
  5
163FC
  8
0
 10
94.7357780669185843
 20
185.6045379661443064
 30
0.0
  0
VERTEX
  5
163FD
  8
0
 10
94.6392439400731718
 20
185.7089422975263062
 30
0.0
  0
VERTEX
  5
163FE
  8
0
 10
94.5416899075110564
 20
185.8089180965112064
 30
0.0
  0
VERTEX
  5
163FF
  8
0
 10
94.4431370094995941
 20
185.903465158113903
 30
0.0
  0
VERTEX
  5
16400
  8
0
 10
94.3436060486848902
 20
185.9915233340612986
 30
0.0
  0
VERTEX
  5
16401
  8
0
 10
94.2431694072094359
 20
186.0728092558360913
 30
0.0
  0
VERTEX
  5
16402
  8
0
 10
94.1419991197286237
 20
186.1485403073498048
 30
0.0
  0
VERTEX
  5
16403
  8
0
 10
94.040278597743864
 20
186.2201052061678865
 30
0.0
  0
VERTEX
  5
16404
  8
0
 10
93.9381912527563969
 20
186.288892669855386
 30
0.0
  0
VERTEX
  5
16405
  8
0
 10
93.8359204962676046
 20
186.3562914159778074
 30
0.0
  0
SEQEND
  5
16406
  8
0
  0
POLYLINE
  5
1546D
  8
0
 66
     1
 10
0.0
 20
0.0
 30
0.0
  0
VERTEX
  5
16407
  8
0
 10
93.8359204962676472
 20
173.2093273712056032
 30
0.0
  0
VERTEX
  5
16408
  8
0
 10
93.941834237299858
 20
173.2717303652650003
 30
0.0
  0
VERTEX
  5
16409
  8
0
 10
94.0469500372627181
 20
173.3365442182787035
 30
0.0
  0
VERTEX
  5
1640A
  8
0
 10
94.1504699550869901
 20
173.4061797892009054
 30
0.0
  0
VERTEX
  5
1640B
  8
0
 10
94.2516364600308663
 20
173.4829434290591053
 30
0.0
  0
VERTEX
  5
1640C
  8
0
 10
94.3503795286312368
 20
173.5673634790350945
 30
0.0
  0
VERTEX
  5
1640D
  8
0
 10
94.4472042382948018
 20
173.6584809724072045
 30
0.0
  0
VERTEX
  5
1640E
  8
0
 10
94.542633365044864
 20
173.7552911649241025
 30
0.0
  0
VERTEX
  5
1640F
  8
0
 10
94.6370955219448291
 20
173.8569328788086921
 30
0.0
  0
VERTEX
  5
16410
  8
0
 10
94.7306857481942046
 20
173.9630535229248949
 30
0.0
  0
VERTEX
  5
16411
  8
0
 10
94.8234252520562535
 20
174.0734130731933078
 30
0.0
  0
VERTEX
  5
16412
  8
0
 10
94.9153358229086308
 20
174.1877618329997119
 30
0.0
  0
VERTEX
  5
16413
  8
0
 10
95.0064486850776575
 20
174.3056930628721943
 30
0.0
  0
VERTEX
  5
16414
  8
0
 10
95.0968027239058529
 20
174.4266725072357929
 30
0.0
  0
VERTEX
  5
16415
  8
0
 10
95.1864370462413376
 20
174.5501622237449908
 30
0.0
  0
VERTEX
  5
16416
  8
0
 10
95.2754226108630462
 20
174.6756039980390938
 30
0.0
  0
VERTEX
  5
16417
  8
0
 10
95.3639552666653572
 20
174.8023601300164103
 30
0.0
  0
VERTEX
  5
16418
  8
0
 10
95.4522614680579551
 20
174.9297734408353051
 30
0.0
  0
SEQEND
  5
16419
  8
0
  0
POLYLINE
  5
1546E
  8
0
 66
     1
 10
0.0
 20
0.0
 30
0.0
  0
VERTEX
  5
1641A
  8
0
 10
85.6321620843836371
 20
186.3562914159776938
 30
0.0
  0
VERTEX
  5
1641B
  8
0
 10
85.5262473474757172
 20
186.2938887330564057
 30
0.0
  0
VERTEX
  5
1641C
  8
0
 10
85.421130485266346
 20
186.2290753304594944
 30
0.0
  0
VERTEX
  5
1641D
  8
0
 10
85.3176093724541005
 20
186.15944048851091
 30
0.0
  0
VERTEX
  5
1641E
  8
0
 10
85.216441508872677
 20
186.082677912983911
 30
0.0
  0
VERTEX
  5
1641F
  8
0
 10
85.1176971034718548
 20
185.9982589170660958
 30
0.0
  0
VERTEX
  5
16420
  8
0
 10
85.0208712413330829
 20
185.9071423128727076
 30
0.0
  0
VERTEX
  5
16421
  8
0
 10
84.9254412950181887
 20
185.8103327299313889
 30
0.0
  0
VERTEX
  5
16422
  8
0
 10
84.8309786912055728
 20
185.7086913691271093
 30
0.0
  0
VERTEX
  5
16423
  8
0
 10
84.7373883222304585
 20
185.6025709099909875
 30
0.0
  0
VERTEX
  5
16424
  8
0
 10
84.6446489493500849
 20
185.4922113849991092
 30
0.0
  0
VERTEX
  5
16425
  8
0
 10
84.5527387555059278
 20
185.3778624818492915
 30
0.0
  0
VERTEX
  5
16426
  8
0
 10
84.4616265208412642
 20
185.2599308718897078
 30
0.0
  0
VERTEX
  5
16427
  8
0
 10
84.3712733836501201
 20
185.1389508103372066
 30
0.0
  0
VERTEX
  5
16428
  8
0
 10
84.2816402608475386
 20
185.0154602483030999
 30
0.0
  0
VERTEX
  5
16429
  8
0
 10
84.1926562309106856
 20
184.8900173971173047
 30
0.0
  0
VERTEX
  5
1642A
  8
0
 10
84.1041253764603169
 20
184.7632600085495937
 30
0.0
  0
VERTEX
  5
1642B
  8
0
 10
84.0158211097532046
 20
184.6358453512910955
 30
0.0
  0
SEQEND
  5
1642C
  8
0
  0
POLYLINE
  5
1546F
  8
0
 66
     1
 10
0.0
 20
0.0
 30
0.0
  0
VERTEX
  5
1642D
  8
0
 10
84.0158211097532188
 20
174.9297734408353051
 30
0.0
  0
VERTEX
  5
1642E
  8
0
 10
84.0985325888317163
 20
174.7986383786895033
 30
0.0
  0
VERTEX
  5
1642F
  8
0
 10
84.1823860998905644
 20
174.6688011734593999
 30
0.0
  0
VERTEX
  5
16430
  8
0
 10
84.2685228525047876
 20
174.5415591237683088
 30
0.0
  0
VERTEX
  5
16431
  8
0
 10
84.3576268329713059
 20
174.4178991410107074
 30
0.0
  0
VERTEX
  5
16432
  8
0
 10
84.4491656497987719
 20
174.2979823953091909
 30
0.0
  0
VERTEX
  5
16433
  8
0
 10
84.542407735095054
 20
174.1818343493955865
 30
0.0
  0
VERTEX
  5
16434
  8
0
 10
84.6368179172278872
 20
174.0695020142642875
 30
0.0
  0
VERTEX
  5
16435
  8
0
 10
84.7323050755061757
 20
173.96108112142241
 30
0.0
  0
VERTEX
  5
16436
  8
0
 10
84.8288391187360844
 20
173.856676754111902
 30
0.0
  0
VERTEX
  5
16437
  8
0
 10
84.926393060588552
 20
173.7567008785750033
 30
0.0
  0
VERTEX
  5
16438
  8
0
 10
85.0249458658775978
 20
173.6621536685366038
 30
0.0
  0
VERTEX
  5
16439
  8
0
 10
85.1244767383999772
 20
173.5740952686460048
 30
0.0
  0
VERTEX
  5
1643A
  8
0
 10
85.2249133100005878
 20
173.4928092025124045
 30
0.0
  0
VERTEX
  5
1643B
  8
0
 10
85.326083546665302
 20
173.4170781274758042
 30
0.0
  0
VERTEX
  5
1643C
  8
0
 10
85.4278040321280656
 20
173.3455132957620037
 30
0.0
  0
VERTEX
  5
1643D
  8
0
 10
85.5298913501229094
 20
173.2767259595966891
 30
0.0
  0
VERTEX
  5
1643E
  8
0
 10
85.6321620843837366
 20
173.2093273712056032
 30
0.0
  0
SEQEND
  5
1643F
  8
0
  0
ARC
  5
15470
  8
2
 10
84.4790839523660679
 20
179.53280939295351
 30
0.0
 40
2.500000000000028
 50
214.660226011139514
 51
270.0
  0
LINE
  5
15471
  8
2
 10
94.9889986288881545
 20
177.03280939295351
 30
0.0
 11
84.4790839523660679
 21
177.03280939295351
 31
0.0
  0
LINE
  5
15472
  8
2
 10
97.2154547586286952
 20
179.2551233870701992
 30
0.0
 11
94.9960696967000331
 21
177.0357383251416934
 31
0.0
  0
LINE
  5
15473
  8
2
 10
97.215454758628681
 20
180.3104953988367072
 30
0.0
 11
94.9960696967000189
 21
182.529880460765412
 31
0.0
  0
LINE
  5
15474
  8
2
 10
94.9889986288881545
 20
182.53280939295351
 30
0.0
 11
84.4790839523660679
 21
182.53280939295351
 31
0.0
  0
ARC
  5
15475
  8
2
 10
84.4790839523660679
 20
180.03280939295351
 30
0.0
 40
2.5000000000000182
 50
90.0
 51
145.3397739888526132
  0
LINE
  5
15476
  8
2
 10
95.5381346737492692
 20
184.5328093929531974
 30
0.0
 11
83.9299479075048822
 21
184.5328093929531121
 31
0.0
  0
LINE
  5
15477
  8
2
 10
95.5381346737489139
 20
175.0328093929531974
 30
0.0
 11
83.9299479075053085
 21
175.0328093929531121
 31
0.0
  0
POLYLINE
  5
155D4
  8
0
 66
     1
 10
0.0
 20
0.0
 30
0.0
  0
VERTEX
  5
16440
  8
0
 10
32.5000000000000497
 20
128.0964878618862883
 30
0.0
  0
VERTEX
  5
16441
  8
0
 10
32.5074615751967073
 20
128.0349162502153035
 30
0.0
  0
VERTEX
  5
16442
  8
0
 10
32.5164616066622898
 20
127.9737669380395033
 30
0.0
  0
VERTEX
  5
16443
  8
0
 10
32.5285385506657221
 20
127.9134622248543991
 30
0.0
  0
VERTEX
  5
16444
  8
0
 10
32.5452308634759007
 20
127.8544244101551044
 30
0.0
  0
VERTEX
  5
16445
  8
0
 10
32.5680463422475981
 20
127.7970683266183016
 30
0.0
  0
VERTEX
  5
16446
  8
0
 10
32.5974528119940032
 20
127.7415555287822997
 30
0.0
  0
VERTEX
  5
16447
  8
0
 10
32.6326489804878932
 20
127.6877384863170022
 30
0.0
  0
VERTEX
  5
16448
  8
0
 10
32.6727564969630535
 20
127.6354509018096053
 30
0.0
  0
VERTEX
  5
16449
  8
0
 10
32.716897010653291
 20
127.5845264778476036
 30
0.0
  0
VERTEX
  5
1644A
  8
0
 10
32.7643669446498933
 20
127.5350204510362033
 30
0.0
  0
VERTEX
  5
1644B
  8
0
 10
32.8155757018867931
 20
127.488398811854907
 30
0.0
  0
VERTEX
  5
1644C
  8
0
 10
32.8713692793228631
 20
127.4466809540785022
 30
0.0
  0
VERTEX
  5
1644D
  8
0
 10
32.9325947026162922
 20
127.4118875754057996
 30
0.0
  0
VERTEX
  5
1644E
  8
0
 10
33.0000000000002771
 20
127.3858870287416067
 30
0.0
  0
SEQEND
  5
1644F
  8
0
  0
POLYLINE
  5
155D5
  8
0
 66
     1
 10
0.0
 20
0.0
 30
0.0
  0
VERTEX
  5
16450
  8
0
 10
38.00000000000027
 20
127.3953366932721991
 30
0.0
  0
VERTEX
  5
16451
  8
0
 10
38.0665265382403319
 20
127.4233082836367004
 30
0.0
  0
VERTEX
  5
16452
  8
0
 10
38.1297210532552526
 20
127.455130276516897
 30
0.0
  0
VERTEX
  5
16453
  8
0
 10
38.1873181576594973
 20
127.4932484313358998
 30
0.0
  0
VERTEX
  5
16454
  8
0
 10
38.2394914340374115
 20
127.5368966500167005
 30
0.0
  0
VERTEX
  5
16455
  8
0
 10
38.2867538421332085
 20
127.5848619117687974
 30
0.0
  0
VERTEX
  5
16456
  8
0
 10
38.3296183416911518
 20
127.635931195801902
 30
0.0
  0
VERTEX
  5
16457
  8
0
 10
38.3685276642048976
 20
127.6889592749874964
 30
0.0
  0
VERTEX
  5
16458
  8
0
 10
38.4032190781384912
 20
127.7434819290788965
 30
0.0
  0
VERTEX
  5
16459
  8
0
 10
38.4330223940002682
 20
127.7994282705210054
 30
0.0
  0
VERTEX
  5
1645A
  8
0
 10
38.4572624844678685
 20
127.8567321784103967
 30
0.0
  0
VERTEX
  5
1645B
  8
0
 10
38.4752662897479425
 20
127.9153272943108988
 30
0.0
  0
VERTEX
  5
1645C
  8
0
 10
38.4870946531028579
 20
127.9750629436286999
 30
0.0
  0
VERTEX
  5
1645D
  8
0
 10
38.4946224645327177
 20
128.0355800407953097
 30
0.0
  0
VERTEX
  5
1645E
  8
0
 10
38.5000000000000497
 20
128.0964878618862883
 30
0.0
  0
SEQEND
  5
1645F
  8
0
  0
LINE
  5
155DE
  8
0
 10
40.7999999999993719
 20
123.7995146205121983
 30
0.0
 11
40.7999999999993719
 21
123.2998883911646004
 31
0.0
  0
LINE
  5
155DF
  8
0
 10
40.8174570390557534
 20
124.1010025003344026
 30
0.0
 11
40.8174570390557676
 21
123.2957687199378967
 31
0.0
  0
POLYLINE
  5
161AE
  8
0
 66
     1
 10
0.0
 20
0.0
 30
0.0
  0
VERTEX
  5
16460
  8
0
 10
40.810792993710642
 20
118.6403642992150935
 30
0.0
  0
VERTEX
  5
16461
  8
0
 10
40.7955574707308486
 20
118.6833626462499041
 30
0.0
  0
VERTEX
  5
16462
  8
0
 10
40.7807404728714715
 20
118.726477789695295
 30
0.0
  0
VERTEX
  5
16463
  8
0
 10
40.7667605252529412
 20
118.7698265259617045
 30
0.0
  0
VERTEX
  5
16464
  8
0
 10
40.7540361529956598
 20
118.8135256514596989
 30
0.0
  0
VERTEX
  5
16465
  8
0
 10
40.7429841149308629
 20
118.8576909507439012
 30
0.0
  0
VERTEX
  5
16466
  8
0
 10
40.7338725182361969
 20
118.9023530501618069
 30
0.0
  0
VERTEX
  5
16467
  8
0
 10
40.726710452562493
 20
118.9473941924549933
 30
0.0
  0
VERTEX
  5
16468
  8
0
 10
40.721480625079252
 20
118.9926817866809046
 30
0.0
  0
VERTEX
  5
16469
  8
0
 10
40.7180145453188516
 20
119.0381062828299008
 30
0.0
  0
VERTEX
  5
1646A
  8
0
 10
40.7157635112392171
 20
119.0836160711459968
 30
0.0
  0
VERTEX
  5
1646B
  8
0
 10
40.7141199999999586
 20
119.1291685055457066
 30
0.0
  0
SEQEND
  5
1646C
  8
0
  0
LINE
  5
161AF
  8
0
 10
40.7999999999993577
 20
119.7995146205121983
 30
0.0
 11
40.7999999999993719
 21
121.9521437844761067
 31
0.0
  0
LINE
  5
161B0
  8
0
 10
38.0000000000002913
 20
132.9010028403750994
 30
0.0
 11
37.8000003397467594
 21
133.1010025006285957
 31
0.0
  0
LINE
  5
161B1
  8
0
 10
33.1999996602537735
 20
133.1010025006285957
 30
0.0
 11
33.0000000000002416
 21
132.9010028403750994
 31
0.0
  0
LINE
  5
161B2
  8
0
 10
37.8000003397467523
 20
133.1010025006285957
 30
0.0
 11
33.1999996602537806
 21
133.1010025006285957
 31
0.0
  0
LINE
  5
161B3
  8
0
 10
38.0000000000002913
 20
132.9010028403750994
 30
0.0
 11
33.00000000000027
 21
132.9010028403750994
 31
0.0
  0
POLYLINE
  5
161BC
  8
0
 66
     1
 10
0.0
 20
0.0
 30
0.0
  0
VERTEX
  5
1646D
  8
0
 10
176.3138053480946894
 20
122.8707900104250967
 30
0.0
  0
VERTEX
  5
1646E
  8
0
 10
176.3732038554583141
 20
122.926828098537797
 30
0.0
  0
VERTEX
  5
1646F
  8
0
 10
176.4354904241569955
 20
122.9803830607193049
 30
0.0
  0
VERTEX
  5
16470
  8
0
 10
176.5022641746620877
 20
123.0298750771894021
 30
0.0
  0
VERTEX
  5
16471
  8
0
 10
176.5730512748039871
 20
123.0751770797441935
 30
0.0
  0
VERTEX
  5
16472
  8
0
 10
176.6471904987961921
 20
123.116293328010002
 30
0.0
  0
VERTEX
  5
16473
  8
0
 10
176.7240206208524
 20
123.1532280816128946
 30
0.0
  0
VERTEX
  5
16474
  8
0
 10
176.8028810028991131
 20
123.185987513677901
 30
0.0
  0
VERTEX
  5
16475
  8
0
 10
176.8832016021304128
 20
123.2148727609026935
 30
0.0
  0
VERTEX
  5
16476
  8
0
 10
176.9645999198777986
 20
123.240795573435804
 30
0.0
  0
VERTEX
  5
16477
  8
0
 10
177.046716716635899
 20
123.2647434295079023
 30
0.0
  0
VERTEX
  5
16478
  8
0
 10
177.1291927528993995
 20
123.2877038073493026
 30
0.0
  0
SEQEND
  5
16479
  8
0
  0
POLYLINE
  5
161BD
  8
0
 66
     1
 10
0.0
 20
0.0
 30
0.0
  0
VERTEX
  5
1647A
  8
0
 10
180.4466497919551955
 20
127.2719952725389021
 30
0.0
  0
VERTEX
  5
1647B
  8
0
 10
180.3537808887182905
 20
127.2798840884028948
 30
0.0
  0
VERTEX
  5
1647C
  8
0
 10
180.261721425009398
 20
127.2902003024209989
 30
0.0
  0
VERTEX
  5
1647D
  8
0
 10
180.171280840356502
 20
127.3053713127468995
 30
0.0
  0
VERTEX
  5
1647E
  8
0
 10
180.0832678026069971
 20
127.3277843076307931
 30
0.0
  0
VERTEX
  5
1647F
  8
0
 10
179.9984629417425026
 20
127.358365508512307
 30
0.0
  0
VERTEX
  5
16480
  8
0
 10
179.917611561210208
 20
127.3962003799396001
 30
0.0
  0
VERTEX
  5
16481
  8
0
 10
179.8414567105990045
 20
127.4402569448278939
 30
0.0
  0
VERTEX
  5
16482
  8
0
 10
179.7707025951559956
 20
127.4895709887514954
 30
0.0
  0
VERTEX
  5
16483
  8
0
 10
179.7057875830687976
 20
127.5436420411761986
 30
0.0
  0
VERTEX
  5
16484
  8
0
 10
179.6470387277248051
 20
127.6021638165265983
 30
0.0
  0
VERTEX
  5
16485
  8
0
 10
179.5947836640891921
 20
127.6648301150690941
 30
0.0
  0
VERTEX
  5
16486
  8
0
 10
179.5495269733523003
 20
127.7312290862965938
 30
0.0
  0
VERTEX
  5
16487
  8
0
 10
179.5121558020993859
 20
127.8007204581593044
 30
0.0
  0
VERTEX
  5
16488
  8
0
 10
179.4836072173712012
 20
127.8726341521800975
 30
0.0
  0
VERTEX
  5
16489
  8
0
 10
179.4646819639781938
 20
127.9463028876243982
 30
0.0
  0
VERTEX
  5
1648A
  8
0
 10
179.4536690128963983
 20
128.021110932911597
 30
0.0
  0
VERTEX
  5
1648B
  8
0
 10
179.4466497919551955
 20
128.0964878618862883
 30
0.0
  0
SEQEND
  5
1648C
  8
0
  0
POLYLINE
  5
161BE
  8
0
 66
     1
 10
0.0
 20
0.0
 30
0.0
  0
VERTEX
  5
1648D
  8
0
 10
185.4466497919551955
 20
128.0964878618862883
 30
0.0
  0
VERTEX
  5
1648E
  8
0
 10
185.4370558038228012
 20
128.0209050997364955
 30
0.0
  0
VERTEX
  5
1648F
  8
0
 10
185.4246685755319106
 20
127.9459346441723966
 30
0.0
  0
VERTEX
  5
16490
  8
0
 10
185.4066948669245107
 20
127.8721888017796999
 30
0.0
  0
VERTEX
  5
16491
  8
0
 10
185.3803580003165905
 20
127.8002798220156961
 30
0.0
  0
VERTEX
  5
16492
  8
0
 10
185.3442346898586948
 20
127.7308152861105981
 30
0.0
  0
VERTEX
  5
16493
  8
0
 10
185.2992374355960123
 20
127.6643947185162062
 30
0.0
  0
VERTEX
  5
16494
  8
0
 10
185.2465103151237997
 20
127.6016168449088042
 30
0.0
  0
VERTEX
  5
16495
  8
0
 10
185.1871707448844973
 20
127.5430710009470943
 30
0.0
  0
VERTEX
  5
16496
  8
0
 10
185.1219146226588919
 20
127.4891980640664997
 30
0.0
  0
VERTEX
  5
16497
  8
0
 10
185.0511014048005052
 20
127.4403204175491027
 30
0.0
  0
VERTEX
  5
16498
  8
0
 10
184.975081173504492
 20
127.3967571431130068
 30
0.0
  0
VERTEX
  5
16499
  8
0
 10
184.8942657233193074
 20
127.3588824088332956
 30
0.0
  0
VERTEX
  5
1649A
  8
0
 10
184.8094067812889989
 20
127.3273738170514946
 30
0.0
  0
VERTEX
  5
1649B
  8
0
 10
184.7213724913827093
 20
127.3030128874599001
 30
0.0
  0
VERTEX
  5
1649C
  8
0
 10
184.6310307720760875
 20
127.2865699002241939
 30
0.0
  0
VERTEX
  5
1649D
  8
0
 10
184.5392081414672987
 20
127.2773860491920033
 30
0.0
  0
VERTEX
  5
1649E
  8
0
 10
184.4466497919551955
 20
127.2719952725389021
 30
0.0
  0
SEQEND
  5
1649F
  8
0
  0
POLYLINE
  5
161BF
  8
0
 66
     1
 10
0.0
 20
0.0
 30
0.0
  0
VERTEX
  5
164A0
  8
0
 10
184.7560508794715872
 20
126.4322003469988971
 30
0.0
  0
VERTEX
  5
164A1
  8
0
 10
184.8345278808650107
 20
126.504231589100101
 30
0.0
  0
VERTEX
  5
164A2
  8
0
 10
184.9131904769537869
 20
126.5752171413808043
 30
0.0
  0
VERTEX
  5
164A3
  8
0
 10
184.9922242624336945
 20
126.6441113140208046
 30
0.0
  0
VERTEX
  5
164A4
  8
0
 10
185.0718148320002001
 20
126.7098684171995018
 30
0.0
  0
VERTEX
  5
164A5
  8
0
 10
185.1521477803487983
 20
126.7714427610964947
 30
0.0
  0
VERTEX
  5
164A6
  8
0
 10
185.2334087021750975
 20
126.8277886558914958
 30
0.0
  0
VERTEX
  5
164A7
  8
0
 10
185.3157325517653931
 20
126.8780383749411982
 30
0.0
  0
VERTEX
  5
164A8
  8
0
 10
185.3990197883238977
 20
126.9221482664986951
 30
0.0
  0
VERTEX
  5
164A9
  8
0
 10
185.483103044121691
 20
126.9603130397753006
 30
0.0
  0
VERTEX
  5
164AA
  8
0
 10
185.5678207893431022
 20
126.9926160637331947
 30
0.0
  0
VERTEX
  5
164AB
  8
0
 10
185.6530524094600025
 20
127.0183611152926062
 30
0.0
  0
VERTEX
  5
164AC
  8
0
 10
185.7386947723304047
 20
127.0365188653484978
 30
0.0
  0
VERTEX
  5
164AD
  8
0
 10
185.8246415852798918
 20
127.0463980267168012
 30
0.0
  0
VERTEX
  5
164AE
  8
0
 10
185.9107514193933071
 20
127.0510024947927974
 30
0.0
  0
SEQEND
  5
164AF
  8
0
  0
POLYLINE
  5
161C0
  8
0
 66
     1
 10
0.0
 20
0.0
 30
0.0
  0
VERTEX
  5
164B0
  8
0
 10
185.9107514193933071
 20
127.0510024947927974
 30
0.0
  0
VERTEX
  5
164B1
  8
0
 10
186.0203543151316126
 20
127.0384292301877025
 30
0.0
  0
VERTEX
  5
164B2
  8
0
 10
186.129675835981601
 20
127.0216673002723979
 30
0.0
  0
VERTEX
  5
164B3
  8
0
 10
186.2384346070552112
 20
126.9965280397368019
 30
0.0
  0
VERTEX
  5
164B4
  8
0
 10
186.3463507269817114
 20
126.9591709627924985
 30
0.0
  0
VERTEX
  5
164B5
  8
0
 10
186.4531586159799019
 20
126.9091396521563979
 30
0.0
  0
VERTEX
  5
164B6
  8
0
 10
186.5586007547292127
 20
126.8478823079990008
 30
0.0
  0
VERTEX
  5
164B7
  8
0
 10
186.6624241111956906
 20
126.7768720542810996
 30
0.0
  0
VERTEX
  5
164B8
  8
0
 10
186.7646270431895061
 20
126.6977901121810959
 30
0.0
  0
VERTEX
  5
164B9
  8
0
 10
186.8655905716958898
 20
126.6126344664373988
 30
0.0
  0
VERTEX
  5
164BA
  8
0
 10
186.9657278312108986
 20
126.5234296849310027
 30
0.0
  0
VERTEX
  5
164BB
  8
0
 10
187.0654519562301061
 20
126.4322003355433992
 30
0.0
  0
SEQEND
  5
164BC
  8
0
  0
ENDSEC
  0
EOF
