  0
SECTION
  2
HEADER
  9
$ACADVER
  1
AC1009
  9
$INSBASE
 10
0.0
 20
0.0
 30
0.0
  9
$EXTMIN
 10
0.0
 20
-2.960436562073669
 30
0.0
  9
$EXTMAX
 10
223.5000000193269045
 20
207.5000000193269898
 30
0.0
  9
$LIMMIN
 10
0.0
 20
0.0
  9
$LIMMAX
 10
420.0
 20
297.0
  9
$ORTHOMODE
 70
     1
  9
$REGENMODE
 70
     1
  9
$FILLMODE
 70
     1
  9
$QTEXTMODE
 70
     0
  9
$MIRRTEXT
 70
     0
  9
$DRAGMODE
 70
     2
  9
$LTSCALE
 40
10.0
  9
$OSMODE
 70
    37
  9
$ATTMODE
 70
     1
  9
$TEXTSIZE
 40
2.5
  9
$TRACEWID
 40
1.0
  9
$TEXTSTYLE
  7
STANDARD
  9
$CLAYER
  8
0
  9
$CELTYPE
  6
BYLAYER
  9
$CECOLOR
 62
   256
  9
$DIMSCALE
 40
1.0
  9
$DIMASZ
 40
2.5
  9
$DIMEXO
 40
0.625
  9
$DIMDLI
 40
3.75
  9
$DIMRND
 40
0.0
  9
$DIMDLE
 40
0.0
  9
$DIMEXE
 40
1.25
  9
$DIMTP
 40
0.0
  9
$DIMTM
 40
0.0
  9
$DIMTXT
 40
2.5
  9
$DIMCEN
 40
2.5
  9
$DIMTSZ
 40
0.0
  9
$DIMTOL
 70
     0
  9
$DIMLIM
 70
     0
  9
$DIMTIH
 70
     0
  9
$DIMTOH
 70
     0
  9
$DIMSE1
 70
     0
  9
$DIMSE2
 70
     0
  9
$DIMTAD
 70
     1
  9
$DIMZIN
 70
     8
  9
$DIMBLK
  1

  9
$DIMASO
 70
     1
  9
$DIMSHO
 70
     1
  9
$DIMPOST
  1

  9
$DIMAPOST
  1

  9
$DIMALT
 70
     0
  9
$DIMALTD
 70
     3
  9
$DIMALTF
 40
0.03937007874016
  9
$DIMLFAC
 40
1.0
  9
$DIMTOFL
 70
     1
  9
$DIMTVP
 40
0.0
  9
$DIMTIX
 70
     0
  9
$DIMSOXD
 70
     0
  9
$DIMSAH
 70
     0
  9
$DIMBLK1
  1

  9
$DIMBLK2
  1

  9
$DIMSTYLE
  2
ISO-25
  9
$DIMCLRD
 70
     0
  9
$DIMCLRE
 70
     0
  9
$DIMCLRT
 70
     0
  9
$DIMTFAC
 40
1.0
  9
$DIMGAP
 40
0.625
  9
$LUNITS
 70
     2
  9
$LUPREC
 70
     1
  9
$SKETCHINC
 40
1.0
  9
$FILLETRAD
 40
0.0
  9
$AUNITS
 70
     0
  9
$AUPREC
 70
     1
  9
$MENU
  1
.
  9
$ELEVATION
 40
0.0
  9
$PELEVATION
 40
0.0
  9
$THICKNESS
 40
0.0
  9
$LIMCHECK
 70
     0
  9
$BLIPMODE
 70
     0
  9
$CHAMFERA
 40
0.0
  9
$CHAMFERB
 40
0.0
  9
$SKPOLY
 70
     0
  9
$TDCREATE
 40
2454083.4444560189731419
  9
$TDUPDATE
 40
2460571.6585300927981734
  9
$TDINDWG
 40
2.5291562615999998
  9
$TDUSRTIMER
 40
2.5291562615999998
  9
$USRTIMER
 70
     1
  9
$ANGBASE
 50
0.0
  9
$ANGDIR
 70
     0
  9
$PDMODE
 70
     0
  9
$PDSIZE
 40
0.0
  9
$PLINEWID
 40
0.0
  9
$COORDS
 70
     1
  9
$SPLFRAME
 70
     0
  9
$SPLINETYPE
 70
     6
  9
$SPLINESEGS
 70
     8
  9
$ATTDIA
 70
     1
  9
$ATTREQ
 70
     1
  9
$HANDLING
 70
     1
  9
$HANDSEED
  5
147AF
  9
$SURFTAB1
 70
     6
  9
$SURFTAB2
 70
     6
  9
$SURFTYPE
 70
     6
  9
$SURFU
 70
     6
  9
$SURFV
 70
     6
  9
$UCSNAME
  2

  9
$UCSORG
 10
0.0
 20
0.0
 30
0.0
  9
$UCSXDIR
 10
1.0
 20
0.0
 30
0.0
  9
$UCSYDIR
 10
0.0
 20
1.0
 30
0.0
  9
$PUCSNAME
  2

  9
$PUCSORG
 10
0.0
 20
0.0
 30
0.0
  9
$PUCSXDIR
 10
1.0
 20
0.0
 30
0.0
  9
$PUCSYDIR
 10
0.0
 20
1.0
 30
0.0
  9
$USERI1
 70
     0
  9
$USERI2
 70
     0
  9
$USERI3
 70
     0
  9
$USERI4
 70
     0
  9
$USERI5
 70
     0
  9
$USERR1
 40
0.0
  9
$USERR2
 40
0.0
  9
$USERR3
 40
0.0
  9
$USERR4
 40
0.0
  9
$USERR5
 40
0.0
  9
$WORLDVIEW
 70
     1
  9
$SHADEDGE
 70
     3
  9
$SHADEDIF
 70
    70
  9
$TILEMODE
 70
     1
  9
$MAXACTVP
 70
    64
  9
$PLIMCHECK
 70
     0
  9
$PEXTMIN
 10
0.0
 20
0.0
 30
0.0
  9
$PEXTMAX
 10
0.0
 20
0.0
 30
0.0
  9
$PLIMMIN
 10
0.0
 20
0.0
  9
$PLIMMAX
 10
12.0
 20
9.0
  9
$UNITMODE
 70
     0
  9
$VISRETAIN
 70
     1
  9
$PLINEGEN
 70
     0
  9
$PSLTSCALE
 70
     1
  0
ENDSEC
  0
SECTION
  2
TABLES
  0
TABLE
  2
VPORT
 70
     1
  0
VPORT
  2
*ACTIVE
 70
     0
 10
0.0
 20
0.0
 11
1.0
 21
1.0
 12
352.2783251231526833
 22
150.0
 13
0.0
 23
0.0
 14
10.0
 24
10.0
 15
10.0
 25
10.0
 16
0.0
 26
0.0
 36
1.0
 17
0.0
 27
0.0
 37
0.0
 40
300.0
 41
2.3485221674876842
 42
50.0
 43
0.0
 44
0.0
 50
0.0
 51
0.0
 71
     0
 72
  1000
 73
     1
 74
     3
 75
     0
 76
     0
 77
     0
 78
     0
  0
ENDTAB
  0
TABLE
  2
LTYPE
 70
     3
  0
LTYPE
  2
CONTINUOUS
 70
     0
  3
Solid line
 72
    65
 73
     0
 40
0.0
  0
LTYPE
  2
CENTER
 70
     0
  3
____ _ ____ _ ____ _ ____ _ ____ _ ____ _ ____
 72
    65
 73
     4
 40
2.0
 49
1.25
 49
-0.25
 49
0.25
 49
-0.25
  0
LTYPE
  2
HIDDEN
 70
     0
  3
Hidden __ __ __ __ __ __ __ __ __ __ __ __ __ __
 72
    65
 73
     2
 40
1.905
 49
1.27
 49
-0.635
  0
ENDTAB
  0
TABLE
  2
LAYER
 70
     5
  0
LAYER
  2
0
 70
     0
 62
     7
  6
CONTINUOUS
  0
LAYER
  2
DEFPOINTS
 70
     0
 62
     7
  6
CONTINUOUS
  0
LAYER
  2
1
 70
     0
 62
     1
  6
CENTER
  0
LAYER
  2
3
 70
     0
 62
     3
  6
CONTINUOUS
  0
LAYER
  2
2
 70
     0
 62
     2
  6
HIDDEN
  0
ENDTAB
  0
TABLE
  2
STYLE
 70
     2
  0
STYLE
  2
STANDARD
 70
     0
 40
0.0
 41
1.0
 50
0.0
 71
     0
 42
2.5
  3
txt
  4

  0
STYLE
  2
STANDARD1
 70
     0
 40
0.0
 41
1.0
 50
0.0
 71
     0
 42
3.0
  3
txt
  4

  0
ENDTAB
  0
TABLE
  2
VIEW
 70
     3
  0
VIEW
  2
OLE1
 70
     0
 40
17.336203194614189
 10
1078.2627039085309661
 20
377.6744486595430885
 41
31.0749116297020009
 11
0.0
 21
0.0
 31
1.0
 12
0.0
 22
0.0
 32
0.0
 42
50.0
 43
0.0
 44
0.0
 50
0.0
 71
     0
  0
VIEW
  2
OLE2
 70
     0
 40
50.523198253338478
 10
1031.7677389415230209
 20
579.9283567158205415
 41
90.5621550086675455
 11
0.0
 21
0.0
 31
1.0
 12
0.0
 22
0.0
 32
0.0
 42
50.0
 43
0.0
 44
0.0
 50
0.0
 71
     0
  0
VIEW
  2
OLE3
 70
     0
 40
95.502301876216066
 10
202.0430959360805048
 20
425.5599226159864088
 41
146.7053432435849061
 11
0.0
 21
0.0
 31
1.0
 12
0.0
 22
0.0
 32
0.0
 42
50.0
 43
0.0
 44
0.0
 50
0.0
 71
     0
  0
ENDTAB
  0
TABLE
  2
UCS
 70
     0
  0
ENDTAB
  0
TABLE
  2
APPID
 70
    44
  0
APPID
  2
ACAD
 70
     0
  0
APPID
  2
_FTCNV
 70
     0
  0
APPID
  2
DCO15
 70
     0
  0
APPID
  2
GENIUS_GENOREF_13
 70
     0
  0
APPID
  2
GENIUS_GENOENT_13
 70
     0
  0
APPID
  2
GENIUS_GENBH_13
 70
     0
  0
APPID
  2
GENIUS_GENOBJ_13
 70
     0
  0
APPID
  2
GENIUS_GENODEF_13
 70
     0
  0
APPID
  2
GENIUS_GENOLIS_13
 70
     0
  0
APPID
  2
GENIUS_GENOBJ-NBEHI-BHF_13
 70
     0
  0
APPID
  2
GENIUS_GENOBJ-NBEHI-BHB_13
 70
     0
  0
APPID
  2
GENIUS_GENOBJ-F-PART_13
 70
     0
  0
APPID
  2
GENIUS_GEFSTDP_13
 70
     0
  0
APPID
  2
GENIUS_GENOBJ-N-RSSYM_13
 70
     0
  0
APPID
  2
GENIUS_GENSYMENT_13
 70
     0
  0
APPID
  2
GENIUS_GENOBJ-N-TIT_13
 70
     0
  0
APPID
  2
GENIUS_GENTITLE_13
 70
     0
  0
APPID
  2
GENIUS_GENZVEED_13
 70
     0
  0
APPID
  2
GENIUS_GENOBJ-N-LEADER_13
 70
     0
  0
APPID
  2
GENIUS_GENOBJ-N-FIL_13
 70
     0
  0
APPID
  2
GENIUS_GENOBJ-N-SEC_13
 70
     0
  0
APPID
  2
GENIUS_GENOBJ-N-CRS_13
 70
     0
  0
APPID
  2
GENIUS_GENOBJ-N-ZOO_13
 70
     0
  0
APPID
  2
GENIUS_GENZOO_13
 70
     0
  0
APPID
  2
GENIUS_GENOBJ-F-TOL_13
 70
     0
  0
APPID
  2
GENIUS_GENFIL_13
 70
     0
  0
APPID
  2
GENIUS_GENOBJ-N-CHA_13
 70
     0
  0
APPID
  2
_CALL_MAC$
 70
     0
  0
APPID
  2
ASM_BASE
 70
     0
  0
APPID
  2
ASM_EXPLO_VER_2_00
 70
     0
  0
APPID
  2
ASM_CADM_VER_12_00
 70
     0
  0
APPID
  2
ASM_BASEFORO
 70
     0
  0
APPID
  2
ASM_BASETRAVI
 70
     0
  0
APPID
  2
ASM_BASETRAVI1
 70
     0
  0
APPID
  2
ASM_GRUPPI
 70
     0
  0
APPID
  2
ASM_CADM_ALBERO
 70
     0
  0
APPID
  2
ASM_GOLE
 70
     0
  0
APPID
  2
ACAD_MLEADERVER
 70
     0
  0
APPID
  2
ACAD_EXEMPT_FROM_CAD_STANDARDS
 70
     0
  0
APPID
  2
ACAD_DSTYLE_DIMJAG
 70
     0
  0
APPID
  2
ACAD_DSTYLE_DIMTALN
 70
     0
  0
APPID
  2
ACAD_NAV_VCDISPLAY
 70
     0
  0
APPID
  2
ACAECLAYERSTANDARD
 70
     0
  0
APPID
  2
ACCMTRANSPARENCY
 70
     0
  0
ENDTAB
  0
TABLE
  2
DIMSTYLE
 70
     2
  0
DIMSTYLE
  2
ISO-25
 70
     0
  3

  4

  5

  6

  7

 40
1.0
 41
2.5
 42
0.625
 43
3.75
 44
1.25
 45
0.0
 46
0.0
 47
0.0
 48
0.0
140
2.5
141
2.5
142
0.0
143
0.03937007874016
144
1.0
145
0.0
146
1.0
147
0.625
 71
     0
 72
     0
 73
     0
 74
     0
 75
     0
 76
     0
 77
     1
 78
     8
170
     0
171
     3
172
     1
173
     0
174
     0
175
     0
176
     0
177
     0
178
     0
  0
DIMSTYLE
  2
STANDARD
 70
     0
  3

  4

  5

  6

  7

 40
1.0
 41
0.18
 42
0.0625
 43
0.38
 44
0.18
 45
0.0
 46
0.0
 47
0.0
 48
0.0
140
0.18
141
0.09
142
0.0
143
25.3999999999999986
144
1.0
145
0.0
146
1.0
147
0.09
 71
     0
 72
     0
 73
     1
 74
     1
 75
     0
 76
     0
 77
     0
 78
     0
170
     0
171
     2
172
     0
173
     0
174
     0
175
     0
176
     0
177
     0
178
     0
  0
ENDTAB
  0
ENDSEC
  0
SECTION
  2
BLOCKS
  0
BLOCK
  8
0
  2
$MODEL_SPACE
 70
     0
 10
0.0
 20
0.0
 30
0.0
  3
$MODEL_SPACE
  1

  0
ENDBLK
  5
21
  8
0
  0
BLOCK
 67
     1
  8
0
  2
$PAPER_SPACE
 70
     0
 10
0.0
 20
0.0
 30
0.0
  3
$PAPER_SPACE
  1

  0
ENDBLK
  5
53
 67
     1
  8
0
  0
ENDSEC
  0
SECTION
  2
ENTITIES
  0
TEXT
  5
C317
  8
0
 62
     3
 10
0.0
 20
0.0
 30
0.0
 40
10.0
  1
ST-H305U-S
  7
STANDARD1
  0
ARC
  5
122F9
  8
0
 10
128.7550940989748938
 20
196.8000000000000114
 30
0.0
 40
0.5
 50
0.0
 51
90.0
  0
ARC
  5
122FA
  8
0
 10
128.7550940989748938
 20
187.2000000000001023
 30
0.0
 40
0.5
 50
270.0000000000007958
 51
0.0
  0
LINE
  5
122FB
  8
0
 10
129.2550940989748938
 20
196.0
 30
0.0
 11
129.2550940989748938
 21
196.8000000000000114
 31
0.0
  0
LINE
  5
122FC
  8
0
 10
129.2550940989748938
 20
187.2000000000001023
 30
0.0
 11
129.2550940989748938
 21
188.0000000000001137
 31
0.0
  0
ARC
  5
122FF
  8
0
 10
135.7467361605035876
 20
187.2000000000001023
 30
0.0
 40
0.5
 50
180.0
 51
270.0000000000007958
  0
ARC
  5
12300
  8
0
 10
139.7467361605035876
 20
187.2000000000001023
 30
0.0
 40
0.5
 50
269.9999999999992042
 51
359.9999999999976126
  0
LINE
  5
12303
  8
0
 10
140.2467361605035876
 20
187.2000000000001023
 30
0.0
 11
140.2467361605035876
 21
188.0000000000001137
 31
0.0
  0
LINE
  5
12304
  8
0
 10
135.2467361605035876
 20
188.0000000000001137
 30
0.0
 11
135.2467361605035876
 21
187.2000000000001023
 31
0.0
  0
LINE
  5
12309
  8
0
 10
155.9317341589776049
 20
190.0000000000001137
 30
0.0
 11
155.9317341589776049
 21
194.0000000000001137
 31
0.0
  0
ARC
  5
1230C
  8
0
 10
150.4317341589764965
 20
187.1999999999999886
 30
0.0
 40
0.5000000000000285
 50
180.0
 51
270.0000000000007958
  0
ARC
  5
1230D
  8
0
 10
154.4317341589764965
 20
187.1999999999999886
 30
0.0
 40
0.5
 50
270.0000000000007958
 51
0.0
  0
LINE
  5
1230E
  8
0
 10
154.9317341589764965
 20
187.1999999999999886
 30
0.0
 11
154.9317341589764965
 21
188.0
 31
0.0
  0
LINE
  5
1230F
  8
0
 10
149.9317341589764965
 20
188.0
 30
0.0
 11
149.9317341589764965
 21
187.1999999999999886
 31
0.0
  0
ARC
  5
12314
  8
0
 10
142.7317945189763009
 20
187.1999999999999886
 30
0.0
 40
0.5000000000000142
 50
180.0
 51
269.9999999999992042
  0
ARC
  5
12315
  8
0
 10
146.7317945189763009
 20
187.1999999999999886
 30
0.0
 40
0.5000000000000142
 50
270.0000000000007958
 51
359.9999999999976126
  0
LINE
  5
12318
  8
0
 10
147.2317945189763009
 20
187.1999999999999886
 30
0.0
 11
147.2317945189763009
 21
188.0
 31
0.0
  0
LINE
  5
12319
  8
0
 10
142.2317945189763009
 20
188.0
 30
0.0
 11
142.2317945189763009
 21
187.1999999999999886
 31
0.0
  0
ARC
  5
12334
  8
0
 10
109.9079011999017013
 20
191.9999999999998863
 30
0.0
 40
7.5000000000000462
 50
139.6788352666000037
 51
220.3211647334011047
  0
ARC
  5
12336
  8
0
 10
109.9079011999017013
 20
191.9999999999998863
 30
0.0
 40
7.5000000000000338
 50
319.6788352666009132
 51
40.3211647334000105
  0
ARC
  5
1233A
  8
0
 10
109.9079011999018007
 20
198.7177068930294865
 30
0.0
 40
13.9097489483242303
 50
252.8489148743381918
 51
287.1510851256637125
  0
ARC
  5
1233B
  8
0
 10
109.9079011999017013
 20
185.2822931069721903
 30
0.0
 40
13.9097489483224592
 50
72.8489148743346959
 51
107.1510851256653041
  0
CIRCLE
  5
1233C
  8
0
 10
109.9079011999017013
 20
192.0
 30
0.0
 40
2.5
  0
LINE
  5
1233E
  8
0
 10
128.4136131832622141
 20
196.0
 30
0.0
 11
157.2226451150199864
 21
196.0
 31
0.0
  0
LINE
  5
12340
  8
0
 10
157.2226451150199011
 20
188.0
 30
0.0
 11
128.4136131779320067
 21
188.0000000000001137
 31
0.0
  0
ARC
  5
12349
  8
0
 10
115.1628585381627943
 20
194.7400000000000944
 30
0.0
 40
2.0100000000000189
 50
45.0000000000016627
 51
71.7106191877372936
  0
LINE
  5
1234A
  8
0
 10
118.4120815142175047
 20
194.3333462843152972
 30
0.0
 11
116.5841431683476941
 21
196.1612846301850936
 31
0.0
  0
LINE
  5
1234B
  8
0
 10
118.4120815111081981
 20
189.6666537125755099
 30
0.0
 11
116.5841431683476941
 21
187.8387153698151906
 31
0.0
  0
ARC
  5
1234C
  8
0
 10
115.1628585381627943
 20
189.2600000000001046
 30
0.0
 40
2.0100000000000331
 50
288.2893808122814221
 51
315.0000000000009095
  0
ARC
  5
1234D
  8
0
 10
104.6529438616406935
 20
191.750000000000199
 30
0.0
 40
4.5000000000000986
 50
180.0000000000007958
 51
262.5996005359780838
  0
ARC
  5
1234E
  8
0
 10
104.6529438616406935
 20
191.750000000000199
 30
0.0
 40
2.500000000000099
 50
180.0000000000015916
 51
214.649709708915708
  0
ARC
  5
1234F
  8
0
 10
118.7495699341563977
 20
189.9900000000000944
 30
0.0
 40
2.0100000000000189
 50
99.6660154368861555
 51
132.5970865272786057
  0
ARC
  5
12350
  8
0
 10
118.7495699341563977
 20
194.0100000000001046
 30
0.0
 40
2.0100000000000331
 50
227.4029134727261976
 51
260.3339845642152
  0
ARC
  5
12351
  8
0
 10
104.6529438616406935
 20
192.2500000000001137
 30
0.0
 40
2.500000000000099
 50
145.3397739888287958
 51
180.0000000000015916
  0
LINE
  5
12352
  8
0
 10
102.152943861640594
 20
192.2500000000001137
 30
0.0
 11
102.152943861640594
 21
191.7500000000001137
 31
0.0
  0
LINE
  5
12353
  8
0
 10
100.152943861640594
 20
191.7500000000001137
 30
0.0
 11
100.152943861640594
 21
192.2500000000001137
 31
0.0
  0
ARC
  5
12354
  8
0
 10
104.6529438616406935
 20
192.2500000000001137
 30
0.0
 40
4.5000000000000986
 50
97.4003994640160045
 51
180.0000000000007958
  0
LINE
  5
12355
  8
0
 10
128.4120785758670138
 20
202.5000000159955107
 30
0.0
 11
128.4120785714561919
 21
181.4999992320479976
 31
0.0
  0
ARC
  5
1235D
  8
0
 10
123.4120807323798061
 20
202.5000008066060104
 30
0.0
 40
4.9999992127210824
 50
90.000007806957953
 51
180.0000089833797006
  0
ARC
  5
1235E
  8
0
 10
123.4120808210501963
 20
181.499999334710111
 30
0.0
 40
4.9999993153832252
 50
179.9999921166927948
 51
269.9999909402698108
  0
LINE
  5
12360
  8
0
 10
118.412081505667004
 20
181.5000000226582983
 30
0.0
 11
118.4120815196587984
 21
202.5000000226582983
 31
0.0
  0
LINE
  5
12379
  8
0
 10
135.4181855212522976
 20
190.0000000113298881
 30
0.0
 11
135.4181855239174013
 21
194.0000000113298881
 31
0.0
  0
LINE
  5
1237D
  8
0
 10
157.232645115019892
 20
194.0000000000001137
 30
0.0
 11
135.4181855239174013
 21
194.0000000000001137
 31
0.0
  0
LINE
  5
1237E
  8
0
 10
157.232645115019892
 20
190.0000000000001137
 30
0.0
 11
135.4181855202344877
 21
190.0000000000001137
 31
0.0
  0
LINE
  5
1238E
  8
0
 10
156.4937913183524074
 20
188.0
 30
0.0
 11
156.4937913183524074
 21
190.0
 31
0.0
  0
LINE
  5
12391
  8
0
 10
156.4937913183524074
 20
196.0
 30
0.0
 11
156.4937913183524074
 21
194.0
 31
0.0
  0
ARC
  5
12397
  8
0
 10
157.2226451150199011
 20
193.9900000000000091
 30
0.0
 40
2.00999999999999
 50
0.0
 51
89.9999999999975557
  0
LINE
  5
12398
  8
0
 10
159.232645115019892
 20
193.9900000000000091
 30
0.0
 11
159.232645115019892
 21
190.0099999999999909
 31
0.0
  0
LINE
  5
1239A
  8
0
 10
157.232645115019892
 20
190.0000000000001137
 30
0.0
 11
157.232645115019892
 21
194.0000000000001137
 31
0.0
  0
ARC
  5
1239B
  8
0
 10
157.2226451150199011
 20
190.0099999999999909
 30
0.0
 40
2.00999999999999
 50
270.0000000000007958
 51
0.0
  0
CIRCLE
  5
123A4
  8
0
 10
149.999999999999801
 20
200.0
 30
0.0
 40
2.250000000000028
  0
CIRCLE
  5
123A5
  8
0
 10
136.499999999999801
 20
199.9999999999998863
 30
0.0
 40
2.25
  0
ARC
  5
123A6
  8
0
 10
132.1999999999997897
 20
202.6999999999997897
 30
0.0
 40
2.0
 50
90.0
 51
180.0
  0
ARC
  5
123A7
  8
0
 10
154.2999999999998124
 20
202.6999999999999034
 30
0.0
 40
2.0
 50
0.0
 51
90.0
  0
LINE
  5
123A8
  8
0
 10
154.2999999999998124
 20
204.6999999999999034
 30
0.0
 11
132.1999999999997897
 21
204.6999999999997897
 31
0.0
  0
LINE
  5
123A9
  8
0
 10
156.2999999999996987
 20
196.0
 30
0.0
 11
156.2999999999998124
 21
202.6999999999999034
 31
0.0
  0
LINE
  5
123AA
  8
0
 10
130.1999999999997897
 20
202.6999999999997897
 30
0.0
 11
130.1999999999997897
 21
196.009999999999792
 31
0.0
  0
CIRCLE
  5
123AB
  8
0
 10
149.9999999999998863
 20
184.0
 30
0.0
 40
2.2499999999999711
  0
CIRCLE
  5
123AC
  8
0
 10
136.4999999999998863
 20
184.0
 30
0.0
 40
2.25
  0
ARC
  5
123AD
  8
0
 10
154.2999999999998977
 20
181.3000000000000114
 30
0.0
 40
2.0
 50
270.0000000000007958
 51
0.0
  0
ARC
  5
123AE
  8
0
 10
132.1999999999997897
 20
181.3000000000000114
 30
0.0
 40
2.0
 50
180.0
 51
270.0000000000007958
  0
LINE
  5
123AF
  8
0
 10
132.1999999999997897
 20
179.3000000000000114
 30
0.0
 11
154.2999999999998977
 21
179.3000000000000114
 31
0.0
  0
LINE
  5
123B0
  8
0
 10
156.2999999999998977
 20
181.3000000000000114
 30
0.0
 11
156.2999999999998977
 21
188.0
 31
0.0
  0
LINE
  5
123B1
  8
0
 10
130.1999999999997897
 20
187.9900000000000091
 30
0.0
 11
130.1999999999997897
 21
181.3000000000000114
 31
0.0
  0
ARC
  5
123B7
  8
0
 10
123.4120792604835941
 20
202.5000007039436127
 30
0.0
 40
4.9999993153834392
 50
359.9999921166960917
 51
89.9999909402678497
  0
ARC
  5
123B8
  8
0
 10
123.4120793491540979
 20
181.4999992320479976
 30
0.0
 40
4.9999992127211401
 50
270.0000078069588199
 51
0.0000089833788894
  0
LINE
  5
123C9
  8
1
 10
94.3719171432650512
 20
191.9999999999994031
 30
0.0
 11
164.9937261789613956
 21
192.0000000000001137
 31
0.0
  0
LINE
  5
123CA
  8
0
 10
102.4077265735976994
 20
113.5058015400005047
 30
0.0
 11
102.4077265735975999
 21
112.2558015400005047
 31
0.0
  0
LINE
  5
123CB
  8
0
 10
117.4077265735976994
 20
112.2558015400004052
 30
0.0
 11
117.4077265735976994
 21
113.5058015400004052
 31
0.0
  0
LINE
  5
123CC
  8
0
 10
102.4079011999018007
 20
122.7558015400002063
 30
0.0
 11
102.4079011999018007
 21
121.5058015400002063
 31
0.0
  0
LINE
  5
123CD
  8
0
 10
117.4079011999018007
 20
121.5058015400002063
 30
0.0
 11
117.4079011999018007
 21
122.7558015400002063
 31
0.0
  0
LINE
  5
123CE
  8
0
 10
104.2579011998725065
 20
106.005801539972893
 30
0.0
 11
106.1579011998857993
 21
100.0058015400002063
 31
0.0
  0
LINE
  5
123CF
  8
0
 10
113.6579011999177027
 20
100.0058015400002063
 30
0.0
 11
115.5579011999309955
 21
106.005801539972893
 31
0.0
  0
LINE
  5
123D0
  8
0
 10
115.5579011999309955
 20
106.005801539972893
 30
0.0
 11
114.1579011999046003
 21
108.5058015400001068
 31
0.0
  0
LINE
  5
123D1
  8
0
 10
105.6579011998987028
 20
108.5058015400001068
 30
0.0
 11
104.257901199872407
 21
106.005801539972893
 31
0.0
  0
LINE
  5
123D2
  8
0
 10
107.4079011999017013
 20
132.8058018797466104
 30
0.0
 11
107.4079011999017013
 21
126.4558015399432946
 31
0.0
  0
LINE
  5
123D3
  8
0
 10
107.4079011999017013
 20
108.555801540076601
 30
0.0
 11
107.4079011999017013
 21
108.5058015400001068
 31
0.0
  0
LINE
  5
123D4
  8
0
 10
112.4079011999017013
 20
108.5058015400001068
 30
0.0
 11
112.4079011999017013
 21
108.555801540076601
 31
0.0
  0
LINE
  5
123D5
  8
0
 10
112.4079011999017013
 20
126.4558015399432946
 30
0.0
 11
112.4079011999017013
 21
132.8058018797466104
 31
0.0
  0
ARC
  5
123D7
  8
0
 10
109.9077265735976994
 20
105.8577114584989971
 30
0.0
 40
8.4532869557975072
 50
60.9717538516030189
 51
119.0282461483966046
  0
ARC
  5
123D8
  8
0
 10
109.9077265735976994
 20
106.4827114584982013
 30
0.0
 40
8.4532869557982178
 50
60.9717538516057616
 51
119.0282461483939045
  0
LINE
  5
123E6
  8
0
 10
109.9077265735976994
 20
111.6369993864076946
 30
0.0
 11
109.9077265797080969
 21
109.1746036971590996
 31
0.0
  0
LINE
  5
123E8
  8
0
 10
113.9077265720415966
 20
112.2558015400001068
 30
0.0
 11
113.9077265812480988
 21
108.5558015400954019
 31
0.0
  0
LINE
  5
123EB
  8
0
 10
105.9077265735975999
 20
108.5558015400955014
 30
0.0
 11
105.9077265735976994
 21
112.2558015400004052
 31
0.0
  0
LINE
  5
123EE
  8
0
 10
102.4077265735975999
 20
112.2558015400005047
 30
0.0
 11
117.4077265735976994
 21
112.2558015399999931
 31
0.0
  0
LINE
  5
123F7
  8
0
 10
113.9077265812480988
 20
108.5558015400954019
 30
0.0
 11
105.9077265735975999
 21
108.5558015400955014
 31
0.0
  0
ARC
  5
123F8
  8
0
 10
109.9079011999017013
 20
128.5288916215021118
 30
0.0
 40
8.4532869557980632
 50
240.9717538516061097
 51
299.0282461483956808
  0
ARC
  5
123FA
  8
0
 10
109.9079011999017013
 20
129.1538916215019128
 30
0.0
 40
8.4532869557977595
 50
240.9717538516052002
 51
299.0282461483968746
  0
LINE
  5
12409
  8
0
 10
109.9079011999018007
 20
125.8369993864074985
 30
0.0
 11
109.9079012060119993
 21
123.374603697158804
 31
0.0
  0
LINE
  5
1240B
  8
0
 10
113.9079012075520012
 20
122.7558015400002063
 30
0.0
 11
113.9079011983455985
 21
126.4558015399242947
 31
0.0
  0
LINE
  5
1240E
  8
0
 10
105.907901199922307
 20
126.4558015399243942
 30
0.0
 11
105.9079011998975943
 21
122.7558015400002063
 31
0.0
  0
LINE
  5
12411
  8
0
 10
117.4079011999018007
 20
122.7558015400002063
 30
0.0
 11
102.4079011999017013
 21
122.7558015400002063
 31
0.0
  0
LINE
  5
12415
  8
0
 10
113.9079011983455985
 20
126.4558015399242947
 30
0.0
 11
105.907901199922307
 21
126.4558015399243942
 31
0.0
  0
LINE
  5
1241A
  8
0
 10
115.5579011999309955
 20
106.005801539972893
 30
0.0
 11
104.2579011998725065
 21
106.005801539972893
 31
0.0
  0
LINE
  5
1241B
  8
0
 10
106.1579011998857993
 20
100.0058015400002063
 30
0.0
 11
113.6579011999177027
 21
100.0058015400002063
 31
0.0
  0
LINE
  5
1241C
  8
0
 10
105.6579011998987028
 20
108.5058015400001068
 30
0.0
 11
114.1579011999046003
 21
108.5058015400001068
 31
0.0
  0
CIRCLE
  5
12422
  8
0
 10
126.7550940989748938
 20
121.2043136599987037
 30
0.0
 40
2.499999999999992
  0
CIRCLE
  5
12423
  8
0
 10
137.7467361605035876
 20
120.7755890499761051
 30
0.0
 40
2.499999999999992
  0
LINE
  5
12424
  8
0
 10
126.5991942407848967
 20
117.2073529103518013
 30
0.0
 11
137.5908363023135053
 21
116.7786283003293022
 31
0.0
  0
ARC
  5
12425
  8
0
 10
126.7550940989749932
 20
121.2043136599986042
 30
0.0
 40
4.0000000000000711
 50
87.7663332733954888
 51
267.7663332733962989
  0
LINE
  5
12426
  8
0
 10
137.9026360186934994
 20
124.7725497996227944
 30
0.0
 11
126.9109939571650045
 21
125.2012744096451939
 31
0.0
  0
ARC
  5
12427
  8
0
 10
137.7467361605035023
 20
120.7755890499760056
 30
0.0
 40
4.0000000000000711
 50
267.7663332733962989
 51
87.7663332733967252
  0
LINE
  5
12428
  8
0
 10
100.152943861640594
 20
121.5058015400002063
 30
0.0
 11
100.152943861640594
 21
113.5058015400001068
 31
0.0
  0
LINE
  5
12429
  8
0
 10
100.152943861640594
 20
121.5058015400002063
 30
0.0
 11
104.1896810207494042
 21
121.5058015400002063
 31
0.0
  0
LINE
  5
1242C
  8
0
 10
104.1895063944453028
 20
113.5058015400005047
 30
0.0
 11
100.152943861640594
 21
113.5058015400001068
 31
0.0
  0
LINE
  5
12430
  8
0
 10
120.6765886989752943
 20
113.5058015400008031
 30
0.0
 11
115.6259467527559934
 21
113.5058015399999931
 31
0.0
  0
LINE
  5
12433
  8
0
 10
120.9529438616409038
 20
121.5058015400002063
 30
0.0
 11
115.6261213790541973
 21
121.5058015400001068
 31
0.0
  0
LINE
  5
12435
  8
0
 10
118.7495699341563977
 20
121.5058015400002063
 30
0.0
 11
118.7495699341563977
 21
113.5058015400001068
 31
0.0
  0
ARC
  5
12438
  8
0
 10
131.8382410103916129
 20
117.5000960200001003
 30
0.0
 40
3.0
 50
187.2967271445959057
 51
270.0
  0
LINE
  5
12439
  8
0
 10
132.1043756375605938
 20
114.5000960200001003
 30
0.0
 11
131.8382410103914992
 21
114.5000960200001003
 31
0.0
  0
ARC
  5
1243A
  8
0
 10
130.7673834727602014
 20
114.5000960200001003
 30
0.0
 40
6.5000000000000258
 50
212.7647663059063916
 51
268.0206887495140791
  0
ARC
  5
1243B
  8
0
 10
120.6765886989761043
 20
108.0058015436702021
 30
0.0
 40
5.4999999963298762
 50
32.7647663059064271
 51
90.000000000008427
  0
ARC
  5
1243C
  8
0
 10
120.9529438616408044
 20
124.5058015400001068
 30
0.0
 40
3.0
 50
270.0000000000007958
 51
310.053308380359681
  0
ARC
  5
12440
  8
0
 10
127.4136134679803973
 20
135.4980450989434928
 30
0.0
 40
1.000000000000038
 50
270.0439633918632012
 51
0.043963391863202
  0
ARC
  5
12442
  8
0
 10
119.4136158230138989
 20
135.491906652039205
 30
0.0
 40
1.0000000000000091
 50
180.0439633918639117
 51
270.0439633918632012
  0
ARC
  5
12444
  8
0
 10
119.412081211287898
 20
137.4919060632809078
 30
0.0
 40
1.000000000000052
 50
90.0439633918632154
 51
180.0439633918622917
  0
ARC
  5
12446
  8
0
 10
127.412078856254297
 20
137.4980445101851956
 30
0.0
 40
1.000000000000024
 50
0.043963391863202
 51
90.043963391862377
  0
LINE
  5
12447
  8
0
 10
118.4166853465086007
 20
131.4911405236971973
 30
0.0
 11
118.412081505667004
 21
137.4911387574177866
 31
0.0
  0
LINE
  5
12448
  8
0
 10
128.4120785618752052
 20
137.4988118160482031
 30
0.0
 11
128.4136131736011919
 21
135.498812404806614
 31
0.0
  0
ARC
  5
12451
  8
0
 10
129.4126418897915869
 20
136.7650396200654086
 30
0.0
 40
0.9999999999999531
 50
180.0439633918607001
 51
254.8970792419912073
  0
LINE
  5
12459
  8
0
 10
131.0530147974259876
 20
126.6767943048248952
 30
0.0
 11
135.4181855208148022
 21
132.7916759668663929
 31
0.0
  0
LINE
  5
1245D
  8
0
 10
123.2776935358848931
 20
127.0093267513780972
 30
0.0
 11
127.4570418904415021
 21
127.3459106884017018
 31
0.0
  0
ARC
  5
1245F
  8
0
 10
128.0189677373224981
 20
120.3685014741869992
 30
0.0
 40
7.0000000000000551
 50
64.3142290531906582
 51
94.6043798682129875
  0
ARC
  5
12461
  8
0
 10
124.2015673887555067
 20
117.4558526215238032
 30
0.0
 40
18.9999999999999716
 50
53.8182698643090234
 51
74.8970792419878535
  0
ARC
  5
12463
  8
0
 10
122.9164724735295948
 20
131.4945932377586928
 30
0.0
 40
4.4997884516650659
 50
180.0439633918622917
 51
274.604379868213698
  0
ARC
  5
12464
  8
0
 10
150.3083418775825066
 20
142.9006889016854132
 30
0.0
 40
17.9999999999976588
 50
229.6045142337509049
 51
270.0774546096102995
  0
ARC
  5
12465
  8
0
 10
145.4738004957050919
 20
110.5245830640631937
 30
0.0
 40
9.5000000030289424
 50
95.8107989472117225
 51
115.5469075729757975
  0
ARC
  5
12466
  8
0
 10
128.8862931112672072
 20
122.979003397339298
 30
0.0
 40
5.0000000000000213
 50
23.1526290317929906
 51
58.8941604879115488
  0
ARC
  5
12467
  8
0
 10
126.9781855212543036
 20
115.4834716032624016
 30
0.0
 40
17.9999999999977085
 50
49.6045142337509333
 51
64.676534502776434
  0
LINE
  5
1246D
  8
0
 10
130.1999999999997897
 20
102.0
 30
0.0
 11
156.2999999999998977
 21
101.999999999999801
 31
0.0
  0
LINE
  5
1246E
  8
0
 10
156.2999999999998977
 20
99.9999999999999147
 30
0.0
 11
130.1999999999997897
 21
100.0
 31
0.0
  0
CIRCLE
  5
12476
  8
0
 10
144.7317945189763009
 20
112.0000960200001003
 30
0.0
 40
2.4999999999999991
  0
CIRCLE
  5
12477
  8
0
 10
152.4317341589764965
 20
121.5058015399999931
 30
0.0
 40
2.4999999999999929
  0
LINE
  5
12479
  8
0
 10
156.2999999999998977
 20
102.0099999999999056
 30
0.0
 11
156.2999999999998977
 21
101.9999999999999005
 31
0.0
  0
LINE
  5
1247A
  8
0
 10
130.1999999999997897
 20
102.0
 30
0.0
 11
130.1999999999997897
 21
102.0100000000002041
 31
0.0
  0
LINE
  5
1247B
  8
0
 10
132.1022087530560043
 20
114.4911417915995031
 30
0.0
 11
130.1999999999997897
 21
106.5775020450747945
 31
0.0
  0
ARC
  5
1247C
  8
0
 10
134.8396666164813951
 20
113.9049311785399965
 30
0.0
 40
2.7995211084921201
 50
86.7681967786830484
 51
167.9129975746666901
  0
LINE
  5
1247F
  8
0
 10
150.1688086154476878
 20
124.7700501838184977
 30
0.0
 11
141.592433055964392
 21
117.5013855566102023
 31
0.0
  0
ARC
  5
12480
  8
0
 10
152.4317341589764112
 20
122.0999999999369976
 30
0.0
 40
3.5000000000000728
 50
3.5441507318121581
 51
130.2820005272008075
  0
LINE
  5
12481
  8
0
 10
156.4937913183524074
 20
113.1334957099369944
 30
0.0
 11
155.9250402674703082
 21
122.3163618088597957
 31
0.0
  0
LINE
  5
12482
  8
0
 10
159.232645115019892
 20
113.1334957099369944
 30
0.0
 11
156.4937913183524074
 21
113.1334957099369944
 31
0.0
  0
LINE
  5
12484
  8
0
 10
159.232645115019892
 20
103.1334957099370939
 30
0.0
 11
156.2999999999998977
 21
103.1334957099369944
 31
0.0
  0
LINE
  5
12485
  8
0
 10
156.2999999999998977
 20
99.9999999999999147
 30
0.0
 11
156.2999999999998977
 21
103.1334957099369944
 31
0.0
  0
LINE
  5
12486
  8
0
 10
130.1999999999997897
 20
106.5775020450747945
 30
0.0
 11
130.1999999999997897
 21
100.0
 31
0.0
  0
LINE
  5
12488
  8
0
 10
159.232645115019892
 20
103.1334957099369944
 30
0.0
 11
159.232645115019892
 21
113.1334957099369944
 31
0.0
  0
LINE
  5
1248C
  8
1
 10
109.9079011999018007
 20
135.0058015400001068
 30
0.0
 11
109.9079011999018007
 21
97.5070595681390131
 31
0.0
  0
LINE
  5
1248D
  8
1
 10
109.9079011999018007
 20
98.0058015400002063
 30
0.0
 11
109.9079011999018007
 21
135.0058015400001921
 31
0.0
  0
LINE
  5
1248E
  8
1
 10
150.0
 20
103.999999999999801
 30
0.0
 11
150.0
 21
98.0000000000000142
 31
0.0
  0
LINE
  5
1248F
  8
1
 10
136.5
 20
103.9999999999999005
 30
0.0
 11
136.5
 21
98.0000000000000711
 31
0.0
  0
LINE
  5
12490
  8
0
 10
51.8984998028132622
 20
114.931605038506504
 30
0.0
 11
50.8159680480827021
 21
114.3066050385064045
 31
0.0
  0
LINE
  5
12491
  8
0
 10
65.1840319519176319
 20
114.3066050385064045
 30
0.0
 11
64.1015001971870788
 21
114.9316050385064045
 31
0.0
  0
LINE
  5
12492
  8
0
 10
62.0000000002438725
 20
108.5558015403579049
 30
0.0
 11
62.6188021602847584
 21
109.174603700398805
 31
0.0
  0
LINE
  5
12493
  8
0
 10
54.0000000000002487
 20
112.255801539905903
 30
0.0
 11
53.3811978465020971
 21
111.6369993864076946
 31
0.0
  0
LINE
  5
12494
  8
0
 10
62.6188021534982582
 20
111.6369993864077941
 30
0.0
 11
62.0000000000002771
 21
112.2558015399058036
 31
0.0
  0
LINE
  5
12495
  8
0
 10
53.3811978461625785
 20
109.1746036939519939
 30
0.0
 11
54.0000000000190568
 21
108.5558015400955014
 31
0.0
  0
LINE
  5
12496
  8
0
 10
50.81596804808283
 20
120.7049980414940933
 30
0.0
 11
51.898499802813383
 21
120.0799980414940933
 31
0.0
  0
LINE
  5
12497
  8
0
 10
64.1015001971872493
 20
120.0799980414940933
 30
0.0
 11
65.1840319519178024
 21
120.7049980414940933
 31
0.0
  0
LINE
  5
12498
  8
0
 10
61.9999999998864411
 20
122.7558015400002063
 30
0.0
 11
62.61880216028473
 21
123.3746037003983957
 31
0.0
  0
LINE
  5
12499
  8
0
 10
54.0000000000191704
 20
126.4558015399243942
 30
0.0
 11
53.3811978465022321
 21
125.8369993864074985
 31
0.0
  0
LINE
  5
1249A
  8
0
 10
62.6188021534983719
 20
125.8369993864074985
 30
0.0
 11
62.0000000002442775
 21
126.4558015396616071
 31
0.0
  0
LINE
  5
1249B
  8
0
 10
53.3811978461626424
 20
123.3746036939516983
 30
0.0
 11
54.00000000011417
 21
122.7558015400002063
 31
0.0
  0
LINE
  5
1249C
  8
0
 10
52.3499999999708905
 20
106.005801539972893
 30
0.0
 11
54.2499999999841904
 21
100.0058015400002063
 31
0.0
  0
LINE
  5
1249D
  8
0
 10
61.750000000016172
 20
100.0058015400002063
 30
0.0
 11
63.6500000000294577
 21
106.005801539972893
 31
0.0
  0
LINE
  5
1249E
  8
0
 10
63.6500000000294577
 20
106.005801539972893
 30
0.0
 11
62.2500000000031406
 21
108.5058015400001068
 31
0.0
  0
LINE
  5
1249F
  8
0
 10
53.7499999999972218
 20
108.5058015400001068
 30
0.0
 11
52.3499999999708905
 21
106.005801539972893
 31
0.0
  0
LINE
  5
124A0
  8
0
 10
55.500000000000199
 20
132.8058018797468094
 30
0.0
 11
55.500000000000199
 21
126.4558015399432946
 31
0.0
  0
LINE
  5
124A1
  8
0
 10
55.500000000000199
 20
108.555801540076601
 30
0.0
 11
55.500000000000199
 21
108.5058015400001068
 31
0.0
  0
LINE
  5
124A2
  8
0
 10
60.500000000000199
 20
108.5058015400001068
 30
0.0
 11
60.500000000000199
 21
108.555801540076601
 31
0.0
  0
LINE
  5
124A3
  8
0
 10
60.500000000000199
 20
126.4558015399432946
 30
0.0
 11
60.5000000000002132
 21
132.8058018797464968
 31
0.0
  0
ARC
  5
124A4
  8
0
 10
53.1999999999999815
 20
123.2043136599988031
 30
0.0
 40
0.5000000000000071
 50
90.0
 51
180.0
  0
ARC
  5
124A5
  8
0
 10
53.1999999999999602
 20
119.2043136599988031
 30
0.0
 40
0.5
 50
180.0
 51
270.0000000000007958
  0
ARC
  5
124A6
  8
0
 10
62.7999999999999474
 20
119.2043136599987037
 30
0.0
 40
0.5
 50
270.0000000000007958
 51
0.0
  0
ARC
  5
124A7
  8
0
 10
62.7999999999999687
 20
123.2043136599988031
 30
0.0
 40
0.5
 50
0.0
 51
90.0
  0
LINE
  5
124A8
  8
0
 10
53.1999999999999602
 20
118.7043136599988031
 30
0.0
 11
53.2500000000001705
 21
118.7043136599988031
 31
0.0
  0
LINE
  5
124A9
  8
0
 10
53.3811978434303498
 20
123.7043136599988031
 30
0.0
 11
53.1999999999999815
 21
123.7043136599988031
 31
0.0
  0
LINE
  5
124AA
  8
0
 10
62.7999999999999687
 20
123.7043136599988031
 30
0.0
 11
62.6188021565702613
 21
123.7043136599988031
 31
0.0
  0
LINE
  5
124AB
  8
0
 10
62.7500000000001634
 20
118.7043136599987037
 30
0.0
 11
62.7999999999999474
 21
118.7043136599987037
 31
0.0
  0
ARC
  5
124AC
  8
0
 10
53.1999999999997684
 20
118.7755890499761051
 30
0.0
 40
0.5
 50
180.0
 51
270.0
  0
ARC
  5
124AD
  8
0
 10
62.7999999999997698
 20
118.7755890499761051
 30
0.0
 40
0.5
 50
270.0000000000007958
 51
0.0
  0
LINE
  5
124AE
  8
0
 10
53.1999999999997684
 20
118.2755890499761051
 30
0.0
 11
53.2500000000001705
 21
118.2755890499761051
 31
0.0
  0
LINE
  5
124AF
  8
0
 10
62.7500000000001634
 20
118.2755890499761051
 30
0.0
 11
62.7999999999997698
 21
118.2755890499761051
 31
0.0
  0
ARC
  5
124B0
  8
0
 10
72.5000001278623358
 20
135.4949760226811861
 30
0.0
 40
0.9999998528108131
 50
269.9999240999293875
 51
359.9999915666459742
  0
ARC
  5
124B1
  8
0
 10
72.5000001278627053
 20
137.4949751395434134
 30
0.0
 40
0.9999998528104507
 50
0.0000084333434317
 51
90.0000096391207052
  0
ARC
  5
124B2
  8
0
 10
43.5061038214048281
 20
137.4924467818148059
 30
0.0
 40
1.006107018001682
 50
90.347536577985295
 51
179.8560065571365101
  0
LINE
  5
124B3
  8
0
 10
73.4999999806731523
 20
135.4949758754914058
 30
0.0
 11
73.4999999806731523
 21
137.4949752867329948
 31
0.0
  0
LINE
  5
124B4
  8
0
 10
42.4999999806731168
 20
137.4949752867437098
 30
0.0
 11
42.4999999806731168
 21
135.4949758755020923
 31
0.0
  0
ARC
  5
124B5
  8
0
 10
43.5019417434586089
 20
135.4957803884871907
 30
0.0
 40
1.001942085778863
 50
180.0460058562435961
 51
269.88902810174568
  0
ARC
  5
124B8
  8
0
 10
53.1999999999998181
 20
114.0000960200001003
 30
0.0
 40
0.5000000000000285
 50
90.0
 51
179.9999999999967031
  0
ARC
  5
124B9
  8
0
 10
53.1999999999997968
 20
110.0000960200001998
 30
0.0
 40
0.5000000000000285
 50
180.0
 51
270.0000000000007958
  0
ARC
  5
124BA
  8
0
 10
62.7999999999997982
 20
110.0000960200001003
 30
0.0
 40
0.5
 50
270.0000000000007958
 51
0.0
  0
ARC
  5
124BB
  8
0
 10
62.7999999999998195
 20
114.0000960200001003
 30
0.0
 40
0.5000000000000071
 50
359.9999999999976126
 51
90.0
  0
LINE
  5
124BC
  8
0
 10
53.1999999999997968
 20
109.5000960200001998
 30
0.0
 11
53.3811978434242889
 21
109.5000960200001998
 31
0.0
  0
LINE
  5
124BD
  8
0
 10
53.2500000000001705
 20
114.5000960200001998
 30
0.0
 11
53.1999999999998181
 21
114.5000960200001998
 31
0.0
  0
LINE
  5
124BE
  8
0
 10
62.7999999999998195
 20
114.5000960200001003
 30
0.0
 11
62.7500000000001634
 21
114.5000960200001003
 31
0.0
  0
LINE
  5
124BF
  8
0
 10
62.6188021565762085
 20
109.5000960200001003
 30
0.0
 11
62.7999999999997982
 21
109.5000960200001003
 31
0.0
  0
ARC
  5
124C0
  8
0
 10
53.1999999999997328
 20
123.5058015399999931
 30
0.0
 40
0.5
 50
90.0
 51
180.0
  0
ARC
  5
124C1
  8
0
 10
62.7999999999997272
 20
123.5058015399998936
 30
0.0
 40
0.5000000000000285
 50
0.0
 51
90.0
  0
LINE
  5
124C2
  8
0
 10
53.3811978438646193
 20
124.0058015399999931
 30
0.0
 11
53.1999999999997328
 21
124.0058015399999931
 31
0.0
  0
LINE
  5
124C3
  8
0
 10
62.7999999999997272
 20
124.0058015399999931
 30
0.0
 11
62.6188021561360131
 21
124.0058015399999931
 31
0.0
  0
LINE
  5
124C5
  8
0
 10
53.1469640447723108
 20
113.5058015400005047
 30
0.0
 11
62.8530359552281226
 21
113.5058015400005047
 31
0.0
  0
LINE
  5
124C8
  8
0
 10
53.1469640447723108
 20
112.2558015400005047
 30
0.0
 11
62.8530359552281226
 21
112.2558015400004052
 31
0.0
  0
LINE
  5
124CF
  8
0
 10
51.8984998028132267
 20
114.9316050385064045
 30
0.0
 11
52.5090497323446996
 21
113.8741015400004954
 31
0.0
  0
LINE
  5
124D0
  8
0
 10
50.8159680480826665
 20
114.3066050385064045
 30
0.0
 11
51.4265179776141323
 21
113.2491015400004954
 31
0.0
  0
LINE
  5
124D1
  8
0
 10
63.4909502676557267
 20
113.874101540000396
 30
0.0
 11
64.1015001971870788
 21
114.9316050385064045
 31
0.0
  0
LINE
  5
124D2
  8
0
 10
64.5734820223862869
 20
113.249101540000396
 30
0.0
 11
65.1840319519176603
 21
114.3066050385064045
 31
0.0
  0
LINE
  5
124D5
  8
0
 10
53.3811978465020402
 20
111.6369993864077941
 30
0.0
 11
53.3811978429554799
 21
109.1746036971590001
 31
0.0
  0
LINE
  5
124D8
  8
0
 10
55.6905989267696526
 20
109.1746036971592986
 30
0.0
 11
55.690598923232308
 21
111.6369993863983012
 31
0.0
  0
LINE
  5
124DE
  8
0
 10
60.3094010413670318
 20
109.1746036759355007
 30
0.0
 11
60.3094010767397677
 21
111.6369993863983012
 31
0.0
  0
LINE
  5
124E4
  8
0
 10
62.6188021534983008
 20
111.6369993864076946
 30
0.0
 11
62.6188021570450317
 21
109.1746036971590996
 31
0.0
  0
LINE
  5
124E6
  8
0
 10
62.0000000002438725
 20
108.5558015403579049
 30
0.0
 11
54.0000000000378577
 21
108.555801540076601
 31
0.0
  0
LINE
  5
124E8
  8
0
 10
62.8530359552282789
 20
121.5058015400002063
 30
0.0
 11
62.7125161898043189
 21
121.5058015400002063
 31
0.0
  0
LINE
  5
124E9
  8
0
 10
53.2874838101959014
 20
121.5058015400002063
 30
0.0
 11
53.1469640447724672
 21
121.5058015400002063
 31
0.0
  0
LINE
  5
124EB
  8
0
 10
62.8530359552282931
 20
122.7558015400002063
 30
0.0
 11
53.1469640447724601
 21
122.7558015400002063
 31
0.0
  0
LINE
  5
124F2
  8
0
 10
52.5090497323448417
 20
121.1375015400002013
 30
0.0
 11
51.898499802813383
 21
120.0799980414940933
 31
0.0
  0
LINE
  5
124F3
  8
0
 10
51.4265179776143029
 20
121.7625015400001018
 30
0.0
 11
50.81596804808283
 21
120.7049980414940933
 31
0.0
  0
LINE
  5
124F4
  8
0
 10
64.1015001971872209
 20
120.0799980414940933
 30
0.0
 11
63.4909502676558617
 21
121.1375015400001018
 31
0.0
  0
LINE
  5
124F5
  8
0
 10
65.184031951917774
 20
120.7049980414940933
 30
0.0
 11
64.5734820223864006
 21
121.7625015400001018
 31
0.0
  0
LINE
  5
124F8
  8
0
 10
53.3811978465022818
 20
125.8369993864074985
 30
0.0
 11
53.3811978429554372
 21
123.3746036971589035
 31
0.0
  0
LINE
  5
124FB
  8
0
 10
55.6905989232513221
 20
125.836999386407399
 30
0.0
 11
55.690598926769951
 21
123.374603697159003
 31
0.0
  0
LINE
  5
12500
  8
0
 10
60.3094010767494666
 20
125.8369993864074985
 30
0.0
 11
60.309401083814997
 21
123.374603697159003
 31
0.0
  0
LINE
  5
12507
  8
0
 10
62.6188021534984003
 20
125.8369993864074985
 30
0.0
 11
62.6188021570451596
 21
123.374603697158804
 31
0.0
  0
LINE
  5
12508
  8
0
 10
62.0000000002442704
 20
126.4558015396616071
 30
0.0
 11
54.0000000000380282
 21
126.4558015399432946
 31
0.0
  0
LINE
  5
1250A
  8
0
 10
63.6500000000294577
 20
106.005801539972893
 30
0.0
 11
52.3499999999708905
 21
106.005801539972893
 31
0.0
  0
LINE
  5
1250B
  8
0
 10
54.2499999999841904
 20
100.0058015400002063
 30
0.0
 11
61.750000000016172
 21
100.0058015400002063
 31
0.0
  0
LINE
  5
1250C
  8
0
 10
53.7499999999972218
 20
108.5058015400001068
 30
0.0
 11
62.2500000000031406
 21
108.5058015400001068
 31
0.0
  0
LINE
  5
12516
  8
0
 10
57.7500000000002132
 20
113.5058015400002063
 30
0.0
 11
57.7500000000002132
 21
121.5058015400003057
 31
0.0
  0
LINE
  5
12518
  8
0
 10
53.2500000000001705
 20
121.5058015400002063
 30
0.0
 11
53.2500000000001705
 21
113.5058015400002063
 31
0.0
  0
LINE
  5
12519
  8
0
 10
57.7500000000002132
 20
121.5058015400003057
 30
0.0
 11
53.2874838101959014
 21
121.5058015400002063
 31
0.0
  0
LINE
  5
1251A
  8
0
 10
62.7500000000001634
 20
121.5058015400002063
 30
0.0
 11
62.7500000000001634
 21
113.5058015400001068
 31
0.0
  0
LINE
  5
1251B
  8
0
 10
58.2500000000001705
 20
121.5058015400002063
 30
0.0
 11
58.2500000000001918
 21
113.5058015400001068
 31
0.0
  0
LINE
  5
1251D
  8
0
 10
58.2500000000001705
 20
121.5058015400002063
 30
0.0
 11
62.7125161898043189
 21
121.5058015400002063
 31
0.0
  0
LINE
  5
1251F
  8
0
 10
58.2500000000001705
 20
121.5058015400002063
 30
0.0
 11
57.7500000000002132
 21
121.5058015400003057
 31
0.0
  0
LINE
  5
1252D
  8
0
 10
60.9999999780080699
 20
133.491907240801396
 30
0.0
 11
60.9999999861510318
 21
127.5012868939377029
 31
0.0
  0
LINE
  5
1252F
  8
0
 10
61.9999999780080699
 20
134.4919069464216932
 30
0.0
 11
72.4999988031564016
 21
134.4949761698711939
 31
0.0
  0
LINE
  5
12531
  8
0
 10
43.5000011581898818
 20
134.4938401819958926
 30
0.0
 11
53.9999999780080486
 21
134.4919069464257859
 31
0.0
  0
LINE
  5
12534
  8
0
 10
54.9999999780080628
 20
133.491907240804494
 30
0.0
 11
54.9999999861510815
 21
127.5012868939409998
 31
0.0
  0
ARC
  5
12537
  8
0
 10
61.9999998308179201
 20
133.4919070936118999
 30
0.0
 40
0.999999852809868
 50
89.9999915666248143
 51
179.9999915666597872
  0
ARC
  5
12538
  8
0
 10
54.0000001251970474
 20
133.4919070936149126
 30
0.0
 40
0.999999852811012
 50
0.000008433348317
 51
90.0000084333096453
  0
LINE
  5
1253B
  8
0
 10
43.5000011581898818
 20
138.4985352914270891
 30
0.0
 11
72.4999999596283402
 21
138.4949749923538889
 31
0.0
  0
LINE
  5
12540
  8
0
 10
61.9999999999999503
 20
108.555801540076601
 30
0.0
 11
61.9999999999999503
 21
108.5058015400001068
 31
0.0
  0
LINE
  5
12541
  8
0
 10
62.3814961790234008
 20
102.0
 30
0.0
 11
70.699999999999946
 21
102.0
 31
0.0
  0
LINE
  5
12543
  8
0
 10
70.699999999999946
 20
100.0
 30
0.0
 11
62.0099999999999625
 21
100.0
 31
0.0
  0
LINE
  5
12544
  8
0
 10
62.0099999999999625
 20
100.0
 30
0.0
 11
61.7533719762192277
 21
100.0164498859043931
 31
0.0
  0
LINE
  5
12545
  8
0
 10
54.2466280237811205
 20
100.0164498859043931
 30
0.0
 11
53.9900000000001583
 21
100.0
 31
0.0
  0
LINE
  5
12546
  8
0
 10
53.9900000000001583
 20
100.0
 30
0.0
 11
45.3000000000001393
 21
100.0
 31
0.0
  0
LINE
  5
12548
  8
0
 10
45.3000000000001393
 20
102.0
 30
0.0
 11
53.6185038209769615
 21
102.0
 31
0.0
  0
LINE
  5
12549
  8
0
 10
54.0000000000001634
 20
108.5058015400001068
 30
0.0
 11
54.0000000000001634
 21
108.555801540076601
 31
0.0
  0
LINE
  5
1254A
  8
0
 10
45.3000000000001393
 20
102.0
 30
0.0
 11
45.3000000000001393
 21
100.0
 31
0.0
  0
LINE
  5
1254D
  8
0
 10
70.699999999999946
 20
100.0
 30
0.0
 11
70.699999999999946
 21
102.0
 31
0.0
  0
LINE
  5
1256A
  8
1
 10
65.9999999999998863
 20
103.9999999999999005
 30
0.0
 11
65.9999999999999147
 21
98.0000000000000711
 31
0.0
  0
LINE
  5
1256B
  8
1
 10
50.0
 20
103.9999999999999005
 30
0.0
 11
50.0
 21
97.9999999999999716
 31
0.0
  0
LINE
  5
1256C
  8
1
 10
58.0000000000000426
 20
144.3078597246716868
 30
0.0
 11
58.0000000000002203
 21
94.3483494661958275
 31
0.0
  0
LINE
  5
1256D
  8
0
 10
201.8984998028130917
 20
114.931605038506504
 30
0.0
 11
200.8159680480825102
 21
114.306605038506504
 31
0.0
  0
LINE
  5
1256E
  8
0
 10
215.1840319519174898
 20
114.306605038506504
 30
0.0
 11
214.1015001971869083
 21
114.931605038506504
 31
0.0
  0
LINE
  5
1256F
  8
0
 10
211.9999999999810996
 20
108.5558015400956009
 30
0.0
 11
212.6188021602843037
 21
109.174603700398805
 31
0.0
  0
LINE
  5
12570
  8
0
 10
203.3811978461621948
 20
109.1746036939519939
 30
0.0
 11
204.0000000000187867
 21
108.5558015400954019
 31
0.0
  0
LINE
  5
12571
  8
0
 10
200.8159680480823965
 20
120.704998041494207
 30
0.0
 11
201.8984998028128928
 21
120.079998041494207
 31
0.0
  0
LINE
  5
12572
  8
0
 10
214.1015001971867946
 20
120.079998041494207
 30
0.0
 11
215.1840319519172908
 21
120.704998041494207
 31
0.0
  0
LINE
  5
12573
  8
0
 10
204.000000000011795
 20
126.4558015399176014
 30
0.0
 11
203.3811978465016921
 21
125.8369993864074985
 31
0.0
  0
LINE
  5
12574
  8
0
 10
212.61880215349791
 20
125.836999386407598
 30
0.0
 11
211.9999999999878924
 21
126.4558015399176014
 31
0.0
  0
LINE
  5
12575
  8
0
 10
213.6500000000293085
 20
106.0058015399730067
 30
0.0
 11
212.2500000000030127
 21
108.5058015400002063
 31
0.0
  0
LINE
  5
12576
  8
0
 10
203.7499999999969873
 20
108.5058015400002063
 30
0.0
 11
202.3499999999706915
 21
106.0058015399730067
 31
0.0
  0
LINE
  5
12577
  8
0
 10
202.3499999999706915
 20
106.0058015399730067
 30
0.0
 11
203.6185038209767981
 21
102.0
 31
0.0
  0
LINE
  5
12578
  8
0
 10
204.2466280237809997
 20
100.0164498859043931
 30
0.0
 11
204.2499999999839986
 21
100.0058015400002063
 31
0.0
  0
LINE
  5
12579
  8
0
 10
211.7500000000160014
 20
100.0058015400002063
 30
0.0
 11
211.7533719762190003
 21
100.0164498859043931
 31
0.0
  0
LINE
  5
1257A
  8
0
 10
212.3814961790230882
 20
101.999999999999801
 30
0.0
 11
213.6500000000293085
 21
106.0058015399730067
 31
0.0
  0
LINE
  5
1257B
  8
0
 10
205.4999999999998863
 20
126.7771685767183953
 30
0.0
 11
205.5
 21
126.4558015399433941
 31
0.0
  0
LINE
  5
1257C
  8
0
 10
210.4999999999998863
 20
126.4558015399433941
 30
0.0
 11
210.4999999999998863
 21
126.7773310729342029
 31
0.0
  0
ARC
  5
1257D
  8
0
 10
212.8000000000000966
 20
118.7755890499762046
 30
0.0
 40
0.5
 50
270.0000000000007958
 51
0.0
  0
ARC
  5
1257E
  8
0
 10
203.2000000000001023
 20
118.7755890499762046
 30
0.0
 40
0.5
 50
180.0
 51
270.0000000000007958
  0
LINE
  5
1257F
  8
0
 10
203.2000000000001023
 20
118.2755890499761051
 30
0.0
 11
204.0
 21
118.2755890499761051
 31
0.0
  0
LINE
  5
12580
  8
0
 10
212.0
 20
118.2755890499762046
 30
0.0
 11
212.8000000000000966
 21
118.2755890499762046
 31
0.0
  0
LINE
  5
12581
  8
0
 10
210.0000000000001137
 20
125.0058015399999931
 30
0.0
 11
206.0000000000001137
 21
125.0058015399999931
 31
0.0
  0
LINE
  5
12583
  8
0
 10
206.0000000000001137
 20
117.3659834796087011
 30
0.0
 11
210.0000000000001137
 21
117.3659834796087011
 31
0.0
  0
ARC
  5
12584
  8
0
 10
193.4999998721372947
 20
135.4949760226811009
 30
0.0
 40
0.999999852810461
 50
180.0000084333441919
 51
270.00000963912521
  0
ARC
  5
12585
  8
0
 10
222.4947412282299126
 20
135.4971543489743908
 30
0.0
 40
1.0052611515544281
 50
270.2996638648209
 51
359.8758358131674981
  0
LINE
  5
12586
  8
0
 10
223.5000000193269045
 20
135.494975875502206
 30
0.0
 11
223.5000000193269045
 21
137.4949752867437951
 31
0.0
  0
LINE
  5
12587
  8
0
 10
192.5000000193269045
 20
137.4949752867331085
 30
0.0
 11
192.5000000193269045
 21
135.494975875491491
 31
0.0
  0
ARC
  5
12588
  8
0
 10
222.5000001665164007
 20
137.4949751395541
 30
0.0
 40
0.9999998528104894
 50
0.000008433348317
 51
90.0000096391211173
  0
ARC
  5
12589
  8
0
 10
193.4999998721376926
 20
137.4949751395432997
 30
0.0
 40
0.9999998528108841
 50
89.999924099933537
 51
179.9999915666435015
  0
LINE
  5
1258A
  8
0
 10
206.0
 20
125.5999999999370971
 30
0.0
 11
204.0
 21
125.5999999999370971
 31
0.0
  0
LINE
  5
1258B
  8
0
 10
212.0
 20
125.5999999999369976
 30
0.0
 11
210.0
 21
125.5999999999369976
 31
0.0
  0
ARC
  5
1258C
  8
0
 10
203.1999999999999886
 20
123.5058015399999931
 30
0.0
 40
0.5000000000000285
 50
90.0
 51
180.0
  0
ARC
  5
1258D
  8
0
 10
203.1999999999999886
 20
119.5058015400001068
 30
0.0
 40
0.5
 50
180.0
 51
270.0000000000007958
  0
ARC
  5
1258E
  8
0
 10
212.8000000000000114
 20
119.5058015400001068
 30
0.0
 40
0.5
 50
270.0000000000007958
 51
0.0
  0
ARC
  5
1258F
  8
0
 10
212.8000000000000114
 20
123.5058015400001068
 30
0.0
 40
0.5
 50
0.0
 51
90.0
  0
LINE
  5
12590
  8
0
 10
203.1999999999999886
 20
119.0058015400001068
 30
0.0
 11
204.0
 21
119.0058015400001068
 31
0.0
  0
LINE
  5
12591
  8
0
 10
204.0
 20
124.0058015400001068
 30
0.0
 11
203.1999999999999886
 21
124.0058015400001068
 31
0.0
  0
LINE
  5
12592
  8
0
 10
212.8000000000000114
 20
124.0058015400001068
 30
0.0
 11
212.0
 21
124.0058015400001068
 31
0.0
  0
LINE
  5
12593
  8
0
 10
212.0
 20
119.0058015400001068
 30
0.0
 11
212.8000000000000114
 21
119.0058015400001068
 31
0.0
  0
ARC
  5
12594
  8
0
 10
203.1999999999999886
 20
114.0000960200001998
 30
0.0
 40
0.5
 50
90.0
 51
180.0000000000040075
  0
ARC
  5
12595
  8
0
 10
203.1999999999999886
 20
110.0000960200001998
 30
0.0
 40
0.5
 50
180.0
 51
270.0000000000007958
  0
ARC
  5
12596
  8
0
 10
212.8000000000000114
 20
110.0000960200002993
 30
0.0
 40
0.5000000000000285
 50
270.0000000000007958
 51
0.0
  0
ARC
  5
12597
  8
0
 10
212.8000000000000114
 20
114.0000960200001998
 30
0.0
 40
0.5000000000000285
 50
0.0000000000032569
 51
90.0
  0
LINE
  5
12598
  8
0
 10
203.1999999999999886
 20
109.5000960200001998
 30
0.0
 11
204.0
 21
109.5000960200001998
 31
0.0
  0
LINE
  5
12599
  8
0
 10
204.0
 20
114.5000960200001998
 30
0.0
 11
203.1999999999999886
 21
114.5000960200001998
 31
0.0
  0
LINE
  5
1259A
  8
0
 10
212.8000000000000114
 20
114.5000960200001998
 30
0.0
 11
212.0
 21
114.5000960200001998
 31
0.0
  0
LINE
  5
1259B
  8
0
 10
212.0
 20
109.5000960200002993
 30
0.0
 11
212.8000000000000114
 21
109.5000960200002993
 31
0.0
  0
LINE
  5
1259D
  8
0
 10
202.7000000000001023
 20
113.6645219800171986
 30
0.0
 11
202.5090497323444936
 21
113.8741015400004954
 31
0.0
  0
LINE
  5
125A2
  8
0
 10
201.8984998028130917
 20
114.931605038506504
 30
0.0
 11
202.5090497323444936
 21
113.8741015400004954
 31
0.0
  0
LINE
  5
125A3
  8
0
 10
200.8159680480825102
 20
114.306605038506504
 30
0.0
 11
201.4265179776139121
 21
113.2491015400004954
 31
0.0
  0
LINE
  5
125A4
  8
0
 10
213.4909502676555064
 20
113.8741015400004954
 30
0.0
 11
214.1015001971869083
 21
114.931605038506504
 31
0.0
  0
LINE
  5
125A5
  8
0
 10
214.5734820223860879
 20
113.2491015400004954
 30
0.0
 11
215.1840319519174898
 21
114.306605038506504
 31
0.0
  0
LINE
  5
125A7
  8
0
 10
203.3811978434239052
 20
109.5000960200001998
 30
0.0
 11
203.3811978429552028
 21
109.1746036971591991
 31
0.0
  0
LINE
  5
125A9
  8
0
 10
212.6188021565758959
 20
109.5000960200002993
 30
0.0
 11
212.618802157044712
 21
109.1746036971590996
 31
0.0
  0
LINE
  5
125AF
  8
0
 10
213.3000000000000966
 20
121.3470812518511934
 30
0.0
 11
213.4909502676553927
 21
121.1375015400002013
 31
0.0
  0
LINE
  5
125B0
  8
0
 10
202.5090497323442946
 20
121.1375015400002013
 30
0.0
 11
201.8984998028130065
 21
120.079998041494207
 31
0.0
  0
LINE
  5
125B1
  8
0
 10
201.4265179776137984
 20
121.7625015400003008
 30
0.0
 11
200.8159680480823965
 21
120.704998041494207
 31
0.0
  0
LINE
  5
125B2
  8
0
 10
214.1015001971867946
 20
120.079998041494207
 30
0.0
 11
213.4909502676553927
 21
121.1375015400002013
 31
0.0
  0
LINE
  5
125B3
  8
0
 10
215.1840319519172908
 20
120.704998041494207
 30
0.0
 11
214.573482022385889
 21
121.7625015400002013
 31
0.0
  0
LINE
  5
125B4
  8
0
 10
203.3811978465016921
 20
125.8369993864074985
 30
0.0
 11
203.3811978438641859
 21
124.0058015400001068
 31
0.0
  0
LINE
  5
125B7
  8
0
 10
205.6905989235723951
 20
125.5999999999370971
 30
0.0
 11
205.690598923231903
 21
125.8369993863981051
 31
0.0
  0
LINE
  5
125B8
  8
0
 10
205.690598923231903
 20
125.8369993863981051
 30
0.0
 11
206.000000000000199
 21
125.9649721505721942
 31
0.0
  0
LINE
  5
125B9
  8
0
 10
210.000000000000199
 20
125.967577443093802
 30
0.0
 11
210.3094010767393911
 21
125.8369993863981051
 31
0.0
  0
LINE
  5
125BA
  8
0
 10
210.3094010733348966
 20
125.5999999999369976
 30
0.0
 11
210.3094010767393911
 21
125.8369993863981051
 31
0.0
  0
LINE
  5
125BB
  8
0
 10
206.0000000000001137
 20
126.4558015399433941
 30
0.0
 11
204.000000000011795
 21
126.4558015399176014
 31
0.0
  0
LINE
  5
125BD
  8
0
 10
211.9999999999878924
 20
126.4558015399176014
 30
0.0
 11
210.0000000000001137
 21
126.4558015399433941
 31
0.0
  0
LINE
  5
125BF
  8
0
 10
212.61880215349791
 20
125.836999386407598
 30
0.0
 11
212.6188021561355868
 21
124.0058015400001068
 31
0.0
  0
LINE
  5
125C2
  8
0
 10
204.0000000000001137
 20
106.0058015399730067
 30
0.0
 11
202.3499999999706915
 21
106.0058015399730067
 31
0.0
  0
LINE
  5
125C3
  8
0
 10
213.6500000000293085
 20
106.0058015399730067
 30
0.0
 11
212.0000000000001137
 21
106.0058015399730067
 31
0.0
  0
LINE
  5
125C4
  8
0
 10
212.0000000000001137
 20
108.5058015400002063
 30
0.0
 11
212.2500000000030127
 21
108.5058015400002063
 31
0.0
  0
LINE
  5
125C5
  8
0
 10
203.7499999999969873
 20
108.5058015400002063
 30
0.0
 11
204.000000000000199
 21
108.5058015400002063
 31
0.0
  0
LINE
  5
125C6
  8
0
 10
208.0
 20
100.0058015400002063
 30
0.0
 11
211.7500000000160014
 21
100.0058015400002063
 31
0.0
  0
LINE
  5
125C7
  8
0
 10
204.2499999999839986
 20
100.0058015400002063
 30
0.0
 11
208.0
 21
100.0058015400002063
 31
0.0
  0
LINE
  5
125CA
  8
0
 10
210.0
 20
116.0000960200002993
 30
0.0
 11
206.0
 21
116.0000960200001998
 31
0.0
  0
LINE
  5
125CB
  8
0
 10
203.2500000000001137
 20
118.2755890499761051
 30
0.0
 11
203.2500000000001137
 21
114.5000960200001998
 31
0.0
  0
LINE
  5
125CC
  8
0
 10
212.75
 20
114.5000960200001998
 30
0.0
 11
212.75
 21
118.2755890499762046
 31
0.0
  0
LINE
  5
125D0
  8
0
 10
210.0000000118241985
 20
131.7538056872471941
 30
0.0
 11
206.0000000000001137
 21
131.7538056915826985
 31
0.0
  0
LINE
  5
125D4
  8
0
 10
206.0000000113300018
 20
132.7916759665465918
 30
0.0
 11
210.0000000113300018
 21
132.7916759665486097
 31
0.0
  0
LINE
  5
125D6
  8
0
 10
211.0000000103738955
 20
134.7995802706165875
 30
0.0
 11
211.0000000138489042
 21
127.5012868939410993
 31
0.0
  0
LINE
  5
125D9
  8
0
 10
205.0000000138489042
 20
127.5012868939380013
 30
0.0
 11
205.0000000103738955
 21
134.7995802696623002
 31
0.0
  0
LINE
  5
125DB
  8
0
 10
206.0000000117175034
 20
131.9777216938998095
 30
0.0
 11
210.0000000117175034
 21
131.977721693901799
 31
0.0
  0
LINE
  5
125E5
  8
0
 10
210.0000000103734124
 20
135.7995802701404102
 30
0.0
 11
206.0000000103732987
 21
135.7995802701383923
 31
0.0
  0
LINE
  5
12606
  8
0
 10
222.4999999982819929
 20
138.4949749923646038
 30
0.0
 11
193.5000011968436127
 21
138.494974992353292
 31
0.0
  0
LINE
  5
12607
  8
0
 10
204.0000000219920082
 20
134.4919069464218069
 30
0.0
 11
193.5000000403717024
 21
134.4949761698707107
 31
0.0
  0
LINE
  5
1260A
  8
0
 10
222.4999988418101964
 20
134.4919069464291965
 30
0.0
 11
212.0000000219920082
 21
134.4919069464258996
 31
0.0
  0
ARC
  5
1260B
  8
0
 10
204.0000001691821865
 20
133.4919070936120136
 30
0.0
 40
0.9999998528098609
 50
0.0000084333401748
 51
90.0000084333772037
  0
ARC
  5
1260C
  8
0
 10
211.9999998748031089
 20
133.4919070936149126
 30
0.0
 40
0.9999998528110831
 50
89.9999915666944332
 51
179.9999915666500101
  0
LINE
  5
1260E
  8
0
 10
204.0
 20
103.1334957099370939
 30
0.0
 11
206.0099999999999909
 21
103.1334957099370939
 31
0.0
  0
LINE
  5
1260F
  8
0
 10
204.0
 20
113.1334957099370939
 30
0.0
 11
204.0
 21
103.1334957099370939
 31
0.0
  0
LINE
  5
12610
  8
0
 10
212.0
 20
113.1334957099370939
 30
0.0
 11
204.0
 21
113.1334957099370939
 31
0.0
  0
LINE
  5
12612
  8
0
 10
206.0099999999999909
 20
103.1334957099370939
 30
0.0
 11
209.9900000000000091
 21
103.1334957099370939
 31
0.0
  0
LINE
  5
12614
  8
0
 10
212.0
 20
103.1334957099370939
 30
0.0
 11
212.0
 21
113.1334957099370939
 31
0.0
  0
LINE
  5
12615
  8
0
 10
209.9900000000000091
 20
103.1334957099370939
 30
0.0
 11
212.0
 21
103.1334957099370939
 31
0.0
  0
LINE
  5
12618
  8
0
 10
206.0
 20
131.9777216938998095
 30
0.0
 11
206.0
 21
113.1334957099370939
 31
0.0
  0
LINE
  5
12619
  8
0
 10
204.0
 20
113.1334957099370939
 30
0.0
 11
204.0
 21
122.3163618088598952
 31
0.0
  0
LINE
  5
1261B
  8
0
 10
212.0
 20
122.3163618088598952
 30
0.0
 11
212.0
 21
113.1334957099370939
 31
0.0
  0
LINE
  5
1261C
  8
0
 10
210.0
 20
113.1334957099370939
 30
0.0
 11
210.0
 21
131.977721693901799
 31
0.0
  0
LINE
  5
1261D
  8
0
 10
195.3000000000000114
 20
102.0
 30
0.0
 11
195.3000000000000114
 21
100.0
 31
0.0
  0
ARC
  5
12621
  8
0
 10
203.9900000000000091
 20
102.0100000000000051
 30
0.0
 40
2.0100000000000189
 50
270.0000000000007958
 51
0.0
  0
LINE
  5
12622
  8
0
 10
195.3000000000000114
 20
102.0
 30
0.0
 11
203.9900000000000091
 21
102.0
 31
0.0
  0
ARC
  5
12623
  8
0
 10
203.9900000000000091
 20
102.0100000000000051
 30
0.0
 40
0.0100000000000193
 50
270.0000000000007958
 51
0.0
  0
LINE
  5
12624
  8
0
 10
203.9900000000000091
 20
100.0
 30
0.0
 11
195.3000000000000114
 21
100.0
 31
0.0
  0
LINE
  5
12625
  8
0
 10
206.0
 20
102.0100000000000051
 30
0.0
 11
206.0
 21
103.1334957099370939
 31
0.0
  0
LINE
  5
12626
  8
0
 10
204.0
 20
102.0100000000000051
 30
0.0
 11
204.0
 21
103.1334957099370939
 31
0.0
  0
ARC
  5
12627
  8
0
 10
212.0099999999999909
 20
102.0099999999998062
 30
0.0
 40
0.0099999999999909
 50
180.0000000011405916
 51
270.0000000000007958
  0
LINE
  5
12628
  8
0
 10
212.0099999999999909
 20
101.999999999999801
 30
0.0
 11
220.6999999999999034
 21
101.999999999999801
 31
0.0
  0
LINE
  5
1262A
  8
0
 10
220.6999999999999034
 20
99.9999999999998863
 30
0.0
 11
212.0099999999999909
 21
99.9999999999998437
 31
0.0
  0
ARC
  5
1262B
  8
0
 10
212.0099999999999909
 20
102.0099999999998062
 30
0.0
 40
2.0100000000000189
 50
180.0000000000055991
 51
270.0000000000007958
  0
LINE
  5
1262C
  8
0
 10
212.0
 20
102.009999999999593
 30
0.0
 11
212.0
 21
103.1334957099370939
 31
0.0
  0
LINE
  5
1262D
  8
0
 10
210.0
 20
102.0099999999997067
 30
0.0
 11
210.0
 21
103.1334957099370939
 31
0.0
  0
LINE
  5
1262E
  8
0
 10
220.6999999999999034
 20
99.9999999999998863
 30
0.0
 11
220.6999999999999034
 21
101.999999999999801
 31
0.0
  0
LINE
  5
12632
  8
0
 10
204.0
 20
125.5999999999370971
 30
0.0
 11
204.0
 21
122.3163618088598952
 31
0.0
  0
LINE
  5
12633
  8
0
 10
212.0
 20
122.3163618088598952
 30
0.0
 11
212.0
 21
125.5999999999369976
 31
0.0
  0
LINE
  5
1264B
  8
1
 10
208.0
 20
94.159018037104957
 30
0.0
 11
208.000000000000199
 21
144.200781116209896
 31
0.0
  0
LINE
  5
1264C
  8
1
 10
200.0
 20
103.9999999999999005
 30
0.0
 11
200.0
 21
98.0000000000001137
 31
0.0
  0
LINE
  5
1264D
  8
1
 10
216.0
 20
103.9999999999999005
 30
0.0
 11
216.0
 21
97.9999999999999289
 31
0.0
  0
LINE
  5
1264E
  8
0
 10
122.7550940989752064
 20
55.9999999999999574
 30
0.0
 11
122.7550940989752064
 21
53.9999999999999503
 31
0.0
  0
LINE
  5
1264F
  8
0
 10
122.7550940989752064
 20
61.9999999999998792
 30
0.0
 11
122.7550940989752064
 21
59.9999999999998934
 31
0.0
  0
ARC
  5
12650
  8
0
 10
124.7550940989751069
 20
53.1999999999999602
 30
0.0
 40
0.5
 50
180.0
 51
270.0000000000007958
  0
ARC
  5
12651
  8
0
 10
128.7550940989750927
 20
53.1999999999999673
 30
0.0
 40
0.5
 50
270.0000000000007958
 51
0.0
  0
ARC
  5
12652
  8
0
 10
128.7550940989750927
 20
62.7999999999999687
 30
0.0
 40
0.5
 50
0.0
 51
90.0
  0
ARC
  5
12653
  8
0
 10
124.7550940989749932
 20
62.7999999999999474
 30
0.0
 40
0.5
 50
90.0
 51
180.0
  0
LINE
  5
12654
  8
0
 10
129.2550940989750927
 20
53.1999999999999673
 30
0.0
 11
129.2550940989750927
 21
53.9999999999999716
 31
0.0
  0
LINE
  5
12655
  8
0
 10
124.2550940989751069
 20
53.9999999999999503
 30
0.0
 11
124.2550940989751069
 21
53.1999999999999602
 31
0.0
  0
LINE
  5
12656
  8
0
 10
124.2550940989751069
 20
62.7999999999999474
 30
0.0
 11
124.2550940989751069
 21
61.9999999999999005
 31
0.0
  0
LINE
  5
12657
  8
0
 10
129.2550940989750927
 20
61.9999999999999218
 30
0.0
 11
129.2550940989750927
 21
62.7999999999999687
 31
0.0
  0
LINE
  5
12658
  8
0
 10
148.7317945189763861
 20
55.9999999999999289
 30
0.0
 11
148.7317945189763861
 21
59.9922089842238506
 31
0.0
  0
LINE
  5
12659
  8
0
 10
155.9317341589778039
 20
55.9999999999999076
 30
0.0
 11
155.9317341589778039
 21
59.9903380475572519
 31
0.0
  0
ARC
  5
1265C
  8
0
 10
109.9077265735977988
 20
58.0
 30
0.0
 40
7.5000000000000124
 50
319.6788352666000037
 51
40.3211647333999821
  0
ARC
  5
1265D
  8
0
 10
109.9077265735977988
 20
58.0
 30
0.0
 40
7.5000000000000444
 50
139.6788352666000037
 51
220.3211647334011047
  0
ARC
  5
12664
  8
0
 10
109.9077265735977988
 20
64.7177068930302255
 30
0.0
 40
13.9097489483248609
 50
252.8489148743389023
 51
287.151085125662803
  0
ARC
  5
12665
  8
0
 10
109.9077265735978983
 20
51.2822931069709469
 30
0.0
 40
13.9097489483237098
 50
72.8489148743368844
 51
107.1510851256631014
  0
CIRCLE
  5
12667
  8
0
 10
109.9079011999019002
 20
58.0
 30
0.0
 40
5.65000000002928
  0
CIRCLE
  5
12668
  8
0
 10
109.9079011999019002
 20
58.0
 30
0.0
 40
3.7500000000159872
  0
ARC
  5
1267B
  8
0
 10
118.7495699341565967
 20
55.9899999999999309
 30
0.0
 40
2.0100000000000189
 50
90.0000000000044764
 51
132.6043206962258125
  0
ARC
  5
1267C
  8
0
 10
118.7495699341565967
 20
60.0099999999999199
 30
0.0
 40
2.0100000000000051
 50
227.3956793037741875
 51
269.9999999999951115
  0
ARC
  5
1267D
  8
0
 10
104.652943861640793
 20
58.2499999999999218
 30
0.0
 40
2.5
 50
145.3502902910854004
 51
180.0
  0
LINE
  5
1267E
  8
0
 10
102.152943861640793
 20
57.7499999999999289
 30
0.0
 11
102.152943861640793
 21
58.2499999999999218
 31
0.0
  0
ARC
  5
1267F
  8
0
 10
104.652943861640793
 20
57.7499999999999005
 30
0.0
 40
2.5
 50
179.9999999999992042
 51
214.6497097089165891
  0
ARC
  5
12680
  8
0
 10
104.652943861640793
 20
58.2499999999999218
 30
0.0
 40
4.5
 50
97.4029043828469838
 51
180.0
  0
ARC
  5
12681
  8
0
 10
115.1628585381628938
 20
60.739999999999938
 30
0.0
 40
2.010000000000014
 50
44.9999999999994174
 51
71.7177130983191802
  0
LINE
  5
12682
  8
0
 10
116.584143168347893
 20
62.1612846301848876
 30
0.0
 11
118.7424988663448033
 21
60.0029289321880412
 31
0.0
  0
ARC
  5
12683
  8
0
 10
118.7495699341565967
 20
60.0099999999999199
 30
0.0
 40
0.0099999999999985
 50
225.0000000001157048
 51
270.0000000000007958
  0
ARC
  5
12684
  8
0
 10
118.7495699341565967
 20
55.9899999999999309
 30
0.0
 40
0.0100000000000051
 50
90.0
 51
134.9999999999996874
  0
LINE
  5
12685
  8
0
 10
116.584143168347893
 20
53.8387153698149632
 30
0.0
 11
118.7424988663447039
 21
55.9970710678117811
 31
0.0
  0
ARC
  5
12686
  8
0
 10
115.1628585381628938
 20
55.259999999999927
 30
0.0
 40
2.0100000000000642
 50
288.2822869016786171
 51
315.0000000000019895
  0
ARC
  5
12687
  8
0
 10
104.652943861640793
 20
57.7499999999999005
 30
0.0
 40
4.5
 50
180.0
 51
262.5970956171549915
  0
LINE
  5
12688
  8
0
 10
100.152943861640793
 20
57.7499999999999289
 30
0.0
 11
100.152943861640793
 21
58.2499999999999218
 31
0.0
  0
LINE
  5
12689
  8
0
 10
118.7495699341565967
 20
59.9999999999999218
 30
0.0
 11
157.2326451150200057
 21
59.9900000000000091
 31
0.0
  0
LINE
  5
1268A
  8
0
 10
118.7495699341565967
 20
55.9999999999999289
 30
0.0
 11
157.2326451150200057
 21
55.9999999999999289
 31
0.0
  0
LINE
  5
1268B
  8
0
 10
150.5584443269947883
 20
59.9917343210636389
 30
0.0
 11
150.5584443269947883
 21
55.9999999999999076
 31
0.0
  0
LINE
  5
12692
  8
0
 10
118.4120815126440931
 20
58.028535499852552
 30
0.0
 11
118.4120815126820929
 21
57.9714645001541271
 31
0.0
  0
LINE
  5
12695
  8
0
 10
118.4136161228355064
 20
60.3318116756974305
 30
0.0
 11
118.4136161173932038
 21
68.4999999773417159
 31
0.0
  0
LINE
  5
12696
  8
0
 10
118.4136161313850977
 20
47.4999999773417088
 30
0.0
 11
118.4136161259427951
 21
55.6681883274099931
 31
0.0
  0
LINE
  5
1269C
  8
0
 10
128.4136131736013908
 20
68.4999999840044751
 30
0.0
 11
128.4136131770661109
 21
63.3000000000000824
 31
0.0
  0
ARC
  5
1269E
  8
0
 10
123.4136146454974039
 20
68.5000011278986278
 30
0.0
 40
4.9999985281042321
 50
359.9999868919352934
 51
180.000013184415792
  0
ARC
  5
126A5
  8
0
 10
123.4136146594890988
 20
47.4999988334474779
 30
0.0
 40
4.9999985281042161
 50
179.9999868919337018
 51
0.0000131844159144
  0
LINE
  5
126A6
  8
0
 10
128.413613184128593
 20
52.7000000000000597
 30
0.0
 11
128.4136131875931994
 21
47.4999999840044609
 31
0.0
  0
CIRCLE
  5
126A9
  8
0
 10
150.0
 20
50.0
 30
0.0
 40
2.250000000000028
  0
CIRCLE
  5
126AA
  8
0
 10
136.4999999999998863
 20
50.0000000000000995
 30
0.0
 40
2.25
  0
ARC
  5
126AB
  8
0
 10
132.1999999999999034
 20
47.300000000000189
 30
0.0
 40
2.0
 50
180.0
 51
270.0000000000007958
  0
LINE
  5
126AC
  8
0
 10
130.1999999999999034
 20
53.990000000000208
 30
0.0
 11
130.1999999999999034
 21
47.300000000000189
 31
0.0
  0
LINE
  5
126AE
  8
0
 10
156.3000000000000114
 20
47.3000000000000966
 30
0.0
 11
156.3000000000000114
 21
53.990000000000002
 31
0.0
  0
ARC
  5
126AF
  8
0
 10
154.3000000000000114
 20
47.3000000000000966
 30
0.0
 40
2.0
 50
270.0000000000007958
 51
0.0
  0
LINE
  5
126B0
  8
0
 10
132.1999999999999034
 20
45.300000000000189
 30
0.0
 11
154.3000000000000114
 21
45.3000000000000966
 31
0.0
  0
LINE
  5
126B1
  8
0
 10
130.1999999999999034
 20
56.0000000000001918
 30
0.0
 11
130.1999999999999034
 21
53.990000000000208
 31
0.0
  0
LINE
  5
126B3
  8
0
 10
156.3000000000000114
 20
56.0
 30
0.0
 11
156.3000000000000114
 21
53.990000000000002
 31
0.0
  0
LINE
  5
126B4
  8
0
 10
130.1999999999999034
 20
62.0099999999999909
 30
0.0
 11
130.1999999999999886
 21
59.9970245542976528
 31
0.0
  0
LINE
  5
126B7
  8
0
 10
156.3000000000000114
 20
62.0099999999999909
 30
0.0
 11
156.3000000000000114
 21
59.9902423520237633
 31
0.0
  0
CIRCLE
  5
126B8
  8
0
 10
150.0000000000001137
 20
66.0
 30
0.0
 40
2.25
  0
CIRCLE
  5
126B9
  8
0
 10
136.4999999999998863
 20
66.0
 30
0.0
 40
2.25
  0
ARC
  5
126BA
  8
0
 10
154.3000000000000114
 20
68.7000000000000028
 30
0.0
 40
2.000000000000028
 50
0.0
 51
90.0
  0
LINE
  5
126BB
  8
0
 10
130.1999999999999034
 20
68.7000000000000028
 30
0.0
 11
130.1999999999999034
 21
62.0099999999999909
 31
0.0
  0
ARC
  5
126BC
  8
0
 10
132.1999999999999034
 20
68.7000000000000028
 30
0.0
 40
2.0
 50
90.0
 51
180.0
  0
LINE
  5
126BD
  8
0
 10
154.3000000000000114
 20
70.7000000000000028
 30
0.0
 11
132.1999999999999034
 21
70.7000000000000028
 31
0.0
  0
LINE
  5
126BE
  8
0
 10
156.3000000000000114
 20
62.0099999999999909
 30
0.0
 11
156.3000000000000114
 21
68.7000000000000028
 31
0.0
  0
LINE
  5
126C0
  8
0
 10
157.2326451150200057
 20
55.9999999999999289
 30
0.0
 11
157.2326451150200057
 21
59.9900000000000091
 31
0.0
  0
ARC
  5
126C2
  8
0
 10
157.2226451150199864
 20
59.9900000000000091
 30
0.0
 40
2.00999999999999
 50
0.0
 51
90.0
  0
LINE
  5
126C3
  8
0
 10
159.2326451150200057
 20
59.9900000000000091
 30
0.0
 11
159.2326451150200057
 21
56.009999999999998
 31
0.0
  0
ARC
  5
126C4
  8
0
 10
157.2226451150199864
 20
56.009999999999998
 30
0.0
 40
2.0100000000000051
 50
270.0
 51
0.0
  0
LINE
  5
126C5
  8
0
 10
157.2226451150199864
 20
62.0
 30
0.0
 11
156.3000000000000114
 21
62.0
 31
0.0
  0
LINE
  5
126C8
  8
0
 10
157.2226451150199864
 20
54.0
 30
0.0
 11
156.3000000000000114
 21
54.0
 31
0.0
  0
LINE
  5
126D0
  8
0
 10
118.4166853478228063
 20
58.0277568635050898
 30
0.0
 11
118.4166853478597972
 21
57.972243136501227
 31
0.0
  0
LINE
  5
126D1
  8
0
 10
119.414383133207906
 20
61.9999999780079918
 30
0.0
 11
130.1999999999999034
 21
61.9999999901169119
 31
0.0
  0
LINE
  5
126D7
  8
1
 10
94.7356849232818092
 20
58.0000000000005826
 30
0.0
 11
164.4322803751497872
 21
57.9999999999999289
 31
0.0
  0
LINE
  5
126E1
  8
0
 10
154.4317341589764965
 20
186.6999999999999886
 30
0.0
 11
150.4317341589764965
 21
186.6999999999999886
 31
0.0
  0
LINE
  5
126E2
  8
0
 10
146.7317945189763009
 20
186.6999999999999886
 30
0.0
 11
142.7317945189763009
 21
186.6999999999999886
 31
0.0
  0
LINE
  5
126E3
  8
0
 10
139.7467361605035876
 20
186.7000000000001023
 30
0.0
 11
135.7467361605035876
 21
186.7000000000001023
 31
0.0
  0
ARC
  5
126E5
  8
0
 10
129.2920785714561873
 20
195.8800000154105874
 30
0.0
 40
0.88
 50
179.9999999618277968
 51
269.9999999618352149
  0
ARC
  5
126E7
  8
0
 10
129.292078561875087
 20
188.1200000154107101
 30
0.0
 40
0.88
 50
89.9999999618277968
 51
180.0
  0
LINE
  5
126E8
  8
0
 10
135.4181855225847926
 20
192.0000000113298881
 30
0.0
 11
155.9317341589776049
 21
192.0000000000001137
 31
0.0
  0
LINE
  5
126E9
  8
0
 10
129.2920785708699896
 20
195.0000000154105919
 30
0.0
 11
134.8371359544520942
 21
195.0000000117175034
 31
0.0
  0
LINE
  5
126EA
  8
0
 10
129.2920785624613984
 20
189.0000000154107056
 30
0.0
 11
134.8371359504544102
 21
189.0000000117175034
 31
0.0
  0
ARC
  5
126EB
  8
0
 10
108.5528053801415069
 20
189.6265827604607921
 30
0.0
 40
5.01850208236635
 50
209.6101166389825039
 51
236.8158774608872079
  0
ARC
  5
126EC
  8
0
 10
111.1170079093747063
 20
189.7637379931088901
 30
0.0
 40
5.2134067728443352
 50
303.7018864107001832
 51
329.872119489439001
  0
ARC
  5
126ED
  8
0
 10
108.6985096209558037
 20
194.2365296387625051
 30
0.0
 40
5.2130260550032457
 50
123.7009138079422996
 51
149.8730920921935024
  0
ARC
  5
126EE
  8
0
 10
111.2630132684094946
 20
194.3734325050662903
 30
0.0
 40
5.0184804129562686
 50
29.6100567737511895
 51
56.8159373261146712
  0
POLYLINE
  5
126EF
  8
0
 66
     1
 10
0.0
 20
0.0
 30
0.0
 70
     1
  0
VERTEX
  5
14771
  8
0
 10
109.9079011999017013
 20
196.61880215349791
 30
0.0
  0
VERTEX
  5
14772
  8
0
 10
105.9079011999182995
 20
194.3094010767489124
 30
0.0
  0
VERTEX
  5
14773
  8
0
 10
105.9079011999182995
 20
189.6905989232510024
 30
0.0
  0
VERTEX
  5
14774
  8
0
 10
109.9079011999018007
 20
187.38119784650209
 30
0.0
  0
VERTEX
  5
14775
  8
0
 10
113.9079011998852025
 20
189.6905989232510024
 30
0.0
  0
VERTEX
  5
14776
  8
0
 10
113.9079011998852025
 20
194.3094010767489124
 30
0.0
  0
SEQEND
  5
14777
  8
0
  0
CIRCLE
  5
126F0
  8
0
 10
109.9079011999017013
 20
192.0
 30
0.0
 40
4.0001203838810371
  0
CIRCLE
  5
126F1
  8
3
 10
109.9079011999017013
 20
192.0
 30
0.0
 40
2.0669999999999988
  0
LINE
  5
126F2
  8
0
 10
63.2999999999997627
 20
118.7755890499761051
 30
0.0
 11
63.29999999999945
 21
121.3569428172430946
 31
0.0
  0
ARC
  5
126F3
  8
0
 10
62.8600075145807224
 20
120.7812766350067051
 30
0.0
 40
0.7245584452586601
 50
29.4487027323883588
 51
90.551297267604923
  0
ARC
  5
126F4
  8
0
 10
62.8520635403953705
 20
120.7675172681036031
 30
0.0
 40
1.988284509687114
 50
30.0280217784765391
 51
89.9719782215213115
  0
LINE
  5
126F5
  8
0
 10
63.2999999999992866
 20
122.7046874257354006
 30
0.0
 11
63.2999999999991871
 21
123.5058022990196065
 31
0.0
  0
ARC
  5
126F6
  8
0
 10
53.1485748813503918
 20
120.7664114892045006
 30
0.0
 40
1.9893907029538429
 50
90.0463931732208351
 51
149.9536068267806002
  0
ARC
  5
126F7
  8
0
 10
53.141821530036772
 20
120.7781086368010932
 30
0.0
 40
0.7277110737264687
 50
89.5951046322240643
 51
150.4048953677782947
  0
LINE
  5
126F8
  8
0
 10
63.2999999999997982
 20
110.0000960200001003
 30
0.0
 11
63.2999999999998195
 21
112.3070337117724051
 31
0.0
  0
ARC
  5
126F9
  8
0
 10
62.8581783819675195
 20
114.2334945956136067
 30
0.0
 40
0.7277112255149062
 50
269.5951116451738017
 51
330.404888354823413
  0
ARC
  5
126FA
  8
0
 10
62.8514251454490704
 20
114.2451915443790966
 30
0.0
 40
1.9893906565151891
 50
270.0463924024776929
 51
329.9536075975207723
  0
LINE
  5
126FB
  8
0
 10
63.2999999999998266
 20
113.6552582377290008
 30
0.0
 11
63.2999999999998266
 21
114.0000960200001003
 31
0.0
  0
LINE
  5
126FC
  8
0
 10
52.6999999999997826
 20
110.0000960200001998
 30
0.0
 11
52.6999999999997897
 21
112.3069156339313963
 31
0.0
  0
LINE
  5
126FD
  8
0
 10
52.6999999999997968
 20
113.6546602059194981
 30
0.0
 11
52.6999999999997968
 21
114.0000960200001998
 31
0.0
  0
ARC
  5
126FE
  8
0
 10
54.7277418074075683
 20
124.7110654940360064
 30
0.0
 40
1.7552514830179831
 50
96.2747824886972836
 51
129.9012116198940134
  0
ARC
  5
126FF
  8
0
 10
54.3519686675324181
 20
124.7258326688275929
 30
0.0
 40
1.739719068063333
 50
39.6952987209793804
 51
83.9311304236881455
  0
ARC
  5
12700
  8
0
 10
58.0000000000004334
 20
121.8369993864424004
 30
0.0
 40
4.6188021534820249
 50
59.999999999885091
 51
120.0000000001161027
  0
ARC
  5
12701
  8
0
 10
61.6559450377558704
 20
124.7110654938448988
 30
0.0
 40
1.7552514832194279
 50
96.2747824914258246
 51
140.0987883779206129
  0
ARC
  5
12702
  8
0
 10
61.2801718978896233
 20
124.725832669034105
 30
0.0
 40
1.7397190678459009
 50
50.3047012816426715
 51
83.9311304267101548
  0
ARC
  5
12703
  8
0
 10
61.2722581905257613
 20
124.5005375908623932
 30
0.0
 40
1.755251488179042
 50
276.2747825353835083
 51
309.9012115357820107
  0
ARC
  5
12704
  8
0
 10
61.6480313147715009
 20
124.4857703561413018
 30
0.0
 40
1.7397190115833181
 50
219.695297756931808
 51
263.9311308026374263
  0
ARC
  5
12705
  8
0
 10
58.0000000052924065
 20
127.3746036765594027
 30
0.0
 40
4.6188021365592258
 50
239.9999998532819063
 51
300.0000001467199127
  0
ARC
  5
12706
  8
0
 10
54.3440549601267975
 20
124.5005375910369025
 30
0.0
 40
1.75525148838742
 50
276.2747825451392032
 51
320.0987884630097824
  0
ARC
  5
12707
  8
0
 10
54.7198281032040867
 20
124.4857704129112932
 30
0.0
 40
1.739719069962216
 50
230.3047012718780877
 51
263.9311304006507157
  0
LINE
  5
12708
  8
0
 10
52.6999999999997684
 20
118.7755890499761051
 30
0.0
 11
52.6999999999997684
 21
121.3563448708956969
 31
0.0
  0
LINE
  5
12709
  8
0
 10
52.6999999999997684
 20
122.7045693632747998
 30
0.0
 11
52.6999999999997684
 21
123.5058015399999931
 31
0.0
  0
ARC
  5
1270A
  8
0
 10
54.7277418077444224
 20
110.5110654936267025
 30
0.0
 40
1.7552514835389159
 50
96.2747824984036242
 51
129.9012116231820073
  0
ARC
  5
1270B
  8
0
 10
54.3519686671170206
 20
110.5258326684016055
 30
0.0
 40
1.73971906863459
 50
39.6952987232041323
 51
83.9311304058156225
  0
ARC
  5
1270C
  8
0
 10
57.9999999999860378
 20
107.6369993870515032
 30
0.0
 40
4.6188021529489296
 50
59.999999995999822
 51
120.0000000040001993
  0
ARC
  5
1270D
  8
0
 10
61.6559450380788832
 20
110.5110654934467931
 30
0.0
 40
1.7552514837241191
 50
96.2747824996583148
 51
140.0987883751483878
  0
ARC
  5
1270E
  8
0
 10
61.280171897529307
 20
110.5258326685789996
 30
0.0
 40
1.7397190684139241
 50
50.3047012776929918
 51
83.9311304161963534
  0
ARC
  5
1270F
  8
0
 10
61.2722581883679425
 20
110.3005375952291018
 30
0.0
 40
1.755251493044018
 50
276.2747827767221906
 51
309.9012114504132001
  0
ARC
  5
12710
  8
0
 10
61.6480314242524585
 20
110.2857706906755055
 30
0.0
 40
1.7397193557094359
 50
219.6953035763798141
 51
263.9311283098721219
  0
ARC
  5
12711
  8
0
 10
58.0000000024486866
 20
113.1746036675658047
 30
0.0
 40
4.6188021273485447
 50
239.9999998280443947
 51
299.9999996453975086
  0
ARC
  5
12712
  8
0
 10
54.3440549605877976
 20
110.300537590469304
 30
0.0
 40
1.755251487669208
 50
276.2747825298865791
 51
320.0987884675730015
  0
ARC
  5
12713
  8
0
 10
54.7198281028364377
 20
110.2857704124671017
 30
0.0
 40
1.73971906939554
 50
230.3047012754068987
 51
263.9311304081440994
  0
ARC
  5
12714
  8
0
 10
61.2722581883679425
 20
110.3005375952291018
 30
0.0
 40
1.755251493044018
 50
320.098788384726106
 51
320.0987885495870842
  0
ARC
  5
12715
  8
0
 10
53.1399923124183928
 20
114.2303261453466945
 30
0.0
 40
0.7245581472898661
 50
209.4486888246235878
 51
270.5513111753749058
  0
ARC
  5
12716
  8
0
 10
53.147936349707507
 20
114.2440856215487059
 30
0.0
 40
1.988284319285101
 50
210.028018614273293
 51
269.9719813857273039
  0
ARC
  5
12717
  8
0
 10
55.8096290108618476
 20
127.539758198577303
 30
0.0
 40
0.8105425336985936
 50
182.7204887536180991
 51
247.5422427497765057
  0
ARC
  5
12718
  8
0
 10
60.2209915625858372
 20
127.527954084671606
 30
0.0
 40
0.7794647285459213
 50
290.9742760222906099
 51
358.0394036495276282
  0
LINE
  5
12719
  8
0
 10
127.4143807738435044
 20
134.4980453933227125
 30
0.0
 11
119.4143831288769064
 21
134.4919069464183963
 31
0.0
  0
LINE
  5
1271A
  8
0
 10
127.4113115503913036
 20
138.4980442158060043
 30
0.0
 11
119.4113139054248052
 21
138.4919057689018018
 31
0.0
  0
ARC
  5
1271B
  8
0
 10
103.5019923391917018
 20
119.8250244246731029
 30
0.0
 40
3.0103770897459361
 50
40.0607499765632085
 51
76.7947909676975797
  0
ARC
  5
1271C
  8
0
 10
103.8692848059606035
 20
116.3687636755861945
 30
0.0
 40
5.14701969637514
 50
67.8963535888537137
 51
86.4310944512643147
  0
ARC
  5
1271D
  8
0
 10
116.3259366402451036
 20
119.8052915267313949
 30
0.0
 40
3.032367183933256
 50
103.343105963500804
 51
139.8013530922526968
  0
ARC
  5
1271E
  8
0
 10
115.939972025172807
 20
116.3974899064687065
 30
0.0
 40
5.1179439204959616
 50
93.5157882690915443
 51
112.1567636907814034
  0
ARC
  5
1271F
  8
0
 10
103.8756557483265937
 20
118.6141131735323029
 30
0.0
 40
5.1179439204963488
 50
273.5157882690921269
 51
292.1567636907810765
  0
ARC
  5
12720
  8
0
 10
115.9463429675382997
 20
118.642839404412797
 30
0.0
 40
5.1470196963735848
 50
247.8963535888539127
 51
266.4310944512687911
  0
ARC
  5
12721
  8
0
 10
116.3136354343043024
 20
115.1865786553230038
 30
0.0
 40
3.010377089740385
 50
220.0607499765424109
 51
256.7947909678018164
  0
ARC
  5
12722
  8
0
 10
103.489691133255306
 20
115.2063115532681934
 30
0.0
 40
3.0323671839319539
 50
283.3431059634793883
 51
319.8013530922592054
  0
ARC
  5
12723
  8
0
 10
107.9077265736045064
 20
108.7143496560522067
 30
0.0
 40
3.5414518839481399
 50
55.6157525278943581
 51
124.384247472375705
  0
ARC
  5
12724
  8
0
 10
111.9077265735894002
 20
108.7143496560556031
 30
0.0
 40
3.5414518839445499
 50
55.6157525278797493
 51
124.3842474721190001
  0
ARC
  5
12725
  8
0
 10
111.9077265797080969
 20
112.0972534076714027
 30
0.0
 40
3.5414518675759559
 50
235.6157523464989083
 51
304.3842476535047012
  0
ARC
  5
12726
  8
0
 10
107.9077265611454948
 20
112.0972534676666044
 30
0.0
 40
3.541451927571142
 50
235.6157532548301958
 51
304.3842473531826727
  0
ARC
  5
12727
  8
0
 10
107.9079011999099009
 20
122.9143496556230986
 30
0.0
 40
3.5414518843012899
 50
55.6157525318295569
 51
124.3842474681700025
  0
ARC
  5
12728
  8
0
 10
111.9079011998865951
 20
122.9143496556452959
 30
0.0
 40
3.5414518842790468
 50
55.6157525314481305
 51
124.3842474682799946
  0
ARC
  5
12729
  8
0
 10
111.9079012060119993
 20
126.2972534071279966
 30
0.0
 40
3.5414518671279249
 50
235.6157523415390074
 51
304.3842476584670749
  0
ARC
  5
1272A
  8
0
 10
107.9079012029570066
 20
126.2972534170016985
 30
0.0
 40
3.5414518770015571
 50
235.6157523909552935
 51
304.3842476090363789
  0
LINE
  5
1272B
  8
0
 10
118.7495699341563977
 20
57.9999999999999432
 30
0.0
 11
155.9317341589778039
 21
57.9999999999999005
 31
0.0
  0
LINE
  5
1272C
  8
0
 10
128.7550940989750927
 20
63.2999999999999687
 30
0.0
 11
124.7550940989749932
 21
63.2999999999999474
 31
0.0
  0
LINE
  5
1272D
  8
0
 10
128.7550940989750927
 20
52.6999999999999673
 30
0.0
 11
124.7550940989751069
 21
52.6999999999999602
 31
0.0
  0
LINE
  5
12731
  8
0
 10
119.4143831385380992
 20
53.9999999780079918
 30
0.0
 11
130.2000000053301108
 21
53.9999999901168977
 31
0.0
  0
ARC
  5
12735
  8
0
 10
108.5526145050895934
 20
55.6265674949331981
 30
0.0
 40
5.0184804129557037
 50
209.6100567737497897
 51
236.8159373261167104
  0
ARC
  5
12736
  8
0
 10
111.1171181525451033
 20
55.7634703612360099
 30
0.0
 40
5.2130260550013388
 50
303.7009138079375248
 51
329.8730920921981919
  0
ARC
  5
12737
  8
0
 10
111.2628223933571974
 20
60.3734172395383766
 30
0.0
 40
5.0185020823674193
 50
29.6101166389809798
 51
56.8158774608832786
  0
ARC
  5
12738
  8
0
 10
108.6986198641251065
 20
60.2362620068904491
 30
0.0
 40
5.2134067728447917
 50
123.7018864106952947
 51
149.8721194894349935
  0
ARC
  5
1273C
  8
0
 10
210.0000000103738955
 20
134.7995802701404102
 30
0.0
 40
1.0
 50
0.0000000272803299
 51
90.000000000029317
  0
ARC
  5
1273D
  8
0
 10
206.0000000103738955
 20
134.7995802701383923
 30
0.0
 40
1.0
 50
90.000000000029317
 51
180.0000000272810041
  0
ARC
  5
1273E
  8
0
 10
203.1169401146090081
 20
120.7959242678550993
 30
0.0
 40
1.947254124214673
 50
102.3637258884956935
 51
150.2392344117994867
  0
ARC
  5
1273F
  8
0
 10
202.948624334724002
 20
120.9370407360047039
 30
0.0
 40
0.4831256203057622
 50
120.9718135465020055
 51
155.4854187879649885
  0
ARC
  5
12740
  8
0
 10
212.8817842101611006
 20
120.7960325724030071
 30
0.0
 40
1.948307920533803
 50
29.7393789663191903
 51
77.6046595058454045
  0
ARC
  5
12741
  8
0
 10
212.8830778204323906
 20
114.2156631845027022
 30
0.0
 40
1.947230797467379
 50
282.3633360874532059
 51
330.2393716421601084
  0
ARC
  5
12742
  8
0
 10
213.0513746824532006
 20
114.0745610890974007
 30
0.0
 40
0.4831259938465333
 50
300.971922897172476
 51
335.4856025579583729
  0
ARC
  5
12743
  8
0
 10
203.1182164264043024
 20
114.2155711939032017
 30
0.0
 40
1.9483088137034319
 50
209.7393872046924059
 51
257.6046461117613262
  0
ARC
  5
12745
  8
0
 10
210.9805352431066012
 20
110.6895593093103969
 30
0.0
 40
2.231369308046439
 50
297.1858682366607241
 51
312.7605071865074251
  0
ARC
  5
12746
  8
0
 10
204.8566330231018924
 20
110.5005046796246972
 30
0.0
 40
1.9836638793197421
 50
228.0555257487604024
 51
244.415368233801189
  0
LINE
  5
12747
  8
0
 10
202.6999999999999886
 20
114.0000960200001998
 30
0.0
 11
202.6999999999999886
 21
110.0000960200001998
 31
0.0
  0
LINE
  5
12748
  8
0
 10
213.3000000000000114
 20
114.0000960200001998
 30
0.0
 11
213.3000000000000114
 21
110.0000960200002993
 31
0.0
  0
LINE
  5
12749
  8
0
 10
202.6999999999999886
 20
123.5058015399999931
 30
0.0
 11
202.7000000000001023
 21
118.7755890499762046
 31
0.0
  0
LINE
  5
1274A
  8
0
 10
213.3000000000000966
 20
118.7755890499762046
 30
0.0
 11
213.3000000000000114
 21
123.5058015400001068
 31
0.0
  0
LINE
  5
1274C
  8
0
 10
208.0000000059121987
 20
131.7538056894148895
 30
0.0
 11
208.0000000059121987
 21
113.1334957099370939
 31
0.0
  0
ARC
  5
1274D
  8
0
 10
211.6559450377611995
 20
124.7110654938308016
 30
0.0
 40
1.7552514832342041
 50
96.2747824915747969
 51
140.0987883781243113
  0
ARC
  5
1274E
  8
0
 10
211.2801718977572136
 20
124.7258326688718029
 30
0.0
 40
1.7397190680512651
 50
50.3047012803323312
 51
83.9311304164036471
  0
ARC
  5
1274F
  8
0
 10
204.7277418074069999
 20
124.7110654940367027
 30
0.0
 40
1.755251483017394
 50
96.274782488703778
 51
129.9012116199149887
  0
ARC
  5
12750
  8
0
 10
204.3519686674499098
 20
124.7258326688162953
 30
0.0
 40
1.7397190681131549
 50
39.6952987196983429
 51
83.9311304144882655
  0
ARC
  5
12751
  8
0
 10
205.9265365237056926
 20
127.6063727321846955
 30
0.0
 40
0.9324767758489279
 50
186.4707167158794903
 51
274.5186266170360909
  0
ARC
  5
12752
  8
0
 10
210.0731071047468959
 20
127.6068049972029996
 30
0.0
 40
0.9328797002075644
 50
265.5052863994324071
 51
353.5053703118827002
  0
LINE
  5
12754
  8
3
 10
111.9749011999016943
 20
126.4558015399432946
 30
0.0
 11
111.9749011999016943
 21
133.0058015400001068
 31
0.0
  0
LINE
  5
12755
  8
3
 10
107.840901199901694
 20
126.4558015399432946
 30
0.0
 11
107.840901199901694
 21
133.0058015400001068
 31
0.0
  0
LINE
  5
12756
  8
3
 10
60.067000000000192
 20
126.4558015399432946
 30
0.0
 11
60.067000000000192
 21
133.0058015400001068
 31
0.0
  0
LINE
  5
12757
  8
3
 10
55.9330000000001988
 20
126.4558015399432946
 30
0.0
 11
55.9330000000001988
 21
133.0058015400001068
 31
0.0
  0
LINE
  5
1275C
  8
1
 10
132.249999999999801
 20
199.9999999999998863
 30
0.0
 11
140.749999999999801
 21
199.9999999999998863
 31
0.0
  0
LINE
  5
1275D
  8
1
 10
145.749999999999801
 20
200.0
 30
0.0
 11
154.249999999999801
 21
200.0
 31
0.0
  0
LINE
  5
1275E
  8
1
 10
149.999999999999801
 20
195.7499999999998863
 30
0.0
 11
149.999999999999801
 21
204.25
 31
0.0
  0
LINE
  5
1275F
  8
1
 10
136.4999999999996874
 20
204.2499999999998863
 30
0.0
 11
136.4999999999996874
 21
195.7499999999998863
 31
0.0
  0
LINE
  5
12760
  8
1
 10
109.9079011999019997
 20
182.8079579447052936
 30
0.0
 11
109.9079011999017013
 21
201.1920420552947064
 31
0.0
  0
LINE
  5
12761
  8
1
 10
145.7499999999998863
 20
184.0
 30
0.0
 11
154.2499999999998863
 21
184.0000000000001137
 31
0.0
  0
LINE
  5
12762
  8
1
 10
149.9999999999998863
 20
188.25
 30
0.0
 11
150.0
 21
179.75
 31
0.0
  0
LINE
  5
12763
  8
1
 10
136.4999999999998863
 20
179.7499999999998863
 30
0.0
 11
136.499999999999801
 21
188.2499999999998863
 31
0.0
  0
LINE
  5
12764
  8
1
 10
132.249999999999801
 20
184.0000000000003126
 30
0.0
 11
140.749999999999801
 21
184.0000000000003126
 31
0.0
  0
LINE
  5
12765
  8
1
 10
132.2499999999984936
 20
65.9999999999996874
 30
0.0
 11
140.7499999999984936
 21
65.9999999999996874
 31
0.0
  0
LINE
  5
12766
  8
1
 10
145.7499999999984936
 20
65.999999999999801
 30
0.0
 11
154.2499999999986073
 21
65.999999999999801
 31
0.0
  0
LINE
  5
12767
  8
1
 10
149.9999999999984936
 20
61.7499999999997726
 30
0.0
 11
149.9999999999984936
 21
70.2499999999998295
 31
0.0
  0
LINE
  5
12768
  8
1
 10
136.4999999999984936
 20
70.2499999999997442
 30
0.0
 11
136.4999999999984936
 21
61.7499999999997371
 31
0.0
  0
LINE
  5
12769
  8
1
 10
109.907901199900806
 20
48.8079579447050875
 30
0.0
 11
109.9079011999004933
 21
67.1920420552944506
 31
0.0
  0
LINE
  5
1276A
  8
1
 10
145.7499999999986073
 20
49.9999999999997726
 30
0.0
 11
154.2499999999986926
 21
49.9999999999998934
 31
0.0
  0
LINE
  5
1276B
  8
1
 10
149.9999999999986073
 20
54.2499999999998579
 30
0.0
 11
149.9999999999986926
 21
45.749999999999801
 31
0.0
  0
LINE
  5
1276C
  8
1
 10
136.4999999999986926
 20
45.7499999999996874
 30
0.0
 11
136.4999999999986073
 21
54.2499999999996803
 31
0.0
  0
LINE
  5
1276D
  8
1
 10
132.2499999999984936
 20
50.0000000000001421
 30
0.0
 11
140.7499999999984936
 21
50.0000000000001421
 31
0.0
  0
ARC
  5
12CE1
  8
2
 10
104.6529438616406935
 20
191.75
 30
0.0
 40
2.500000000000028
 50
214.6602260111394003
 51
270.0
  0
LINE
  5
12CE2
  8
2
 10
115.1628585381627943
 20
189.25
 30
0.0
 11
104.6529438616406935
 21
189.25
 31
0.0
  0
LINE
  5
12CE3
  8
2
 10
117.3893146679033066
 20
191.4723139941166892
 30
0.0
 11
115.1699296059747013
 21
189.2529289321880981
 31
0.0
  0
LINE
  5
12CE4
  8
2
 10
117.3893146679033066
 20
192.5276860058831971
 30
0.0
 11
115.1699296059746018
 21
194.7470710678119019
 31
0.0
  0
LINE
  5
12CE5
  8
2
 10
115.1628585381627943
 20
194.75
 30
0.0
 11
104.6529438616406935
 21
194.75
 31
0.0
  0
ARC
  5
12CE6
  8
2
 10
104.6529438616406935
 20
192.25
 30
0.0
 40
2.5000000000000182
 50
90.0
 51
145.3397739888521869
  0
LINE
  5
12CF8
  8
2
 10
115.1630331644634992
 20
196.7499999999996874
 30
0.0
 11
104.6531184879448944
 21
196.7499999999996021
 31
0.0
  0
LINE
  5
12CF9
  8
2
 10
115.1630331644668956
 20
187.2499999999996021
 30
0.0
 11
104.6531184879448944
 21
187.2499999999996021
 31
0.0
  0
POLYLINE
  5
14552
  8
0
 66
     1
 10
0.0
 20
0.0
 30
0.0
  0
VERTEX
  5
14778
  8
0
 10
118.427770150394494
 20
60.3176576481384714
 30
0.0
  0
VERTEX
  5
14779
  8
0
 10
118.448136724341694
 20
60.5204262392418002
 30
0.0
  0
VERTEX
  5
1477A
  8
0
 10
118.4813501566384986
 20
60.722019909041741
 30
0.0
  0
VERTEX
  5
1477B
  8
0
 10
118.5264456299825042
 20
60.9216625176305371
 30
0.0
  0
VERTEX
  5
1477C
  8
0
 10
118.5851615161155053
 20
61.1184559158332092
 30
0.0
  0
VERTEX
  5
1477D
  8
0
 10
118.6590393257827003
 20
61.3112227095407292
 30
0.0
  0
VERTEX
  5
1477E
  8
0
 10
118.7513453491472006
 20
61.4975039604610672
 30
0.0
  0
VERTEX
  5
1477F
  8
0
 10
118.8666422783864931
 20
61.6732450450033909
 30
0.0
  0
VERTEX
  5
14780
  8
0
 10
119.0114638290389024
 20
61.8306668700976587
 30
0.0
  0
VERTEX
  5
14781
  8
0
 10
119.1950931379210061
 20
61.9510636610211805
 30
0.0
  0
VERTEX
  5
14782
  8
0
 10
119.414383133207906
 20
61.9999999780079918
 30
0.0
  0
SEQEND
  5
14783
  8
0
  0
POLYLINE
  5
14553
  8
0
 66
     1
 10
0.0
 20
0.0
 30
0.0
  0
VERTEX
  5
14784
  8
0
 10
119.4143831385380992
 20
53.9999999780079918
 30
0.0
  0
VERTEX
  5
14785
  8
0
 10
119.2428461864037956
 20
54.0296568808888509
 30
0.0
  0
VERTEX
  5
14786
  8
0
 10
119.0905856705127945
 20
54.1079082136631868
 30
0.0
  0
VERTEX
  5
14787
  8
0
 10
118.9625036929981974
 20
54.2155649491978693
 30
0.0
  0
VERTEX
  5
14788
  8
0
 10
118.8561243886257017
 20
54.3407279858112631
 30
0.0
  0
VERTEX
  5
14789
  8
0
 10
118.7668120372798057
 20
54.4757439626285702
 30
0.0
  0
VERTEX
  5
1478A
  8
0
 10
118.6915404040158961
 20
54.6175061585987009
 30
0.0
  0
VERTEX
  5
1478B
  8
0
 10
118.6280758695206003
 20
54.7638491954994677
 30
0.0
  0
VERTEX
  5
1478C
  8
0
 10
118.5746455160409027
 20
54.9133427939492123
 30
0.0
  0
VERTEX
  5
1478D
  8
0
 10
118.5299841989721017
 20
55.0650798646517785
 30
0.0
  0
VERTEX
  5
1478E
  8
0
 10
118.4935734049952032
 20
55.2185158171881767
 30
0.0
  0
VERTEX
  5
1478F
  8
0
 10
118.4631949104761048
 20
55.373269972013432
 30
0.0
  0
VERTEX
  5
14790
  8
0
 10
118.4411192330102978
 20
55.5290807296322697
 30
0.0
  0
VERTEX
  5
14791
  8
0
 10
118.4310995870915946
 20
55.6856717885587784
 30
0.0
  0
SEQEND
  5
14792
  8
0
  0
LINE
  5
14564
  8
0
 10
112.4079011999017013
 20
132.8058018797466104
 30
0.0
 11
112.2079015396482049
 21
133.0058015400001068
 31
0.0
  0
LINE
  5
14565
  8
0
 10
107.6079008601551976
 20
133.0058015400001068
 30
0.0
 11
107.4079011999017013
 21
132.8058018797466104
 31
0.0
  0
LINE
  5
14566
  8
0
 10
112.2079015396482049
 20
133.0058015400001068
 30
0.0
 11
107.6079008601551976
 21
133.0058015400001068
 31
0.0
  0
LINE
  5
14567
  8
0
 10
112.4079011999017013
 20
132.8058018797466104
 30
0.0
 11
107.4079011999017013
 21
132.8058018797466104
 31
0.0
  0
LINE
  5
14581
  8
0
 10
60.5000000000000426
 20
132.8058018797466104
 30
0.0
 11
60.3000003397465107
 21
133.0058015400001068
 31
0.0
  0
LINE
  5
14582
  8
0
 10
55.6999996602535319
 20
133.0058015400001068
 30
0.0
 11
55.5
 21
132.8058018797466104
 31
0.0
  0
LINE
  5
14583
  8
0
 10
60.3000003397464965
 20
133.0058015400001068
 30
0.0
 11
55.699999660253539
 21
133.0058015400001068
 31
0.0
  0
LINE
  5
14584
  8
0
 10
60.5000000000000426
 20
132.8058018797466104
 30
0.0
 11
55.5000000000000284
 21
132.8058018797466104
 31
0.0
  0
POLYLINE
  5
14597
  8
0
 66
     1
 10
0.0
 20
0.0
 30
0.0
  0
VERTEX
  5
14793
  8
0
 10
205.0000000117175034
 20
131.9777216938992126
 30
0.0
  0
VERTEX
  5
14794
  8
0
 10
205.0496525850323053
 20
132.2293256409157891
 30
0.0
  0
VERTEX
  5
14795
  8
0
 10
205.1907387437350963
 20
132.4563414485745909
 30
0.0
  0
VERTEX
  5
14796
  8
0
 10
205.4126457122144132
 20
132.6361676193864128
 30
0.0
  0
VERTEX
  5
14797
  8
0
 10
205.6914677712780133
 20
132.7528517685294105
 30
0.0
  0
VERTEX
  5
14798
  8
0
 10
206.0000000113300018
 20
132.7916759665465918
 30
0.0
  0
SEQEND
  5
14799
  8
0
  0
POLYLINE
  5
14598
  8
0
 66
     1
 10
0.0
 20
0.0
 30
0.0
  0
VERTEX
  5
1479A
  8
0
 10
210.0000000113300018
 20
132.7916759665486097
 30
0.0
  0
VERTEX
  5
1479B
  8
0
 10
210.3091329853922105
 20
132.7512572365016865
 30
0.0
  0
VERTEX
  5
1479C
  8
0
 10
210.5880450900056928
 20
132.6364063463844047
 30
0.0
  0
VERTEX
  5
1479D
  8
0
 10
210.8089671097386884
 20
132.4557795542814915
 30
0.0
  0
VERTEX
  5
1479E
  8
0
 10
210.9523078334331956
 20
132.2288371152664013
 30
0.0
  0
VERTEX
  5
1479F
  8
0
 10
211.0000000117175034
 20
131.9777216939021969
 30
0.0
  0
SEQEND
  5
147A0
  8
0
  0
LINE
  5
145A1
  8
0
 10
128.7550940989748938
 20
186.7000000000001023
 30
0.0
 11
128.4120785725484097
 21
186.7000000000001023
 31
0.0
  0
LINE
  5
145A2
  8
0
 10
128.7550940989748938
 20
197.3000000000000114
 30
0.0
 11
128.4120785747747959
 21
197.3000000000000114
 31
0.0
  0
POLYLINE
  5
145A3
  8
0
 66
     1
 10
0.0
 20
0.0
 30
0.0
  0
VERTEX
  5
147A1
  8
0
 10
135.4181855239174013
 20
194.0000000113298881
 30
0.0
  0
VERTEX
  5
147A2
  8
0
 10
135.3893322008983091
 20
194.3091329853922105
 30
0.0
  0
VERTEX
  5
147A3
  8
0
 10
135.3073447202457089
 20
194.5880450900056928
 30
0.0
  0
VERTEX
  5
147A4
  8
0
 10
135.1784024401781039
 20
194.8089671097386884
 30
0.0
  0
VERTEX
  5
147A5
  8
0
 10
135.0163972625065014
 20
194.9523078334331956
 30
0.0
  0
VERTEX
  5
147A6
  8
0
 10
134.8371359544520942
 20
195.0000000117175034
 30
0.0
  0
SEQEND
  5
147A7
  8
0
  0
POLYLINE
  5
145A4
  8
0
 66
     1
 10
0.0
 20
0.0
 30
0.0
  0
VERTEX
  5
147A8
  8
0
 10
134.8371359504544102
 20
189.0000000117175034
 30
0.0
  0
VERTEX
  5
147A9
  8
0
 10
135.0167459975997986
 20
189.0496525850323053
 30
0.0
  0
VERTEX
  5
147AA
  8
0
 10
135.1788035504164043
 20
189.1907387437352099
 30
0.0
  0
VERTEX
  5
147AB
  8
0
 10
135.3071742990937878
 20
189.4126457122144132
 30
0.0
  0
VERTEX
  5
147AC
  8
0
 10
135.390470470795691
 20
189.6914677712780986
 30
0.0
  0
VERTEX
  5
147AD
  8
0
 10
135.4181855212522976
 20
190.0000000113298881
 30
0.0
  0
SEQEND
  5
147AE
  8
0
  0
ARC
  5
145A5
  8
0
 10
135.7467361658057996
 20
196.800000022296814
 30
0.0
 40
0.5
 50
89.9999999367085337
 51
179.999999936708889
  0
ARC
  5
145A6
  8
0
 10
139.7467361658057996
 20
196.8000000178782898
 30
0.0
 40
0.5
 50
359.9999999367120722
 51
89.9999999367101537
  0
LINE
  5
145A7
  8
0
 10
140.2467361658057996
 20
196.8000000173259991
 30
0.0
 11
140.2467361649221118
 21
196.0000000173261014
 31
0.0
  0
LINE
  5
145A8
  8
0
 10
135.2467361649221118
 20
196.000000022849207
 30
0.0
 11
135.2467361658057996
 21
196.8000000228491047
 31
0.0
  0
ARC
  5
145A9
  8
0
 10
150.4317341642787937
 20
196.8000000060754076
 30
0.0
 40
0.5000000000000285
 50
89.9999999367085337
 51
179.999999936708889
  0
ARC
  5
145AA
  8
0
 10
154.4317341642787085
 20
196.8000000016569118
 30
0.0
 40
0.5
 50
359.999999936708889
 51
89.9999999367085337
  0
LINE
  5
145AB
  8
0
 10
154.9317341642787085
 20
196.8000000011045927
 30
0.0
 11
154.9317341633949923
 21
196.0000000011046097
 31
0.0
  0
LINE
  5
145AC
  8
0
 10
149.9317341633949923
 20
196.0000000066278005
 30
0.0
 11
149.9317341642787085
 21
196.8000000066276982
 31
0.0
  0
ARC
  5
145AD
  8
0
 10
142.7317945242785129
 20
196.800000014581002
 30
0.0
 40
0.5000000000000142
 50
89.9999999367101537
 51
179.999999936708889
  0
ARC
  5
145AE
  8
0
 10
146.7317945242785129
 20
196.8000000101625062
 30
0.0
 40
0.5000000000000142
 50
359.9999999367120722
 51
89.9999999367085337
  0
LINE
  5
145AF
  8
0
 10
147.2317945242785129
 20
196.8000000096101871
 30
0.0
 11
147.2317945233947967
 21
196.0000000096102042
 31
0.0
  0
LINE
  5
145B0
  8
0
 10
142.2317945233947967
 20
196.000000015133395
 30
0.0
 11
142.2317945242785129
 21
196.8000000151334064
 31
0.0
  0
LINE
  5
145B1
  8
0
 10
154.4317341648309991
 20
197.3000000016569118
 30
0.0
 11
150.4317341648311128
 21
197.3000000060754928
 31
0.0
  0
LINE
  5
145B2
  8
0
 10
146.7317945248308035
 20
197.3000000101625062
 30
0.0
 11
142.7317945248308888
 21
197.300000014581002
 31
0.0
  0
LINE
  5
145B3
  8
0
 10
139.7467361663580903
 20
197.3000000178782898
 30
0.0
 11
135.7467361663580903
 21
197.300000022296814
 31
0.0
  0
LINE
  5
146D9
  8
0
 10
139.6311492086861108
 20
116.6999999999860052
 30
0.0
 11
134.9974915836864966
 21
116.6999999999860052
 31
0.0
  0
ARC
  5
146DA
  8
0
 10
139.1839219260396021
 20
120.595211474281399
 30
0.0
 40
3.9208015343582039
 50
276.5497141576964282
 51
307.9003847364932085
  0
LINE
  5
146FE
  8
2
 10
115.1630331644669951
 20
187.2499999999996874
 30
0.0
 11
115.7936296715197955
 21
187.3515378501728037
 31
0.0
  0
LINE
  5
146FF
  8
2
 10
115.1630331644668956
 20
196.7499999999990905
 30
0.0
 11
115.7936296715191986
 21
196.6484621498277079
 31
0.0
  0
LINE
  5
14710
  8
2
 10
104.6531184879448944
 20
187.2499999999996021
 30
0.0
 11
104.0733325645322935
 21
187.2874838101959085
 31
0.0
  0
LINE
  5
14711
  8
2
 10
104.6531184879448944
 20
196.7499999999996021
 30
0.0
 11
104.0733325645328051
 21
196.7125161898044041
 31
0.0
  0
ENDSEC
  0
EOF
