  0
SECTION
  2
HEADER
  9
$ACADVER
  1
AC1009
  9
$INSBASE
 10
0.0
 20
0.0
 30
0.0
  9
$EXTMIN
 10
0.0
 20
-2.960436562073669
 30
0.0
  9
$EXTMAX
 10
331.5257690035143128
 20
246.2816685396587957
 30
0.0
  9
$LIMMIN
 10
0.0
 20
0.0
  9
$LIMMAX
 10
420.0
 20
297.0
  9
$ORTHOMODE
 70
     1
  9
$REGENMODE
 70
     1
  9
$FILLMODE
 70
     1
  9
$QTEXTMODE
 70
     0
  9
$MIRRTEXT
 70
     0
  9
$DRAGMODE
 70
     2
  9
$LTSCALE
 40
10.0
  9
$OSMODE
 70
    37
  9
$ATTMODE
 70
     1
  9
$TEXTSIZE
 40
2.5
  9
$TRACEWID
 40
1.0
  9
$TEXTSTYLE
  7
STANDARD
  9
$CLAYER
  8
0
  9
$CELTYPE
  6
BYLAYER
  9
$CECOLOR
 62
   256
  9
$DIMSCALE
 40
1.0
  9
$DIMASZ
 40
2.5
  9
$DIMEXO
 40
0.625
  9
$DIMDLI
 40
3.75
  9
$DIMRND
 40
0.0
  9
$DIMDLE
 40
0.0
  9
$DIMEXE
 40
1.25
  9
$DIMTP
 40
0.0
  9
$DIMTM
 40
0.0
  9
$DIMTXT
 40
2.5
  9
$DIMCEN
 40
2.5
  9
$DIMTSZ
 40
0.0
  9
$DIMTOL
 70
     0
  9
$DIMLIM
 70
     0
  9
$DIMTIH
 70
     0
  9
$DIMTOH
 70
     0
  9
$DIMSE1
 70
     0
  9
$DIMSE2
 70
     0
  9
$DIMTAD
 70
     1
  9
$DIMZIN
 70
     8
  9
$DIMBLK
  1

  9
$DIMASO
 70
     1
  9
$DIMSHO
 70
     1
  9
$DIMPOST
  1

  9
$DIMAPOST
  1

  9
$DIMALT
 70
     0
  9
$DIMALTD
 70
     3
  9
$DIMALTF
 40
0.03937007874016
  9
$DIMLFAC
 40
1.0
  9
$DIMTOFL
 70
     1
  9
$DIMTVP
 40
0.0
  9
$DIMTIX
 70
     0
  9
$DIMSOXD
 70
     0
  9
$DIMSAH
 70
     0
  9
$DIMBLK1
  1

  9
$DIMBLK2
  1

  9
$DIMSTYLE
  2
ISO-25
  9
$DIMCLRD
 70
     0
  9
$DIMCLRE
 70
     0
  9
$DIMCLRT
 70
     0
  9
$DIMTFAC
 40
1.0
  9
$DIMGAP
 40
0.625
  9
$LUNITS
 70
     2
  9
$LUPREC
 70
     1
  9
$SKETCHINC
 40
1.0
  9
$FILLETRAD
 40
0.0
  9
$AUNITS
 70
     0
  9
$AUPREC
 70
     1
  9
$MENU
  1
.
  9
$ELEVATION
 40
0.0
  9
$PELEVATION
 40
0.0
  9
$THICKNESS
 40
0.0
  9
$LIMCHECK
 70
     0
  9
$BLIPMODE
 70
     0
  9
$CHAMFERA
 40
0.0
  9
$CHAMFERB
 40
0.0
  9
$SKPOLY
 70
     0
  9
$TDCREATE
 40
2454083.4444560189731419
  9
$TDUPDATE
 40
2460571.6585532408207655
  9
$TDINDWG
 40
2.5139247801
  9
$TDUSRTIMER
 40
2.5139247801
  9
$USRTIMER
 70
     1
  9
$ANGBASE
 50
0.0
  9
$ANGDIR
 70
     0
  9
$PDMODE
 70
     0
  9
$PDSIZE
 40
0.0
  9
$PLINEWID
 40
0.0
  9
$COORDS
 70
     1
  9
$SPLFRAME
 70
     0
  9
$SPLINETYPE
 70
     6
  9
$SPLINESEGS
 70
     8
  9
$ATTDIA
 70
     1
  9
$ATTREQ
 70
     1
  9
$HANDLING
 70
     1
  9
$HANDSEED
  5
14929
  9
$SURFTAB1
 70
     6
  9
$SURFTAB2
 70
     6
  9
$SURFTYPE
 70
     6
  9
$SURFU
 70
     6
  9
$SURFV
 70
     6
  9
$UCSNAME
  2

  9
$UCSORG
 10
0.0
 20
0.0
 30
0.0
  9
$UCSXDIR
 10
1.0
 20
0.0
 30
0.0
  9
$UCSYDIR
 10
0.0
 20
1.0
 30
0.0
  9
$PUCSNAME
  2

  9
$PUCSORG
 10
0.0
 20
0.0
 30
0.0
  9
$PUCSXDIR
 10
1.0
 20
0.0
 30
0.0
  9
$PUCSYDIR
 10
0.0
 20
1.0
 30
0.0
  9
$USERI1
 70
     0
  9
$USERI2
 70
     0
  9
$USERI3
 70
     0
  9
$USERI4
 70
     0
  9
$USERI5
 70
     0
  9
$USERR1
 40
0.0
  9
$USERR2
 40
0.0
  9
$USERR3
 40
0.0
  9
$USERR4
 40
0.0
  9
$USERR5
 40
0.0
  9
$WORLDVIEW
 70
     1
  9
$SHADEDGE
 70
     3
  9
$SHADEDIF
 70
    70
  9
$TILEMODE
 70
     1
  9
$MAXACTVP
 70
    64
  9
$PLIMCHECK
 70
     0
  9
$PEXTMIN
 10
0.0
 20
0.0
 30
0.0
  9
$PEXTMAX
 10
0.0
 20
0.0
 30
0.0
  9
$PLIMMIN
 10
0.0
 20
0.0
  9
$PLIMMAX
 10
12.0
 20
9.0
  9
$UNITMODE
 70
     0
  9
$VISRETAIN
 70
     1
  9
$PLINEGEN
 70
     0
  9
$PSLTSCALE
 70
     1
  0
ENDSEC
  0
SECTION
  2
TABLES
  0
TABLE
  2
VPORT
 70
     1
  0
VPORT
  2
*ACTIVE
 70
     0
 10
0.0
 20
0.0
 11
1.0
 21
1.0
 12
469.7044334975369111
 22
200.0
 13
0.0
 23
0.0
 14
10.0
 24
10.0
 15
10.0
 25
10.0
 16
0.0
 26
0.0
 36
1.0
 17
0.0
 27
0.0
 37
0.0
 40
400.0
 41
2.3485221674876842
 42
50.0
 43
0.0
 44
0.0
 50
0.0
 51
0.0
 71
     0
 72
  1000
 73
     1
 74
     3
 75
     0
 76
     0
 77
     0
 78
     0
  0
ENDTAB
  0
TABLE
  2
LTYPE
 70
     3
  0
LTYPE
  2
CONTINUOUS
 70
     0
  3
Solid line
 72
    65
 73
     0
 40
0.0
  0
LTYPE
  2
CENTER
 70
     0
  3
____ _ ____ _ ____ _ ____ _ ____ _ ____ _ ____
 72
    65
 73
     4
 40
2.0
 49
1.25
 49
-0.25
 49
0.25
 49
-0.25
  0
LTYPE
  2
HIDDEN
 70
     0
  3
Hidden __ __ __ __ __ __ __ __ __ __ __ __ __ __
 72
    65
 73
     2
 40
1.905
 49
1.27
 49
-0.635
  0
ENDTAB
  0
TABLE
  2
LAYER
 70
     5
  0
LAYER
  2
0
 70
     0
 62
     7
  6
CONTINUOUS
  0
LAYER
  2
DEFPOINTS
 70
     0
 62
     7
  6
CONTINUOUS
  0
LAYER
  2
1
 70
     0
 62
     1
  6
CENTER
  0
LAYER
  2
3
 70
     0
 62
     3
  6
CONTINUOUS
  0
LAYER
  2
2
 70
     0
 62
     2
  6
HIDDEN
  0
ENDTAB
  0
TABLE
  2
STYLE
 70
     2
  0
STYLE
  2
STANDARD
 70
     0
 40
0.0
 41
1.0
 50
0.0
 71
     0
 42
2.5
  3
txt
  4

  0
STYLE
  2
STANDARD1
 70
     0
 40
0.0
 41
1.0
 50
0.0
 71
     0
 42
3.0
  3
txt
  4

  0
ENDTAB
  0
TABLE
  2
VIEW
 70
     3
  0
VIEW
  2
OLE1
 70
     0
 40
17.336203194614189
 10
1078.2627039085309661
 20
377.6744486595430885
 41
31.0749116297020009
 11
0.0
 21
0.0
 31
1.0
 12
0.0
 22
0.0
 32
0.0
 42
50.0
 43
0.0
 44
0.0
 50
0.0
 71
     0
  0
VIEW
  2
OLE2
 70
     0
 40
50.523198253338478
 10
1031.7677389415230209
 20
579.9283567158205415
 41
90.5621550086675455
 11
0.0
 21
0.0
 31
1.0
 12
0.0
 22
0.0
 32
0.0
 42
50.0
 43
0.0
 44
0.0
 50
0.0
 71
     0
  0
VIEW
  2
OLE3
 70
     0
 40
95.502301876216066
 10
202.0430959360805048
 20
425.5599226159864088
 41
146.7053432435849061
 11
0.0
 21
0.0
 31
1.0
 12
0.0
 22
0.0
 32
0.0
 42
50.0
 43
0.0
 44
0.0
 50
0.0
 71
     0
  0
ENDTAB
  0
TABLE
  2
UCS
 70
     0
  0
ENDTAB
  0
TABLE
  2
APPID
 70
    45
  0
APPID
  2
ACAD
 70
     0
  0
APPID
  2
_FTCNV
 70
     0
  0
APPID
  2
DCO15
 70
     0
  0
APPID
  2
GENIUS_GENOREF_13
 70
     0
  0
APPID
  2
GENIUS_GENOENT_13
 70
     0
  0
APPID
  2
GENIUS_GENBH_13
 70
     0
  0
APPID
  2
GENIUS_GENOBJ_13
 70
     0
  0
APPID
  2
GENIUS_GENODEF_13
 70
     0
  0
APPID
  2
GENIUS_GENOLIS_13
 70
     0
  0
APPID
  2
GENIUS_GENOBJ-NBEHI-BHF_13
 70
     0
  0
APPID
  2
GENIUS_GENOBJ-NBEHI-BHB_13
 70
     0
  0
APPID
  2
GENIUS_GENOBJ-F-PART_13
 70
     0
  0
APPID
  2
GENIUS_GEFSTDP_13
 70
     0
  0
APPID
  2
GENIUS_GENOBJ-N-RSSYM_13
 70
     0
  0
APPID
  2
GENIUS_GENSYMENT_13
 70
     0
  0
APPID
  2
GENIUS_GENOBJ-N-TIT_13
 70
     0
  0
APPID
  2
GENIUS_GENTITLE_13
 70
     0
  0
APPID
  2
GENIUS_GENZVEED_13
 70
     0
  0
APPID
  2
GENIUS_GENOBJ-N-LEADER_13
 70
     0
  0
APPID
  2
GENIUS_GENOBJ-N-FIL_13
 70
     0
  0
APPID
  2
GENIUS_GENOBJ-N-SEC_13
 70
     0
  0
APPID
  2
GENIUS_GENOBJ-N-CRS_13
 70
     0
  0
APPID
  2
GENIUS_GENOBJ-N-ZOO_13
 70
     0
  0
APPID
  2
GENIUS_GENZOO_13
 70
     0
  0
APPID
  2
GENIUS_GENOBJ-F-TOL_13
 70
     0
  0
APPID
  2
GENIUS_GENFIL_13
 70
     0
  0
APPID
  2
GENIUS_GENOBJ-N-CHA_13
 70
     0
  0
APPID
  2
_CALL_MAC$
 70
     0
  0
APPID
  2
ASM_BASE
 70
     0
  0
APPID
  2
ASM_EXPLO_VER_2_00
 70
     0
  0
APPID
  2
ASM_CADM_VER_12_00
 70
     0
  0
APPID
  2
ASM_BASEFORO
 70
     0
  0
APPID
  2
ASM_BASETRAVI
 70
     0
  0
APPID
  2
ASM_BASETRAVI1
 70
     0
  0
APPID
  2
ASM_GRUPPI
 70
     0
  0
APPID
  2
ASM_CADM_ALBERO
 70
     0
  0
APPID
  2
ASM_GOLE
 70
     0
  0
APPID
  2
ACAD_MLEADERVER
 70
     0
  0
APPID
  2
ACAD_EXEMPT_FROM_CAD_STANDARDS
 70
     0
  0
APPID
  2
ACAD_DSTYLE_DIMJAG
 70
     0
  0
APPID
  2
ACAD_DSTYLE_DIMTALN
 70
     0
  0
APPID
  2
ACAD_NAV_VCDISPLAY
 70
     0
  0
APPID
  2
ACAECLAYERSTANDARD
 70
     0
  0
APPID
  2
ACCMTRANSPARENCY
 70
     0
  0
APPID
  2
ACAD_TC
 70
     0
  0
ENDTAB
  0
TABLE
  2
DIMSTYLE
 70
     2
  0
DIMSTYLE
  2
ISO-25
 70
     0
  3

  4

  5

  6

  7

 40
1.0
 41
2.5
 42
0.625
 43
3.75
 44
1.25
 45
0.0
 46
0.0
 47
0.0
 48
0.0
140
2.5
141
2.5
142
0.0
143
0.03937007874016
144
1.0
145
0.0
146
1.0
147
0.625
 71
     0
 72
     0
 73
     0
 74
     0
 75
     0
 76
     0
 77
     1
 78
     8
170
     0
171
     3
172
     1
173
     0
174
     0
175
     0
176
     0
177
     0
178
     0
  0
DIMSTYLE
  2
STANDARD
 70
     0
  3

  4

  5

  6

  7

 40
1.0
 41
0.18
 42
0.0625
 43
0.38
 44
0.18
 45
0.0
 46
0.0
 47
0.0
 48
0.0
140
0.18
141
0.09
142
0.0
143
25.3999999999999986
144
1.0
145
0.0
146
1.0
147
0.09
 71
     0
 72
     0
 73
     1
 74
     1
 75
     0
 76
     0
 77
     0
 78
     0
170
     0
171
     2
172
     0
173
     0
174
     0
175
     0
176
     0
177
     0
178
     0
  0
ENDTAB
  0
ENDSEC
  0
SECTION
  2
BLOCKS
  0
BLOCK
  8
0
  2
$MODEL_SPACE
 70
     0
 10
0.0
 20
0.0
 30
0.0
  3
$MODEL_SPACE
  1

  0
ENDBLK
  5
21
  8
0
  0
BLOCK
 67
     1
  8
0
  2
$PAPER_SPACE
 70
     0
 10
0.0
 20
0.0
 30
0.0
  3
$PAPER_SPACE
  1

  0
ENDBLK
  5
53
 67
     1
  8
0
  0
ENDSEC
  0
SECTION
  2
ENTITIES
  0
TEXT
  5
C317
  8
0
 62
     3
 10
0.0
 20
0.0
 30
0.0
 40
10.0
  1
ST-H307U-S
  7
STANDARD1
  0
ARC
  5
1233C
  8
0
 10
202.630496555881308
 20
226.981668539659097
 30
0.0
 40
0.5
 50
0.0
 51
90.0
  0
ARC
  5
1233D
  8
0
 10
195.6304965558813933
 20
226.981668539659097
 30
0.0
 40
0.5000000000000285
 50
90.0
 51
180.0
  0
ARC
  5
1233E
  8
0
 10
195.6304965558811944
 20
212.5816685396590913
 30
0.0
 40
0.5000000000000285
 50
180.0
 51
269.9999999999976126
  0
ARC
  5
1233F
  8
0
 10
202.6304965558811091
 20
212.581668539659006
 30
0.0
 40
0.5000000000000285
 50
270.0000000000007958
 51
0.0
  0
LINE
  5
12344
  8
0
 10
186.627263361233986
 20
201.2857935232547106
 30
0.0
 11
186.6272633612342986
 21
238.277543555777811
 31
0.0
  0
ARC
  5
1234B
  8
0
 10
171.3134114732307864
 20
216.2766685387138921
 30
0.0
 40
1.0000000000000131
 50
179.9999999999984084
 51
226.4718183135188951
  0
ARC
  5
1234C
  8
0
 10
171.3134114732307864
 20
223.2866685387139114
 30
0.0
 40
0.9999999999999966
 50
133.5281816864811049
 51
180.0
  0
LINE
  5
1234D
  8
0
 10
170.3134114732309001
 20
223.2866685387139114
 30
0.0
 11
170.3134114732307864
 21
216.2766685387138921
 31
0.0
  0
LINE
  5
1234E
  8
0
 10
225.870215788513292
 20
216.7811245420672037
 30
0.0
 11
225.870215788513292
 21
222.7816685396589946
 31
0.0
  0
ARC
  5
1234F
  8
0
 10
223.370215788513292
 20
226.9811153256046055
 30
0.0
 40
0.5
 50
0.0
 51
90.0
  0
ARC
  5
12350
  8
0
 10
216.370215788513292
 20
226.9811153256046907
 30
0.0
 40
0.5
 50
90.0
 51
180.0
  0
ARC
  5
12351
  8
0
 10
216.3702157885132067
 20
212.5811153256047135
 30
0.0
 40
0.5
 50
180.0000000000040075
 51
270.0000000000007958
  0
ARC
  5
12352
  8
0
 10
223.370215788513292
 20
212.5811153256047135
 30
0.0
 40
0.5
 50
270.0000000000007958
 51
359.9999999999976126
  0
ARC
  5
12359
  8
0
 10
205.7645493485132135
 20
212.581115327495894
 30
0.0
 40
0.5
 50
180.0
 51
269.9999999999976126
  0
ARC
  5
1235A
  8
0
 10
212.7645493485132988
 20
212.5811153274958087
 30
0.0
 40
0.5
 50
270.0000000000007958
 51
0.0
  0
ARC
  5
1235B
  8
0
 10
212.7645493485132988
 20
226.981115327495786
 30
0.0
 40
0.5
 50
0.0
 51
90.0
  0
ARC
  5
1235C
  8
0
 10
205.7645493485134125
 20
226.981115327495786
 30
0.0
 40
0.5
 50
90.0
 51
180.0
  0
ARC
  5
1237D
  8
0
 10
153.5744943112773058
 20
219.7816685396597052
 30
0.0
 40
11.2499999999999591
 50
317.017116563674108
 51
42.9828834363266097
  0
ARC
  5
1237E
  8
0
 10
153.5744943112773058
 20
219.7816685396597052
 30
0.0
 40
11.25
 50
137.0171165636733974
 51
222.9828834363271142
  0
ARC
  5
1237F
  8
0
 10
153.5744943112773058
 20
229.8152501031709107
 30
0.0
 40
20.9637171308201005
 50
253.2435031569524142
 51
286.7564968430486942
  0
ARC
  5
12380
  8
0
 10
153.5744943112773058
 20
209.748086976149807
 30
0.0
 40
20.9637171308188002
 50
73.2435031569508084
 51
106.7564968430496037
  0
CIRCLE
  5
12381
  8
0
 10
153.5744943112771921
 20
219.7816685396591083
 30
0.0
 40
4.0000000000000284
  0
LINE
  5
12386
  8
0
 10
186.6272633612340996
 20
225.7816685396591083
 30
0.0
 11
225.870215788513292
 21
225.7816685396589094
 31
0.0
  0
LINE
  5
12387
  8
0
 10
225.870215788513292
 20
213.7816685396589094
 30
0.0
 11
186.6272633612340996
 21
213.7816685396591083
 31
0.0
  0
LINE
  5
1238E
  8
0
 10
137.2702157885132976
 20
219.331668539659006
 30
0.0
 11
137.2702157885132976
 21
220.2316685396590117
 31
0.0
  0
ARC
  5
1238F
  8
0
 10
144.070215788513309
 20
220.2316685396590117
 30
0.0
 40
6.7999999999999972
 50
90.0
 51
180.0000000000011937
  0
LINE
  5
12390
  8
0
 10
144.070215788513309
 20
227.0316685396587957
 30
0.0
 11
144.9721690442339934
 21
227.0316685396587957
 31
0.0
  0
ARC
  5
12393
  8
0
 10
144.070215788513309
 20
219.331668539659006
 30
0.0
 40
3.7999999999999972
 50
180.0
 51
255.3406345557216923
  0
LINE
  5
12394
  8
2
 10
144.0702157885133943
 20
215.5316685396589946
 30
0.0
 11
163.9908276392768016
 21
215.5316685396589094
 31
0.0
  0
LINE
  5
12395
  8
0
 10
163.9908276392768016
 20
215.5316685396587957
 30
0.0
 11
164.0874239236877941
 21
215.5316685396587957
 31
0.0
  0
LINE
  5
12398
  8
0
 10
164.0874239236877941
 20
224.0316685396589094
 30
0.0
 11
163.9908276392775122
 21
224.0316685396589094
 31
0.0
  0
LINE
  5
12399
  8
2
 10
163.9908276392773985
 20
224.0316685396591083
 30
0.0
 11
144.0702157885133943
 21
224.0316685396591083
 31
0.0
  0
LINE
  5
1239A
  8
0
 10
140.2702157885132976
 20
220.2316685396590117
 30
0.0
 11
140.2702157885132976
 21
219.331668539659006
 31
0.0
  0
ARC
  5
1239D
  8
0
 10
144.070215788513309
 20
219.331668539659006
 30
0.0
 40
6.7999999999999972
 50
180.0
 51
270.0000000000007958
  0
LINE
  5
1239F
  8
0
 10
144.9721690442353861
 20
212.5316685396587957
 30
0.0
 11
144.070215788513309
 21
212.5316685396587957
 31
0.0
  0
ARC
  5
123A0
  8
0
 10
144.070215788513309
 20
220.2316685396590117
 30
0.0
 40
3.8000000000000109
 50
104.6593654442813062
 51
180.0000000000015916
  0
LINE
  5
123A2
  8
0
 10
170.6247001958458895
 20
238.2775435555554111
 30
0.0
 11
170.6247001958456906
 21
201.2857935237497031
 31
0.0
  0
ARC
  5
123A6
  8
0
 10
178.6259817785397104
 20
201.2829506274007088
 30
0.0
 40
8.0012820877418651
 50
179.9796425182094026
 51
0.0203574817903278
  0
ARC
  5
123A8
  8
0
 10
178.6259817785399946
 20
238.280386451916911
 30
0.0
 40
8.0012820877419522
 50
359.9796425182101984
 51
180.0203574817896879
  0
LINE
  5
123C1
  8
0
 10
196.2865620279160055
 20
216.2766685387136931
 30
0.0
 11
196.2865620279160055
 21
223.2866685387137125
 31
0.0
  0
LINE
  5
123C2
  8
0
 10
202.339125755500902
 20
216.7815572423824904
 30
0.0
 11
202.3391257555007883
 21
222.7816685396593073
 31
0.0
  0
LINE
  5
123C3
  8
0
 10
226.3713222175678084
 20
222.7811153256045884
 30
0.0
 11
196.2865620279160055
 21
222.7816685396593073
 31
0.0
  0
LINE
  5
123C4
  8
0
 10
196.2865620279158918
 20
216.7816685396589946
 30
0.0
 11
226.3713222175676947
 21
216.7811153274957121
 31
0.0
  0
LINE
  5
123C5
  8
0
 10
220.1419859601649023
 20
222.7816685396591083
 30
0.0
 11
220.1419859601649023
 21
216.7812298753453888
 31
0.0
  0
ARC
  5
123DA
  8
0
 10
226.3713222175678084
 20
222.5316685387134044
 30
0.0
 40
3.25
 50
0.0000000000004071
 51
90.0
  0
LINE
  5
123DB
  8
0
 10
229.6213222175678084
 20
222.5316685387134044
 30
0.0
 11
229.6213222175678084
 21
217.0316685406046133
 31
0.0
  0
ARC
  5
123DC
  8
0
 10
226.3713222175676947
 20
217.0316685406046133
 30
0.0
 40
3.25
 50
270.0000000000003979
 51
0.0
  0
ARC
  5
123DD
  8
0
 10
226.3713222175676947
 20
217.0311153274957121
 30
0.0
 40
0.25
 50
270.0000000000007958
 51
0.0
  0
LINE
  5
123DE
  8
0
 10
226.6213222175676947
 20
217.0311153274957121
 30
0.0
 11
226.6213222175676947
 21
222.5311153256045884
 31
0.0
  0
ARC
  5
123DF
  8
0
 10
226.3713222175678084
 20
222.5311153256045884
 30
0.0
 40
0.25
 50
0.0
 51
90.0
  0
LINE
  5
123E0
  8
0
 10
226.3713222175678084
 20
225.7816685387134896
 30
0.0
 11
225.870215788513292
 21
225.7816685387134896
 31
0.0
  0
LINE
  5
123E2
  8
0
 10
226.3713222175676947
 20
213.7816685406046133
 30
0.0
 11
225.870215788513292
 21
213.7816685406046133
 31
0.0
  0
CIRCLE
  5
123E8
  8
0
 10
192.570215788513309
 20
205.0822217527679072
 30
0.0
 40
3.5
  0
CIRCLE
  5
123E9
  8
0
 10
215.5702157885131953
 20
205.0822217527679072
 30
0.0
 40
3.5
  0
ARC
  5
123EA
  8
0
 10
185.2702157885132976
 20
199.4816685406048009
 30
0.0
 40
3.0000000000000209
 50
265.4766817605540155
 51
270.0000000000007958
  0
ARC
  5
123EB
  8
0
 10
222.8702157885132067
 20
199.5311153265500081
 30
0.0
 40
3.0000000000000222
 50
358.1843767468300825
 51
0.0
  0
ARC
  5
123EC
  8
0
 10
222.8690562905283059
 20
199.481668540604602
 30
0.0
 40
3.0000000000000209
 50
270.0000000000007958
 51
359.1290110993105031
  0
LINE
  5
123ED
  8
0
 10
185.2702157885132976
 20
196.4816685406048009
 30
0.0
 11
222.8690562905283059
 21
196.4816685406046872
 31
0.0
  0
LINE
  5
123EE
  8
0
 10
225.8702157885132067
 20
199.5311153265500081
 30
0.0
 11
225.870215788513292
 21
213.7816685406044996
 31
0.0
  0
ARC
  5
123EF
  8
0
 10
222.8690562905283912
 20
240.0816685387131884
 30
0.0
 40
3.000000000000056
 50
0.8709889006907275
 51
89.9999999999995879
  0
ARC
  5
123F0
  8
0
 10
222.8702157885134056
 20
240.0322217527678959
 30
0.0
 40
3.000000000000028
 50
0.0
 51
1.8156232531690999
  0
ARC
  5
123F1
  8
0
 10
185.2702157885132976
 20
240.0816685387133873
 30
0.0
 40
2.9999999999999831
 50
90.0
 51
94.523318239440016
  0
LINE
  5
123F2
  8
0
 10
222.8690562905285049
 20
243.0816685387131884
 30
0.0
 11
185.2702157885132976
 21
243.0816685387133873
 31
0.0
  0
CIRCLE
  5
123F3
  8
0
 10
192.570215788513309
 20
234.4822217527679982
 30
0.0
 40
3.5
  0
CIRCLE
  5
123F4
  8
0
 10
215.5702157885133943
 20
234.4822217527679129
 30
0.0
 40
3.4999999999999711
  0
LINE
  5
123F5
  8
0
 10
225.870215788513292
 20
225.7816685387134044
 30
0.0
 11
225.870215788513292
 21
240.0322217527678959
 31
0.0
  0
LINE
  5
12412
  8
1
 10
131.8232616301582141
 20
219.7816685396585967
 30
0.0
 11
235.8237377225565865
 21
219.7816685396589946
 31
0.0
  0
LINE
  5
12414
  8
1
 10
153.5744943112775047
 20
206.8515329723508103
 30
0.0
 11
153.5744943112773058
 21
232.7118041069686001
 31
0.0
  0
LINE
  5
12415
  8
0
 10
142.3244943112771921
 20
121.6748039713438061
 30
0.0
 11
142.3244943112771921
 21
119.6748039713438061
 31
0.0
  0
LINE
  5
12416
  8
0
 10
164.8244943112771921
 20
119.6748039713438061
 30
0.0
 11
164.8244943112771921
 21
121.6748039713438061
 31
0.0
  0
LINE
  5
12417
  8
0
 10
142.3244943112773058
 20
136.6748040742473052
 30
0.0
 11
142.3244943112773058
 21
134.6748040742473052
 31
0.0
  0
LINE
  5
12418
  8
0
 10
164.8244943112773058
 20
134.6748040742473052
 30
0.0
 11
164.8244943112773058
 21
136.6748040742473052
 31
0.0
  0
LINE
  5
12419
  8
0
 10
145.0744943112640044
 20
105.4248040228305996
 30
0.0
 11
147.5744943112738952
 21
96.6748040228109318
 31
0.0
  0
LINE
  5
1241A
  8
0
 10
159.574494311280489
 20
96.6748040228109318
 30
0.0
 11
162.0744943112904082
 21
105.4248040228305996
 31
0.0
  0
LINE
  5
1241B
  8
0
 10
162.0744943112902945
 20
105.4248040228305996
 30
0.0
 11
159.5744943113105023
 21
112.4248040228109033
 31
0.0
  0
LINE
  5
1241C
  8
0
 10
147.5744943112437966
 20
112.4248040228109033
 30
0.0
 11
145.0744943112640044
 21
105.4248040228305996
 31
0.0
  0
LINE
  5
1241D
  8
0
 10
149.5744943112771068
 20
162.1748030095320132
 30
0.0
 11
149.5744943112771921
 21
142.6748040715060029
 31
0.0
  0
LINE
  5
1241E
  8
0
 10
149.5744943112771921
 20
113.6748039740565019
 30
0.0
 11
149.5744943112771921
 21
112.4248040228109033
 31
0.0
  0
LINE
  5
1241F
  8
0
 10
157.5744943112771921
 20
112.4248040228109033
 30
0.0
 11
157.5744943112771921
 21
113.6748039740565019
 31
0.0
  0
LINE
  5
12420
  8
0
 10
157.5744943112771921
 20
142.6748040715060029
 30
0.0
 11
157.5744943112771068
 21
162.1748030095318995
 31
0.0
  0
ARC
  5
12422
  8
0
 10
153.5744943112771921
 20
109.8756263321569975
 30
0.0
 40
12.6981015388158802
 50
61.5773418822389402
 51
118.422658117760605
  0
ARC
  5
12423
  8
0
 10
153.5744943112773058
 20
110.8756263283902967
 30
0.0
 40
12.6981015409480893
 50
61.5773418874461882
 51
118.4226581125538047
  0
LINE
  5
1243A
  8
0
 10
142.3244943112771921
 20
119.6748039740282934
 30
0.0
 11
164.8244943112771921
 21
119.6748039540279933
 31
0.0
  0
LINE
  5
1243B
  8
0
 10
162.176819578319197
 20
121.6748039686593046
 30
0.0
 11
161.8045151674652118
 21
121.6748039713438061
 31
0.0
  0
ARC
  5
12443
  8
0
 10
153.5744943112773058
 20
145.4739817172012977
 30
0.0
 40
12.6981015409484108
 50
241.5773418874480001
 51
298.4226581125537905
  0
ARC
  5
12445
  8
0
 10
153.5744943112773058
 20
146.473981713434199
 30
0.0
 40
12.6981015388158802
 50
241.5773418822398071
 51
298.4226581177615003
  0
LINE
  5
12451
  8
0
 10
147.1744943112755095
 20
142.6748040714986132
 30
0.0
 11
147.174494311286594
 21
136.6748040742473052
 31
0.0
  0
LINE
  5
12454
  8
0
 10
153.574494280629807
 20
141.6847206435583075
 30
0.0
 11
153.5744943112773058
 21
137.6648875172245994
 31
0.0
  0
LINE
  5
1245A
  8
0
 10
159.9744942731068988
 20
142.6748040714986132
 30
0.0
 11
159.9744943188117929
 21
136.6748040742473052
 31
0.0
  0
LINE
  5
1245B
  8
0
 10
137.2702157885132976
 20
134.6748040285229138
 30
0.0
 11
145.3444734550892861
 21
134.6748040742473052
 31
0.0
  0
LINE
  5
1245C
  8
0
 10
164.8244943112773058
 20
136.6748040742473052
 30
0.0
 11
142.3244943112773058
 21
136.6748040715629031
 31
0.0
  0
LINE
  5
1245E
  8
0
 10
161.8045151674652971
 20
134.6748040742473052
 30
0.0
 11
173.7489544328603017
 21
134.6748040228108891
 31
0.0
  0
LINE
  5
12460
  8
0
 10
159.9744942731068988
 20
142.6748040714986132
 30
0.0
 11
147.1744943112755095
 21
142.6748040714986132
 31
0.0
  0
LINE
  5
12466
  8
0
 10
147.5744943112738952
 20
96.6748040228109318
 30
0.0
 11
159.574494311280489
 21
96.6748040228109318
 31
0.0
  0
LINE
  5
12467
  8
0
 10
145.0744943112640044
 20
105.4248040228305996
 30
0.0
 11
162.0744943112904082
 21
105.4248040228305996
 31
0.0
  0
LINE
  5
12468
  8
0
 10
159.5744943113105023
 20
112.4248040228109033
 30
0.0
 11
147.5744943112437966
 21
112.4248040228109033
 31
0.0
  0
CIRCLE
  5
12470
  8
0
 10
182.1338873485132979
 20
133.9048040228109073
 30
0.0
 40
4.000000000000056
  0
CIRCLE
  5
12471
  8
0
 10
199.1304965558811091
 20
134.2443264109022039
 30
0.0
 40
4.0000000000000018
  0
ARC
  5
12472
  8
0
 10
182.133887348512701
 20
133.9048040228113052
 30
0.0
 40
6.5000000000000719
 50
91.144381962294247
 51
271.1443819622945739
  0
LINE
  5
12473
  8
0
 10
199.0006791721986872
 20
140.7430299313666922
 30
0.0
 11
182.0040699648307907
 21
140.4035075432753956
 31
0.0
  0
ARC
  5
12474
  8
0
 10
199.1304965558807112
 20
134.2443264109024028
 30
0.0
 40
6.5000000000000169
 50
271.1443819622950855
 51
91.144381962294247
  0
LINE
  5
12475
  8
0
 10
182.2637047321946113
 20
127.4061005023470017
 30
0.0
 11
199.2603139395625931
 21
127.7456228904381987
 31
0.0
  0
LINE
  5
12476
  8
0
 10
137.2702157885132976
 20
134.6748040285229138
 30
0.0
 11
137.2702157885132976
 21
121.6748040285228996
 31
0.0
  0
LINE
  5
12479
  8
0
 10
145.3444734550892008
 20
121.6748039713438061
 30
0.0
 11
137.2702157885132976
 21
121.6748040170954965
 31
0.0
  0
LINE
  5
1247E
  8
0
 10
162.176819578319197
 20
121.6748039686593046
 30
0.0
 11
169.343263313099186
 21
121.6748040228109033
 31
0.0
  0
LINE
  5
12484
  8
0
 10
169.343263313099186
 20
121.6748040228109033
 30
0.0
 11
172.7883858180111076
 21
118.7193515067291969
 31
0.0
  0
LINE
  5
1248A
  8
0
 10
172.7883858180111076
 20
118.7193515067291969
 30
0.0
 11
172.7883858180111076
 21
134.6748040228108891
 31
0.0
  0
ARC
  5
1248E
  8
0
 10
173.7489544328603017
 20
137.1748040228108891
 30
0.0
 40
2.5
 50
270.0000000000007958
 51
338.694950872066272
  0
ARC
  5
1248F
  8
0
 10
194.0055022156583107
 20
128.6071856479011899
 30
0.0
 40
6.5000000000000151
 50
189.6941028955176876
 51
216.6863880883645095
  0
LINE
  5
12490
  8
0
 10
183.8521974251484039
 20
111.5972214028109022
 30
0.0
 11
185.2757654844743058
 21
111.5972214028109022
 31
0.0
  0
ARC
  5
12491
  8
0
 10
183.8521974251484039
 20
118.0972214028109022
 30
0.0
 40
6.5000000000000284
 50
230.8672974554895063
 51
270.0000000000007958
  0
LINE
  5
12492
  8
0
 10
172.7883858180111076
 20
118.7193515067291969
 30
0.0
 11
179.7499262234429125
 21
113.0552603768153972
 31
0.0
  0
ARC
  5
12496
  8
0
 10
185.5010488512365896
 20
161.0326914183775955
 30
0.0
 40
1.0000000000000671
 50
268.1963208763771718
 51
358.1963208763804118
  0
ARC
  5
12498
  8
0
 10
171.4979902271799119
 20
161.4736553298648118
 30
0.0
 40
0.9999999999999843
 50
178.1963208763746991
 51
268.1963208763771718
  0
ARC
  5
1249A
  8
0
 10
171.6242047371773083
 20
165.4816685406046872
 30
0.0
 40
1.00000000000004
 50
88.1963208763763618
 51
178.1963208763731075
  0
ARC
  5
1249C
  8
0
 10
185.627263361233986
 20
165.0407046291174993
 30
0.0
 40
1.0000000000000671
 50
358.1963208763853004
 51
88.1963208763779676
  0
LINE
  5
1249D
  8
0
 10
186.6267679025656889
 20
165.0092296889685883
 30
0.0
 11
186.5005533925682926
 21
161.001216478228713
 31
0.0
  0
LINE
  5
1249E
  8
0
 10
170.6247001958456906
 20
165.5131434807537971
 30
0.0
 11
170.3193099086772975
 21
155.815302040589188
 31
0.0
  0
LINE
  5
124AB
  8
0
 10
196.2865620279160055
 20
155.2930934970626993
 30
0.0
 11
184.6790605732149118
 21
143.4522043439471872
 31
0.0
  0
LINE
  5
124AE
  8
0
 10
181.8437023107570099
 20
143.5414913135620907
 30
0.0
 11
184.6790605732149118
 21
143.4522043439471872
 31
0.0
  0
ARC
  5
124B2
  8
0
 10
173.6034346014486971
 20
120.5347742748294024
 30
0.0
 40
41.5050000000002086
 50
56.8717088078504602
 51
70.9286056985522322
  0
ARC
  5
124B4
  8
0
 10
182.2184114732307876
 20
155.4405928781156092
 30
0.0
 40
11.9050000000001006
 50
178.1963208763775981
 51
268.1963208763780244
  0
LINE
  5
124B8
  8
0
 10
186.5005533925684063
 20
161.0012164782285993
 30
0.0
 11
186.4922721734274091
 21
160.7382416766880908
 31
0.0
  0
ARC
  5
124B9
  8
0
 10
187.4917767147589984
 20
160.7067667365392083
 30
0.0
 40
1.0
 50
178.1963208763795876
 51
250.9286056985548043
  0
ARC
  5
124BA
  8
0
 10
221.308470499134387
 20
165.311668592398604
 30
0.0
 40
25.7530368078402283
 50
222.5585380944364999
 51
267.403897800213997
  0
ARC
  5
124BB
  8
0
 10
208.8897428403134029
 20
114.5274019052953065
 30
0.0
 40
16.0000000000000213
 50
95.9537666427371931
 51
108.6935885277184042
  0
ARC
  5
124BC
  8
0
 10
183.6972072118651056
 20
135.6808430393757021
 30
0.0
 40
9.5000000000000373
 50
31.1829548973918591
 51
75.4941515166288752
  0
ARC
  5
124BD
  8
0
 10
172.8756572175169879
 20
120.8400546450589985
 30
0.0
 40
40.0000000000002274
 50
42.5585380944355904
 51
56.2319091306514025
  0
LINE
  5
124C0
  8
0
 10
182.2702157885132976
 20
101.1839664887565959
 30
0.0
 11
225.868709663142198
 21
101.1839664887564965
 31
0.0
  0
LINE
  5
124C1
  8
0
 10
182.2702157885132976
 20
98.1839664887564965
 30
0.0
 11
225.868709663142198
 21
98.1839664887564822
 31
0.0
  0
LINE
  5
124C2
  8
0
 10
182.2702157885132976
 20
98.1839664887564965
 30
0.0
 11
182.2702157885132976
 21
101.183966488756397
 31
0.0
  0
LINE
  5
124C8
  8
0
 10
225.8702157885132067
 20
98.1839664887564822
 30
0.0
 11
225.8702157885132067
 21
101.1839664887564965
 31
0.0
  0
LINE
  5
124C9
  8
0
 10
225.8702157885132067
 20
101.1839664887564965
 30
0.0
 11
225.868709663142198
 21
101.1839664887564965
 31
0.0
  0
LINE
  5
124CA
  8
0
 10
225.8702157885132067
 20
98.1839664887564822
 30
0.0
 11
225.868709663142198
 21
98.1839664887564822
 31
0.0
  0
CIRCLE
  5
124CF
  8
0
 10
219.8702157885132067
 20
133.591221402810902
 30
0.0
 40
4.0000000000000053
  0
CIRCLE
  5
124D0
  8
0
 10
209.2645493485132135
 20
118.0972214028109022
 30
0.0
 40
3.99999999999996
  0
ARC
  5
124D1
  8
0
 10
190.8100997085485915
 20
124.5242313028107048
 30
0.0
 40
2.000000000000135
 50
90.0
 51
165.0000000000003979
  0
LINE
  5
124D2
  8
0
 10
202.0342157885133076
 20
126.5242313028109038
 30
0.0
 11
190.8100997085485915
 21
126.5242313028108043
 31
0.0
  0
ARC
  5
124D3
  8
0
 10
202.0342157885133076
 20
128.5242313028109891
 30
0.0
 40
2.0000000000000848
 50
270.0000000000007958
 51
311.4193409825836056
  0
LINE
  5
124D4
  8
0
 10
215.9008255604898068
 20
138.0905481544116924
 30
0.0
 11
203.3573458645211929
 21
127.0244557189438979
 31
0.0
  0
ARC
  5
124D5
  8
0
 10
219.8702157885132067
 20
133.591221402810902
 30
0.0
 40
6.0000000000001128
 50
0.0
 51
131.4193409825846004
  0
LINE
  5
124D6
  8
0
 10
225.870215788513292
 20
123.2470197028108032
 30
0.0
 11
225.870215788513292
 21
133.591221402810902
 31
0.0
  0
LINE
  5
124DA
  8
0
 10
188.8782480559704027
 20
125.0418693930158014
 30
0.0
 11
182.4855422396740039
 21
101.183966488756397
 31
0.0
  0
LINE
  5
124DB
  8
0
 10
225.870215788513292
 20
101.183966488756397
 30
0.0
 11
225.870215788513292
 21
103.2470197028109027
 31
0.0
  0
LINE
  5
124DC
  8
0
 10
229.6213222175678084
 20
103.2470197028109027
 30
0.0
 11
229.6213222175678084
 21
123.2470197028109027
 31
0.0
  0
LINE
  5
124DD
  8
0
 10
225.870215788513292
 20
123.2470197028108032
 30
0.0
 11
229.6213222175678084
 21
123.2470197028109027
 31
0.0
  0
LINE
  5
124DE
  8
0
 10
229.6213222175678084
 20
103.2470197028109027
 30
0.0
 11
225.870215788513292
 21
103.2470197028109027
 31
0.0
  0
LINE
  5
124DF
  8
1
 10
153.5744943112771921
 20
164.6748040228110028
 30
0.0
 11
153.5744943112773058
 21
93.4467154260221946
 31
0.0
  0
LINE
  5
124E0
  8
1
 10
192.570215788513508
 20
103.1839664887564965
 30
0.0
 11
192.570215788513508
 21
96.1839664887565675
 31
0.0
  0
LINE
  5
124E1
  8
1
 10
215.5702157885133943
 20
103.1839664887564965
 30
0.0
 11
215.5702157885133943
 21
96.1839664887565675
 31
0.0
  0
LINE
  5
124E2
  8
0
 10
51.6679203878803079
 20
123.568532790947998
 30
0.0
 11
49.9358695826362435
 21
122.568532792290199
 31
0.0
  0
LINE
  5
124E3
  8
0
 10
71.7772598132065269
 20
122.568532792290398
 30
0.0
 11
70.0452090079624696
 21
123.568532790948197
 31
0.0
  0
LINE
  5
124E4
  8
0
 10
54.4565646979213511
 20
119.6748039739564007
 30
0.0
 11
53.4664812537396301
 21
118.6847205297746939
 31
0.0
  0
LINE
  5
124E5
  8
0
 10
67.2565646979140723
 20
113.6748039740640053
 30
0.0
 11
68.2466481435400567
 21
114.6648874196900039
 31
0.0
  0
LINE
  5
124E6
  8
0
 10
53.4664812523024011
 20
114.6648874196903023
 30
0.0
 11
54.4565646979288829
 21
113.6748039740638063
 31
0.0
  0
LINE
  5
124E7
  8
0
 10
68.2466481097684436
 20
118.6847205621095043
 30
0.0
 11
67.2565646978496829
 21
119.6748039740281939
 31
0.0
  0
LINE
  5
124E8
  8
0
 10
49.9358695826361867
 20
133.7810752533007985
 30
0.0
 11
51.6679203878802369
 21
132.7810752546430137
 31
0.0
  0
LINE
  5
124E9
  8
0
 10
70.045209007962427
 20
132.7810752546430137
 30
0.0
 11
71.7772598132064701
 21
133.7810752533007985
 31
0.0
  0
LINE
  5
124EA
  8
0
 10
53.4664812523023514
 20
137.664887517224912
 30
0.0
 11
54.4565646979213511
 21
136.6748040716059052
 31
0.0
  0
LINE
  5
124EB
  8
0
 10
54.4565646979288474
 20
142.6748040714986132
 30
0.0
 11
53.4664812537395377
 21
141.6847206273093036
 31
0.0
  0
LINE
  5
124EC
  8
0
 10
67.2565646979213057
 20
136.6748040716059052
 30
0.0
 11
68.2466481435399857
 21
137.6648875172245994
 31
0.0
  0
LINE
  5
124ED
  8
0
 10
68.246648109768401
 20
141.6847206596440003
 30
0.0
 11
67.25656469792807
 21
142.6748040714842887
 31
0.0
  0
LINE
  5
124EE
  8
0
 10
69.3565646979351556
 20
105.4248040228305996
 30
0.0
 11
66.8565646979552781
 21
112.4248040228109033
 31
0.0
  0
LINE
  5
124EF
  8
0
 10
54.8565646978886079
 20
112.4248040228109033
 30
0.0
 11
52.3565646979087376
 21
105.4248040228305996
 31
0.0
  0
LINE
  5
124F0
  8
0
 10
52.3565646979087376
 20
105.4248040228305996
 30
0.0
 11
54.8565646979186923
 21
96.6748040228109318
 31
0.0
  0
LINE
  5
124F1
  8
0
 10
66.8565646979252222
 20
96.6748040228109318
 30
0.0
 11
69.3565646979351556
 21
105.4248040228305996
 31
0.0
  0
LINE
  5
124F2
  8
0
 10
56.8565646979218897
 20
162.6748040228108891
 30
0.0
 11
56.8565646979218897
 21
142.6748040715060029
 31
0.0
  0
LINE
  5
124F3
  8
0
 10
56.8565646979218897
 20
113.6748039740564025
 30
0.0
 11
56.8565646979218897
 21
112.4248040228109033
 31
0.0
  0
LINE
  5
124F4
  8
0
 10
64.8565646979218826
 20
112.4248040228109033
 30
0.0
 11
64.8565646979218826
 21
113.6748039740565019
 31
0.0
  0
LINE
  5
124F5
  8
0
 10
64.8565646979218826
 20
142.6748040715060029
 30
0.0
 11
64.8565646979218826
 21
162.6748040228108891
 31
0.0
  0
ARC
  5
124F6
  8
0
 10
68.0565646979215586
 20
130.4048040228107936
 30
0.0
 40
0.5000000000000094
 50
275.73917047735398
 51
0.0
  0
ARC
  5
124F7
  8
0
 10
68.0565646979215444
 20
137.4048040228109926
 30
0.0
 40
0.5000000000000117
 50
0.0
 51
67.6559793328370915
  0
ARC
  5
124F8
  8
0
 10
53.6565646979215387
 20
137.4048040228109073
 30
0.0
 40
0.5
 50
112.3440206672143944
 51
177.3045003394537105
  0
ARC
  5
124F9
  8
0
 10
53.6565646979215387
 20
130.4048040228109073
 30
0.0
 40
0.5000000000000285
 50
182.6954996606064014
 51
264.2608295228214956
  0
ARC
  5
124FA
  8
0
 10
68.0565646979214591
 20
137.7443264109020902
 30
0.0
 40
0.5000000000000178
 50
0.0
 51
67.6559793328269592
  0
ARC
  5
124FB
  8
0
 10
53.6565646979214605
 20
137.7443264109020902
 30
0.0
 40
0.5
 50
112.3440206672055979
 51
177.304500339290712
  0
LINE
  5
124FF
  8
0
 10
87.3565646988669755
 20
161.2630792156703876
 30
0.0
 11
87.3565646988669755
 21
165.2516389676989093
 31
0.0
  0
LINE
  5
12502
  8
0
 10
78.2565646988668391
 20
166.4816685406048009
 30
0.0
 11
43.4565646988668277
 21
166.481668540604602
 31
0.0
  0
ARC
  5
12503
  8
0
 10
66.3615646988668288
 20
159.0326914183775102
 30
0.0
 40
1.0
 50
90.0
 51
180.0
  0
LINE
  5
12506
  8
0
 10
66.3615646988668288
 20
160.0326914183775955
 30
0.0
 11
78.2565646988668107
 21
160.0326914183775955
 31
0.0
  0
ARC
  5
12507
  8
0
 10
68.0571179100846138
 20
114.5972214028109022
 30
0.0
 40
0.5
 50
270.0000000000007958
 51
0.0
  0
ARC
  5
12508
  8
0
 10
68.0571179100846138
 20
121.5972214028109022
 30
0.0
 40
0.5000000000000056
 50
8.9497105187630233
 51
84.3245387845965695
  0
ARC
  5
12509
  8
0
 10
53.6571179100845868
 20
121.5972214028109022
 30
0.0
 40
0.5000000000000068
 50
95.8028868596826157
 51
171.0567569754811927
  0
ARC
  5
1250A
  8
0
 10
53.6571179100846223
 20
114.5972214028109022
 30
0.0
 40
0.5000000000000285
 50
180.0
 51
270.0000000000007958
  0
LINE
  5
1250B
  8
0
 10
53.6571179100846223
 20
114.0972214028109022
 30
0.0
 11
54.0341472691818012
 21
114.0972214028109022
 31
0.0
  0
LINE
  5
1250C
  8
0
 10
67.6789821266609266
 20
114.0972214028109022
 30
0.0
 11
68.0571179100846138
 21
114.0972214028109022
 31
0.0
  0
ARC
  5
1250D
  8
0
 10
53.6571179119756607
 20
130.0912214028107883
 30
0.0
 40
0.5
 50
180.0
 51
264.197112922504175
  0
ARC
  5
1250E
  8
0
 10
68.0571179119756238
 20
130.091221402810902
 30
0.0
 40
0.5
 50
275.675460997642972
 51
357.3045003393950765
  0
LINE
  5
12510
  8
0
 10
68.5265879512571701
 20
121.6748039713438061
 30
0.0
 11
68.1065646979222947
 21
121.6748039686593046
 31
0.0
  0
LINE
  5
12511
  8
0
 10
53.6065646979222876
 20
121.6748039686592051
 30
0.0
 11
53.1865414445858278
 21
121.6748039713438061
 31
0.0
  0
LINE
  5
12513
  8
0
 10
53.1865414445858065
 20
119.6748039713437066
 30
0.0
 11
68.5265879512571843
 21
119.6748039713438061
 31
0.0
  0
LINE
  5
12520
  8
0
 10
57.1615229574134673
 20
118.6847205460236978
 30
0.0
 11
57.1615229751121774
 21
114.6648874196899044
 31
0.0
  0
LINE
  5
12522
  8
0
 10
64.5516064277815502
 20
118.6847205248059964
 30
0.0
 11
64.5516064207307636
 21
114.6648874196900039
 31
0.0
  0
LINE
  5
12528
  8
0
 10
68.2466481258542217
 20
118.6847205460236978
 30
0.0
 11
68.2466481435400425
 21
114.6648874196900039
 31
0.0
  0
LINE
  5
1252A
  8
0
 10
53.4664812522985073
 20
114.6648874196941961
 30
0.0
 11
53.4664812699886909
 21
118.6847205460236978
 31
0.0
  0
LINE
  5
1252C
  8
0
 10
52.5486271275084889
 20
122.0431039713436974
 30
0.0
 11
51.6679203878802795
 21
123.568532790947998
 31
0.0
  0
LINE
  5
1252D
  8
0
 10
49.9358695830001977
 20
122.568532792500406
 30
0.0
 11
50.8165763222644529
 21
121.0431039726859979
 31
0.0
  0
LINE
  5
1252E
  8
0
 10
70.0452090079625123
 20
123.568532790948197
 30
0.0
 11
69.1645022683343882
 21
122.0431039713437968
 31
0.0
  0
LINE
  5
1252F
  8
0
 10
70.8965530735784597
 20
121.0431039726860973
 30
0.0
 11
71.7772598128425443
 21
122.5685327925005055
 31
0.0
  0
LINE
  5
12531
  8
0
 10
67.2565646979140723
 20
113.6748039740640053
 30
0.0
 11
54.4565646979289326
 21
113.6748039740628968
 31
0.0
  0
LINE
  5
12534
  8
0
 10
68.5265879512571132
 20
136.6748040742473052
 30
0.0
 11
53.1865414445857709
 21
136.6748040742473052
 31
0.0
  0
LINE
  5
12535
  8
0
 10
53.1865414445857425
 20
134.6748040742473052
 30
0.0
 11
68.5265879512571132
 21
134.6748040742473052
 31
0.0
  0
LINE
  5
12543
  8
0
 10
57.1615229574134105
 20
141.6847206435583075
 30
0.0
 11
57.1615229751121205
 21
137.6648875172245994
 31
0.0
  0
LINE
  5
12545
  8
0
 10
64.5516064277814934
 20
141.6847206223405919
 30
0.0
 11
64.5516064207307068
 21
137.6648875172245994
 31
0.0
  0
LINE
  5
1254B
  8
0
 10
68.2466481258541506
 20
141.6847206435583075
 30
0.0
 11
68.2466481435399288
 21
137.6648875172245994
 31
0.0
  0
LINE
  5
1254D
  8
0
 10
53.4664812522984434
 20
137.6648875172288911
 30
0.0
 11
53.4664812699886127
 21
141.6847206435583928
 31
0.0
  0
LINE
  5
1254F
  8
0
 10
51.6679203878802369
 20
132.781075254643099
 30
0.0
 11
52.5486271275084391
 21
134.3065040742473002
 31
0.0
  0
LINE
  5
12550
  8
0
 10
50.8165763222643818
 20
135.3065040729051134
 30
0.0
 11
49.9358695830001693
 21
133.7810752530905916
 31
0.0
  0
LINE
  5
12551
  8
0
 10
69.1645022683343313
 20
134.3065040742473002
 30
0.0
 11
70.0452090079624412
 21
132.7810752546430137
 31
0.0
  0
LINE
  5
12552
  8
0
 10
71.777259812842459
 20
133.7810752530907052
 30
0.0
 11
70.8965530735783886
 21
135.3065040729051134
 31
0.0
  0
LINE
  5
12553
  8
0
 10
67.2565646979280842
 20
142.6748040714842887
 30
0.0
 11
54.4565646979288402
 21
142.674804071499608
 31
0.0
  0
LINE
  5
12555
  8
0
 10
66.8565646979552781
 20
112.4248040228109033
 30
0.0
 11
54.8565646978886008
 21
112.4248040228109033
 31
0.0
  0
LINE
  5
12556
  8
0
 10
52.3565646979087376
 20
105.4248040228305996
 30
0.0
 11
69.3565646979351556
 21
105.4248040228305996
 31
0.0
  0
LINE
  5
12557
  8
0
 10
54.8565646979186923
 20
96.6748040228109318
 30
0.0
 11
66.8565646979252222
 21
96.6748040228109318
 31
0.0
  0
LINE
  5
12558
  8
0
 10
64.8565646979218826
 20
162.6748040228108891
 30
0.0
 11
56.8565646979218897
 21
162.6748040228108891
 31
0.0
  0
LINE
  5
12560
  8
0
 10
60.4065646979223629
 20
121.6748040228109033
 30
0.0
 11
60.4065646979223629
 21
134.6748040228108891
 31
0.0
  0
LINE
  5
12561
  8
0
 10
53.6065646979222876
 20
121.6748040228109033
 30
0.0
 11
60.4065646979223629
 21
121.6748040228109033
 31
0.0
  0
LINE
  5
12562
  8
0
 10
53.6065646979222876
 20
121.6748040228109033
 30
0.0
 11
53.6065646979222876
 21
134.6748040228108891
 31
0.0
  0
LINE
  5
12563
  8
0
 10
61.3065646979223686
 20
134.6748040228108891
 30
0.0
 11
61.3065646979223118
 21
121.6748040228109033
 31
0.0
  0
LINE
  5
12564
  8
0
 10
68.1065646979223089
 20
121.6748040228109033
 30
0.0
 11
68.1065646979223089
 21
134.6748040228108891
 31
0.0
  0
LINE
  5
12565
  8
0
 10
68.1065646979223089
 20
121.6748040228109033
 30
0.0
 11
61.3065646979223118
 21
121.6748040228109033
 31
0.0
  0
LINE
  5
12567
  8
0
 10
60.4065646979223629
 20
121.6748040228109033
 30
0.0
 11
61.3065646979223118
 21
121.6748040228109033
 31
0.0
  0
LINE
  5
1256C
  8
0
 10
65.3615646988669141
 20
144.5409958548937936
 30
0.0
 11
65.3615646988668715
 21
159.0326914183775102
 31
0.0
  0
LINE
  5
1256E
  8
0
 10
56.3515646988668877
 20
159.0326914183777092
 30
0.0
 11
56.3515646988668877
 21
144.5409958548937084
 31
0.0
  0
LINE
  5
1258C
  8
0
 10
37.5571179119761993
 20
98.1839664887564254
 30
0.0
 11
37.557117911976178
 21
101.183966488756198
 31
0.0
  0
LINE
  5
12590
  8
0
 10
54.4253754219335306
 20
98.1839664887564112
 30
0.0
 11
37.5571179119761993
 21
98.1839664887564254
 31
0.0
  0
LINE
  5
12591
  8
0
 10
37.5571179119761922
 20
101.183966488756397
 30
0.0
 11
53.5682325647891773
 21
101.183966488756397
 31
0.0
  0
LINE
  5
12592
  8
0
 10
68.144896831054723
 20
101.183966488756397
 30
0.0
 11
84.1571179100847075
 21
101.1839664887562975
 31
0.0
  0
LINE
  5
12594
  8
0
 10
84.1571179100847075
 20
98.1839664887563401
 30
0.0
 11
67.2877539739103838
 21
98.1839664887564254
 31
0.0
  0
LINE
  5
12595
  8
0
 10
84.1571179100847075
 20
101.1839664887564965
 30
0.0
 11
84.1571179100847075
 21
98.1839664887563401
 31
0.0
  0
LINE
  5
12598
  8
0
 10
54.857117911976097
 20
112.4248040228109033
 30
0.0
 11
54.8571179119760828
 21
113.6748039740564025
 31
0.0
  0
LINE
  5
12599
  8
0
 10
66.8571179100846678
 20
113.6748039740565019
 30
0.0
 11
66.8571179100846535
 21
112.423255028848601
 31
0.0
  0
ARC
  5
125A4
  8
0
 10
64.915198749546434
 20
152.2176769472021078
 30
0.0
 40
3.593976833001733
 50
82.865536822303099
 51
90.9347953247113452
  0
ARC
  5
125A5
  8
0
 10
64.3621137124323326
 20
144.5411072176700031
 30
0.0
 40
0.999450992638822
 50
299.6514593940293025
 51
359.9936158779825064
  0
ARC
  5
125A6
  8
0
 10
57.3510156853001192
 20
144.5411072176694915
 30
0.0
 40
0.9994509926374699
 50
180.0063841219912888
 51
240.3485404813395974
  0
ARC
  5
125A7
  8
0
 10
56.7979306471982284
 20
152.2176769569630892
 30
0.0
 40
3.5939768231934228
 50
89.0652046871017546
 51
97.1344631813767876
  0
LINE
  5
125B7
  8
1
 10
60.8565646988669684
 20
90.8170022375247186
 30
0.0
 11
60.8565646988669684
 21
173.0354766886659945
 31
0.0
  0
LINE
  5
125B8
  8
1
 10
46.1565646979212687
 20
103.183966488756397
 30
0.0
 11
46.1565646979212971
 21
96.1839664887563117
 31
0.0
  0
LINE
  5
125B9
  8
1
 10
75.5565646979212602
 20
103.1839664887564965
 30
0.0
 11
75.5565646979213028
 21
96.1839664887565675
 31
0.0
  0
LINE
  5
125BA
  8
0
 10
175.6338873485127863
 20
40.3748040237564396
 30
0.0
 11
175.6338873485127863
 21
37.3748040237564396
 31
0.0
  0
LINE
  5
125BB
  8
0
 10
175.633887348512701
 20
49.3748040237565178
 30
0.0
 11
175.633887348512701
 21
46.3748040237565178
 31
0.0
  0
ARC
  5
125BD
  8
0
 10
178.6338873485134116
 20
36.1748040237564723
 30
0.0
 40
0.5000000000000285
 50
180.0
 51
270.0000000000007958
  0
ARC
  5
125BE
  8
0
 10
178.6338873485132126
 20
50.5748040237564709
 30
0.0
 40
0.5
 50
90.0
 51
180.0000000000023022
  0
LINE
  5
125BF
  8
0
 10
178.1338873485134116
 20
37.3748040237564467
 30
0.0
 11
178.1338873485134116
 21
36.1748040237564723
 31
0.0
  0
LINE
  5
125C0
  8
0
 10
178.1338873485132979
 20
50.5748040237564496
 30
0.0
 11
178.1338873485132979
 21
49.3748040237565533
 31
0.0
  0
LINE
  5
125C1
  8
0
 10
215.7645493485132988
 20
40.3748040237568233
 30
0.0
 11
215.7645493485132988
 21
46.3748040237568304
 31
0.0
  0
LINE
  5
125C2
  8
0
 10
225.870215788513292
 20
40.374804024702442
 30
0.0
 11
225.870215788513292
 21
46.3742508106480429
 31
0.0
  0
LINE
  5
125C5
  8
0
 10
170.3134114732309001
 20
44.4038291254546706
 30
0.0
 11
170.3134114732309001
 21
42.3457789396316073
 31
0.0
  0
LINE
  5
125C6
  8
0
 10
170.4979902271799972
 20
61.87043352427672
 30
0.0
 11
170.4979902271799972
 21
48.7099540394846926
 31
0.0
  0
LINE
  5
125C7
  8
0
 10
170.4979902271801109
 20
38.2893774151264168
 30
0.0
 11
170.4979902271801109
 21
24.8790397606026588
 31
0.0
  0
ARC
  5
125D4
  8
0
 10
153.5744943112771921
 20
43.3748040237560417
 30
0.0
 40
11.2500000000000107
 50
137.0171165636733974
 51
222.9828834363271142
  0
ARC
  5
125D5
  8
0
 10
153.5744943112771921
 20
43.3748040237560417
 30
0.0
 40
11.2500000000000107
 50
317.0171165636745059
 51
42.9828834363265671
  0
ARC
  5
125D6
  8
0
 10
153.5744943112773058
 20
53.4083855872658688
 30
0.0
 40
20.9637171308187504
 50
253.24350315695159
 51
286.7564968430500016
  0
ARC
  5
125D7
  8
0
 10
153.5744943112771921
 20
33.3412224602452625
 30
0.0
 40
20.9637171308196599
 50
73.2435031569512347
 51
106.7564968430486942
  0
CIRCLE
  5
125D8
  8
0
 10
153.5744943112771921
 20
43.374804023756603
 30
0.0
 40
6.0000000000032543
  0
CIRCLE
  5
125D9
  8
0
 10
153.5744943112771921
 20
43.374804023756603
 30
0.0
 40
8.5000000000132161
  0
LINE
  5
125DB
  8
0
 10
182.2702157885132976
 20
37.3748040237564965
 30
0.0
 11
175.6338873485127863
 21
37.3748040237564467
 31
0.0
  0
LINE
  5
125DC
  8
0
 10
182.2702157885132976
 20
49.3748040237565675
 30
0.0
 11
175.633887348512701
 21
49.3748040237565391
 31
0.0
  0
LINE
  5
125DE
  8
0
 10
182.2702157885132976
 20
37.3748040237564965
 30
0.0
 11
182.2637047321946966
 21
37.3748040237564965
 31
0.0
  0
LINE
  5
125E9
  8
0
 10
172.8331402429080015
 20
46.3748040237568304
 30
0.0
 11
226.3879444929197859
 21
46.3748040237568304
 31
0.0
  0
LINE
  5
125EA
  8
0
 10
226.3713222175678084
 20
40.3748040237568233
 30
0.0
 11
172.5204366255800039
 21
40.3748040237568233
 31
0.0
  0
ARC
  5
12604
  8
0
 10
144.070215788513309
 20
43.8248040237569967
 30
0.0
 40
3.7999999999999972
 50
104.6593654442769008
 51
180.0000000000015064
  0
LINE
  5
12605
  8
0
 10
140.2702157885132976
 20
43.8248040237569398
 30
0.0
 11
140.2702157885132976
 21
42.9248040237569981
 31
0.0
  0
ARC
  5
12606
  8
0
 10
144.070215788513309
 20
42.9248040237569484
 30
0.0
 40
3.8000000000000109
 50
179.9999999999992042
 51
255.34063455571021
  0
LINE
  5
1260C
  8
0
 10
144.9721690442339934
 20
36.1248040237568304
 30
0.0
 11
144.070215788513309
 21
36.1248040237568304
 31
0.0
  0
ARC
  5
1260D
  8
0
 10
144.070215788513309
 20
42.9248040237569484
 30
0.0
 40
6.7999999999999972
 50
179.9999999999996021
 51
270.0000000000007958
  0
LINE
  5
1260E
  8
0
 10
137.2702157885132976
 20
42.9248040237569981
 30
0.0
 11
137.2702157885132976
 21
43.8248040237569612
 31
0.0
  0
ARC
  5
1260F
  8
0
 10
144.070215788513309
 20
43.8248040237569967
 30
0.0
 40
6.7999999999999972
 50
90.0
 51
180.0000000000011084
  0
LINE
  5
12610
  8
0
 10
144.070215788513309
 20
50.6248040237568233
 30
0.0
 11
144.9721690442351871
 21
50.6248040237568233
 31
0.0
  0
LINE
  5
12611
  8
0
 10
162.176819578319197
 20
50.6248040237568233
 30
0.0
 11
167.0356664473970909
 21
50.6248040237568091
 31
0.0
  0
ARC
  5
1261D
  8
0
 10
178.4990978408781075
 20
24.8759122481293993
 30
0.0
 40
8.0011082249467371
 50
179.9776039432026096
 51
323.3143992243208231
  0
ARC
  5
1261E
  8
0
 10
178.4990019883094874
 20
61.8737915579420417
 30
0.0
 40
8.0010124658147657
 50
36.6851159020300983
 51
180.0240471007560927
  0
CIRCLE
  5
12623
  8
0
 10
192.570215788513309
 20
28.6742508106476706
 30
0.0
 40
3.5
  0
CIRCLE
  5
12624
  8
0
 10
215.5702157885133943
 20
28.674250810647731
 30
0.0
 40
3.4999999999999711
  0
LINE
  5
12626
  8
0
 10
225.870215788513292
 20
23.1242508106477302
 30
0.0
 11
225.870215788513292
 21
37.1248040247022217
 31
0.0
  0
ARC
  5
12627
  8
0
 10
222.8702157885134056
 20
23.1242508106477302
 30
0.0
 40
3.000000000000028
 50
358.1843767468337205
 51
0.0
  0
ARC
  5
12628
  8
0
 10
222.8690562905283912
 20
23.0748040247023809
 30
0.0
 40
3.0000000000000191
 50
270.0000000000011937
 51
359.1290110993130043
  0
LINE
  5
12629
  8
0
 10
222.8690562905285049
 20
20.0748040247023809
 30
0.0
 11
185.2702157885132976
 21
20.0748040247023098
 31
0.0
  0
ARC
  5
1262A
  8
0
 10
185.2702157885132976
 20
23.0748040247022601
 30
0.0
 40
3.000000000000028
 50
179.9999999999996021
 51
270.0000000000007958
  0
LINE
  5
1262B
  8
0
 10
182.2702157885132976
 20
40.3742508106479718
 30
0.0
 11
182.2702157885132976
 21
23.0748040247022708
 31
0.0
  0
LINE
  5
12630
  8
0
 10
225.870215788513292
 20
37.1248040247022217
 30
0.0
 11
225.870215788513292
 21
40.3748040247021791
 31
0.0
  0
CIRCLE
  5
12631
  8
0
 10
192.570215788513309
 20
58.0742508106477189
 30
0.0
 40
3.5
  0
CIRCLE
  5
12632
  8
0
 10
215.5702157885131953
 20
58.0742508106477189
 30
0.0
 40
3.5
  0
LINE
  5
12633
  8
0
 10
225.870215788513292
 20
49.6248040228111904
 30
0.0
 11
225.8702157885132067
 21
63.6253572368655824
 31
0.0
  0
LINE
  5
12635
  8
0
 10
182.2702157885132976
 20
63.6748040228108323
 30
0.0
 11
182.2702157885132976
 21
46.3748040228108422
 31
0.0
  0
ARC
  5
12636
  8
0
 10
185.2702157885132976
 20
63.6748040228108323
 30
0.0
 40
3.000000000000028
 50
90.0
 51
180.0
  0
LINE
  5
12637
  8
0
 10
185.2702157885132976
 20
66.6748040228108323
 30
0.0
 11
222.8690562905283059
 21
66.6748040228109886
 31
0.0
  0
ARC
  5
12638
  8
0
 10
222.8690562905283059
 20
63.6748040228109886
 30
0.0
 40
3.00000000000002
 50
0.870988900689099
 51
90.0
  0
ARC
  5
12639
  8
0
 10
222.8702157885132067
 20
63.6253572368655824
 30
0.0
 40
3.000000000000028
 50
0.0
 51
1.8156232531695129
  0
LINE
  5
1263A
  8
0
 10
225.870215788513292
 20
46.3748040228111265
 30
0.0
 11
225.870215788513292
 21
49.6248040228111904
 31
0.0
  0
ARC
  5
1263F
  8
0
 10
226.3713222175678084
 20
40.6253572378110377
 30
0.0
 40
0.2500000000000142
 50
270.0000000000007958
 51
0.0
  0
LINE
  5
12640
  8
0
 10
226.6213222175676947
 20
40.6253572378110377
 30
0.0
 11
226.6213222175676947
 21
46.1253572359199921
 31
0.0
  0
ARC
  5
12641
  8
0
 10
226.3713222175676947
 20
46.1253572359199921
 30
0.0
 40
0.25
 50
0.0
 51
86.1876426340072186
  0
ARC
  5
12642
  8
0
 10
226.3713222175676947
 20
46.1248040228111265
 30
0.0
 40
3.25
 50
0.0000000000008142
 51
90.0000000000003979
  0
LINE
  5
12643
  8
0
 10
229.6213222175678084
 20
46.1248040228111691
 30
0.0
 11
229.6213222175678084
 21
40.6248040247022075
 31
0.0
  0
ARC
  5
12644
  8
0
 10
226.3713222175678084
 20
40.6248040247021791
 30
0.0
 40
3.25
 50
270.0000000000007958
 51
0.0000000000004071
  0
LINE
  5
12647
  8
0
 10
225.870215788513292
 20
49.3748040228111407
 30
0.0
 11
226.3713222175676947
 21
49.3748040228111407
 31
0.0
  0
LINE
  5
12648
  8
0
 10
225.870215788513292
 20
37.3748040247022288
 30
0.0
 11
226.3713222175678084
 21
37.3748040247021933
 31
0.0
  0
LINE
  5
12655
  8
0
 10
171.4665152870311999
 20
37.8698040247017076
 30
0.0
 11
175.6338873485127863
 21
37.8698040247017431
 31
0.0
  0
LINE
  5
12656
  8
0
 10
175.633887348512701
 20
48.8798040247017624
 30
0.0
 11
171.4665152870310862
 21
48.8798040247017269
 31
0.0
  0
LINE
  5
1265D
  8
1
 10
235.4460070492399097
 20
43.3748040237565817
 30
0.0
 11
131.8232616301582141
 21
43.3748040237570009
 31
0.0
  0
LINE
  5
1265E
  8
0
 10
295.8376779065823143
 20
123.568532790948197
 30
0.0
 11
294.1056271013382002
 21
122.568532792290398
 31
0.0
  0
LINE
  5
1265F
  8
0
 10
315.9470173319086257
 20
122.568532792290199
 30
0.0
 11
314.2149665266645115
 21
123.568532790947998
 31
0.0
  0
LINE
  5
12660
  8
0
 10
311.4263222166159153
 20
113.6748039740638063
 30
0.0
 11
311.8487396453630254
 21
114.0972214028109022
 31
0.0
  0
LINE
  5
12661
  8
0
 10
298.2039047878838005
 20
114.0972214028109022
 30
0.0
 11
298.6263222166306832
 21
113.6748039740640053
 31
0.0
  0
LINE
  5
12662
  8
0
 10
314.2149665266645115
 20
132.7810752546430137
 30
0.0
 11
315.9470173319086257
 21
133.7810752533007985
 31
0.0
  0
LINE
  5
12663
  8
0
 10
294.1056271013383139
 20
133.7810752533007985
 30
0.0
 11
295.8376779065823143
 21
132.7810752546430137
 31
0.0
  0
LINE
  5
12664
  8
0
 10
298.6263222166309106
 20
142.6748040714984995
 30
0.0
 11
297.6362387724416863
 21
141.6847206273093036
 31
0.0
  0
LINE
  5
12665
  8
0
 10
312.4164056284702156
 20
141.6847206596443129
 30
0.0
 11
311.4263222166159153
 21
142.6748040714986132
 31
0.0
  0
LINE
  5
12666
  8
0
 10
313.5263222166360038
 20
105.4248040228305996
 30
0.0
 11
311.0259262105092262
 21
112.4259128400225052
 31
0.0
  0
LINE
  5
12667
  8
0
 10
299.0259261808503197
 20
112.4236951227411936
 30
0.0
 11
296.5263222166096284
 21
105.4248040228305996
 31
0.0
  0
LINE
  5
12668
  8
0
 10
296.5263222166096284
 20
105.4248040228305996
 30
0.0
 11
297.73799008348999
 21
101.183966488756397
 31
0.0
  0
LINE
  5
12669
  8
0
 10
298.5951329406344144
 20
98.1839664887564112
 30
0.0
 11
299.026322216619576
 21
96.6748040228109318
 31
0.0
  0
LINE
  5
1266A
  8
0
 10
311.026322216626113
 20
96.6748040228109318
 30
0.0
 11
311.4575114926112178
 21
98.1839664887564112
 31
0.0
  0
LINE
  5
1266B
  8
0
 10
312.3146543497555854
 20
101.183966488756397
 30
0.0
 11
313.5263222166360038
 21
105.4248040228305996
 31
0.0
  0
LINE
  5
1266C
  8
0
 10
301.0263222166228729
 20
143.5794483558325112
 30
0.0
 11
301.0263222166228729
 21
142.6748040715060029
 31
0.0
  0
LINE
  5
1266D
  8
0
 10
309.0263222166228729
 20
142.6748040715060029
 30
0.0
 11
309.0263222166228729
 21
143.5794483568776911
 31
0.0
  0
LINE
  5
1266E
  8
0
 10
311.0263222166228729
 20
140.7443264109024028
 30
0.0
 11
308.0263222166228729
 21
140.7443264109024028
 31
0.0
  0
LINE
  5
1266F
  8
0
 10
302.0263222166228161
 20
140.7443264109024881
 30
0.0
 11
299.0263222166228161
 21
140.7443264109024881
 31
0.0
  0
ARC
  5
12670
  8
0
 10
312.2263222166228047
 20
137.7443264109020902
 30
0.0
 40
0.5000000000000285
 50
0.0
 51
90.0
  0
ARC
  5
12671
  8
0
 10
297.8263222166228275
 20
137.7443264109020902
 30
0.0
 40
0.5000000000000285
 50
90.0
 51
180.0
  0
LINE
  5
12672
  8
0
 10
312.2263222166228047
 20
138.2443264109022039
 30
0.0
 11
311.0263222166228729
 21
138.2443264109022039
 31
0.0
  0
LINE
  5
12673
  8
0
 10
299.0262872566170813
 20
138.2443264109022039
 30
0.0
 11
297.8263222166228275
 21
138.2443264109022039
 31
0.0
  0
LINE
  5
12676
  8
0
 10
308.0257690025684951
 20
124.5972214028109022
 30
0.0
 11
302.0263222166225887
 21
124.5972214028109022
 31
0.0
  0
LINE
  5
12677
  8
0
 10
302.0263222166225887
 20
127.5912214028108025
 30
0.0
 11
308.0257690025683814
 21
127.5912214028108025
 31
0.0
  0
LINE
  5
1267A
  8
0
 10
331.5257690035143128
 20
161.2531733741209905
 30
0.0
 11
331.5257690035143128
 21
165.2611865848608943
 31
0.0
  0
LINE
  5
1267C
  8
0
 10
310.5313222156776192
 20
160.0326914183775102
 30
0.0
 11
322.426322215677601
 21
160.0326914183773965
 31
0.0
  0
ARC
  5
12680
  8
0
 10
299.5213222156776283
 20
159.0326914183775102
 30
0.0
 40
1.0
 50
0.0
 51
90.0
  0
ARC
  5
12681
  8
0
 10
310.5313222156776192
 20
159.0326914183775102
 30
0.0
 40
1.0
 50
89.9999999999967457
 51
180.0
  0
LINE
  5
12682
  8
0
 10
322.4263222156777147
 20
166.481668540604602
 30
0.0
 11
287.626322215677817
 21
166.4816685406048009
 31
0.0
  0
LINE
  5
12683
  8
0
 10
302.0263222161219119
 20
139.591221402810902
 30
0.0
 11
299.0263060915996789
 21
139.591221402810902
 31
0.0
  0
LINE
  5
12684
  8
0
 10
311.0263060915447113
 20
139.5912214028107883
 30
0.0
 11
308.0263222166228729
 21
139.591221402810902
 31
0.0
  0
ARC
  5
12685
  8
0
 10
312.2257690025684269
 20
130.0912214028107883
 30
0.0
 40
0.5
 50
270.0000000000007958
 51
0.0
  0
ARC
  5
12686
  8
0
 10
312.2254107666198024
 20
137.0903565447250116
 30
0.0
 40
0.5008649861971874
 50
0.0989343319808569
 51
89.9590200747872331
  0
ARC
  5
12687
  8
0
 10
297.8257690025685065
 20
137.0912214028107883
 30
0.0
 40
0.5
 50
90.0000000000065086
 51
177.4179550963559961
  0
ARC
  5
12688
  8
0
 10
297.8257690025685065
 20
130.091221402810902
 30
0.0
 40
0.5
 50
180.0
 51
269.9999999999943157
  0
LINE
  5
12689
  8
0
 10
312.2257690025684269
 20
137.5912214028107883
 30
0.0
 11
311.0262781234445129
 21
137.5912214028107883
 31
0.0
  0
LINE
  5
1268A
  8
0
 10
311.0261662510437759
 20
129.591221402810902
 30
0.0
 11
312.2257690025684269
 21
129.5912214028107883
 31
0.0
  0
LINE
  5
1268B
  8
0
 10
297.8257690025683928
 20
129.5912214028107883
 30
0.0
 11
299.026166251577024
 21
129.5912214028107883
 31
0.0
  0
LINE
  5
1268C
  8
0
 10
299.0262781235952048
 20
137.5912214028107883
 30
0.0
 11
297.8257690025683928
 21
137.5912214028107883
 31
0.0
  0
ARC
  5
1268F
  8
0
 10
312.2257690044596075
 20
114.5972214028109022
 30
0.0
 40
0.5000000000000285
 50
270.0000000000007958
 51
0.0
  0
ARC
  5
12690
  8
0
 10
312.2257690044596075
 20
121.5972214028109022
 30
0.0
 40
0.5000000000000285
 50
0.0
 51
90.0
  0
ARC
  5
12691
  8
0
 10
297.8257690044595734
 20
121.5972214028109022
 30
0.0
 40
0.5
 50
90.0
 51
180.0
  0
ARC
  5
12692
  8
0
 10
297.8257690044595734
 20
114.5972214028109022
 30
0.0
 40
0.5
 50
180.0
 51
270.0000000000007958
  0
LINE
  5
12693
  8
0
 10
312.2257690044596075
 20
122.0972214028109022
 30
0.0
 11
311.0260614545725275
 21
122.0972214028109022
 31
0.0
  0
LINE
  5
12694
  8
0
 10
311.0257690025683814
 20
114.0972214028109022
 30
0.0
 11
312.2257690044596075
 21
114.0972214028109022
 31
0.0
  0
LINE
  5
12695
  8
0
 10
297.8257690044595734
 20
114.0972214028109022
 30
0.0
 11
299.0259495834455947
 21
114.0972214028109022
 31
0.0
  0
LINE
  5
12696
  8
0
 10
299.0260614554637755
 20
122.0972214028109022
 30
0.0
 11
297.8257690044595734
 21
122.0972214028109022
 31
0.0
  0
LINE
  5
126A1
  8
0
 10
296.7183846462103816
 20
122.0431039713437968
 30
0.0
 11
295.8376779065822006
 21
123.568532790948197
 31
0.0
  0
LINE
  5
126A2
  8
0
 10
294.1056271017022254
 20
122.5685327925005055
 30
0.0
 11
294.9863338409663811
 21
121.0431039726860973
 31
0.0
  0
LINE
  5
126A3
  8
0
 10
314.2149665266645115
 20
123.568532790947998
 30
0.0
 11
313.3342597870362738
 21
122.0431039713436974
 31
0.0
  0
LINE
  5
126A4
  8
0
 10
315.0663105922803879
 20
121.0431039726858984
 30
0.0
 11
315.9470173315444868
 21
122.568532792500406
 31
0.0
  0
LINE
  5
126A5
  8
0
 10
311.4263222166158016
 20
113.6748039740628968
 30
0.0
 11
311.0259436750653776
 21
113.6748039740564025
 31
0.0
  0
LINE
  5
126A6
  8
0
 10
299.0259436763593044
 20
113.6748039740565019
 30
0.0
 11
298.6263222166306832
 21
113.6748039740628968
 31
0.0
  0
LINE
  5
126AE
  8
0
 10
302.0263222166231003
 20
142.6748040715060029
 30
0.0
 11
298.6263222166309106
 21
142.6748040714984995
 31
0.0
  0
LINE
  5
126AF
  8
0
 10
301.3312804761263806
 20
141.6847206435473083
 30
0.0
 11
302.0263222166228161
 21
141.9721999581188072
 31
0.0
  0
LINE
  5
126B1
  8
0
 10
301.3312804761263806
 20
141.6847206435473083
 30
0.0
 11
301.3312804802642972
 21
140.7443264109024881
 31
0.0
  0
LINE
  5
126B2
  8
0
 10
308.0263222166231003
 20
141.9780525007068093
 30
0.0
 11
308.7213639040472231
 21
141.6847206435587907
 31
0.0
  0
LINE
  5
126B3
  8
0
 10
308.721363912324307
 20
140.7443264109024028
 30
0.0
 11
308.7213639040472231
 21
141.6847206435587907
 31
0.0
  0
LINE
  5
126B4
  8
0
 10
311.4263222166159153
 20
142.6748040714986132
 30
0.0
 11
308.0263222166233277
 21
142.6748040715060029
 31
0.0
  0
LINE
  5
126B7
  8
0
 10
312.4164056622507246
 20
138.2067853644302033
 30
0.0
 11
312.4164056445561073
 21
141.6847206435583928
 31
0.0
  0
LINE
  5
126B8
  8
0
 10
297.6362387886906049
 20
141.6847206435583075
 30
0.0
 11
297.6362387709962718
 21
138.2067853644306012
 31
0.0
  0
LINE
  5
126BA
  8
0
 10
313.3342597870363875
 20
134.3065040742474139
 30
0.0
 11
314.2149665266645115
 21
132.781075254643099
 31
0.0
  0
LINE
  5
126BB
  8
0
 10
315.9470173315446004
 20
133.7810752530905916
 30
0.0
 11
315.0663105922803879
 21
135.3065040729051134
 31
0.0
  0
LINE
  5
126BC
  8
0
 10
295.8376779065823143
 20
132.7810752546430137
 30
0.0
 11
296.7183846462104952
 21
134.3065040742473002
 31
0.0
  0
LINE
  5
126BD
  8
0
 10
294.9863338409663811
 20
135.3065040729051134
 30
0.0
 11
294.1056271017022823
 21
133.7810752530907052
 31
0.0
  0
LINE
  5
126C1
  8
0
 10
296.5263222166096284
 20
105.4248040228305996
 30
0.0
 11
299.0257690044596188
 21
105.4248040228305996
 31
0.0
  0
LINE
  5
126C2
  8
0
 10
311.0258283066527838
 20
105.4248040228305996
 30
0.0
 11
313.5263222166360038
 21
105.4248040228305996
 31
0.0
  0
LINE
  5
126C3
  8
0
 10
299.026322216619576
 20
96.6748040228109318
 30
0.0
 11
311.026322216626113
 21
96.6748040228109318
 31
0.0
  0
LINE
  5
126D3
  8
0
 10
297.7763222166225887
 20
129.5936723948130123
 30
0.0
 11
297.7763222166225887
 21
122.0947704106207965
 31
0.0
  0
LINE
  5
126D4
  8
0
 10
312.2763222166225887
 20
122.0946592107225968
 30
0.0
 11
312.2763222166225887
 21
129.5937835950913097
 31
0.0
  0
LINE
  5
126D5
  8
0
 10
308.0263222166228729
 20
139.5850633237992895
 30
0.0
 11
302.0263222166225887
 21
139.5850633237994884
 31
0.0
  0
LINE
  5
126DB
  8
0
 10
308.02632221567751
 20
154.0918207332651093
 30
0.0
 11
302.0263222156776237
 21
154.0918207332651946
 31
0.0
  0
LINE
  5
126DC
  8
0
 10
302.0263222156776237
 20
154.0918207332651946
 30
0.0
 11
302.0263222166227024
 21
123.2470197028108032
 31
0.0
  0
LINE
  5
126DD
  8
0
 10
308.026322220382724
 20
123.2470197028108032
 30
0.0
 11
308.02632221567751
 21
154.0918207332651093
 31
0.0
  0
LINE
  5
126E9
  8
0
 10
301.5213222156775146
 20
155.293093497062614
 30
0.0
 11
308.5313222156775055
 21
155.293093497062614
 31
0.0
  0
LINE
  5
126EA
  8
0
 10
300.5213222156776283
 20
159.0326914183775102
 30
0.0
 11
300.5213222156775146
 21
144.4227397617746078
 31
0.0
  0
LINE
  5
126EB
  8
0
 10
309.5313222156776192
 20
159.0326914183775102
 30
0.0
 11
309.5313222156775055
 21
144.4227397617744941
 31
0.0
  0
POLYLINE
  5
126EC
  8
0
 10
308.5313222156775055
 20
143.4522043439471588
 30
0.0
 66
     1
 70
     8
  0
VERTEX
  8
0
  5
14825
 10
308.531
 20
143.452
 30
0.00000
  70
    32
  0
VERTEX
  8
0
  5
14826
 10
308.544
 20
143.452
 30
0.00000
  70
    32
  0
VERTEX
  8
0
  5
14827
 10
308.556
 20
143.452
 30
0.00000
  70
    32
  0
VERTEX
  8
0
  5
14828
 10
308.568
 20
143.453
 30
0.00000
  70
    32
  0
VERTEX
  8
0
  5
14829
 10
308.580
 20
143.453
 30
0.00000
  70
    32
  0
VERTEX
  8
0
  5
1482A
 10
308.593
 20
143.454
 30
0.00000
  70
    32
  0
VERTEX
  8
0
  5
1482B
 10
308.605
 20
143.455
 30
0.00000
  70
    32
  0
VERTEX
  8
0
  5
1482C
 10
308.617
 20
143.456
 30
0.00000
  70
    32
  0
VERTEX
  8
0
  5
1482D
 10
308.629
 20
143.457
 30
0.00000
  70
    32
  0
VERTEX
  8
0
  5
1482E
 10
308.642
 20
143.458
 30
0.00000
  70
    32
  0
VERTEX
  8
0
  5
1482F
 10
308.654
 20
143.460
 30
0.00000
  70
    32
  0
VERTEX
  8
0
  5
14830
 10
308.666
 20
143.461
 30
0.00000
  70
    32
  0
VERTEX
  8
0
  5
14831
 10
308.678
 20
143.463
 30
0.00000
  70
    32
  0
VERTEX
  8
0
  5
14832
 10
308.690
 20
143.465
 30
0.00000
  70
    32
  0
VERTEX
  8
0
  5
14833
 10
308.702
 20
143.466
 30
0.00000
  70
    32
  0
VERTEX
  8
0
  5
14834
 10
308.714
 20
143.469
 30
0.00000
  70
    32
  0
VERTEX
  8
0
  5
14835
 10
308.726
 20
143.471
 30
0.00000
  70
    32
  0
VERTEX
  8
0
  5
14836
 10
308.738
 20
143.473
 30
0.00000
  70
    32
  0
VERTEX
  8
0
  5
14837
 10
308.750
 20
143.476
 30
0.00000
  70
    32
  0
VERTEX
  8
0
  5
14838
 10
308.762
 20
143.478
 30
0.00000
  70
    32
  0
VERTEX
  8
0
  5
14839
 10
308.774
 20
143.481
 30
0.00000
  70
    32
  0
VERTEX
  8
0
  5
1483A
 10
308.786
 20
143.484
 30
0.00000
  70
    32
  0
VERTEX
  8
0
  5
1483B
 10
308.798
 20
143.487
 30
0.00000
  70
    32
  0
VERTEX
  8
0
  5
1483C
 10
308.810
 20
143.491
 30
0.00000
  70
    32
  0
VERTEX
  8
0
  5
1483D
 10
308.822
 20
143.494
 30
0.00000
  70
    32
  0
VERTEX
  8
0
  5
1483E
 10
308.833
 20
143.498
 30
0.00000
  70
    32
  0
VERTEX
  8
0
  5
1483F
 10
308.845
 20
143.501
 30
0.00000
  70
    32
  0
VERTEX
  8
0
  5
14840
 10
308.857
 20
143.505
 30
0.00000
  70
    32
  0
VERTEX
  8
0
  5
14841
 10
308.868
 20
143.509
 30
0.00000
  70
    32
  0
VERTEX
  8
0
  5
14842
 10
308.880
 20
143.513
 30
0.00000
  70
    32
  0
VERTEX
  8
0
  5
14843
 10
308.891
 20
143.517
 30
0.00000
  70
    32
  0
VERTEX
  8
0
  5
14844
 10
308.903
 20
143.522
 30
0.00000
  70
    32
  0
VERTEX
  8
0
  5
14845
 10
308.914
 20
143.526
 30
0.00000
  70
    32
  0
VERTEX
  8
0
  5
14846
 10
308.925
 20
143.531
 30
0.00000
  70
    32
  0
VERTEX
  8
0
  5
14847
 10
308.937
 20
143.535
 30
0.00000
  70
    32
  0
VERTEX
  8
0
  5
14848
 10
308.948
 20
143.540
 30
0.00000
  70
    32
  0
VERTEX
  8
0
  5
14849
 10
308.959
 20
143.545
 30
0.00000
  70
    32
  0
VERTEX
  8
0
  5
1484A
 10
308.970
 20
143.551
 30
0.00000
  70
    32
  0
VERTEX
  8
0
  5
1484B
 10
308.981
 20
143.556
 30
0.00000
  70
    32
  0
VERTEX
  8
0
  5
1484C
 10
308.992
 20
143.561
 30
0.00000
  70
    32
  0
VERTEX
  8
0
  5
1484D
 10
309.003
 20
143.567
 30
0.00000
  70
    32
  0
VERTEX
  8
0
  5
1484E
 10
309.014
 20
143.572
 30
0.00000
  70
    32
  0
VERTEX
  8
0
  5
1484F
 10
309.024
 20
143.578
 30
0.00000
  70
    32
  0
VERTEX
  8
0
  5
14850
 10
309.035
 20
143.584
 30
0.00000
  70
    32
  0
VERTEX
  8
0
  5
14851
 10
309.045
 20
143.590
 30
0.00000
  70
    32
  0
VERTEX
  8
0
  5
14852
 10
309.056
 20
143.596
 30
0.00000
  70
    32
  0
VERTEX
  8
0
  5
14853
 10
309.066
 20
143.603
 30
0.00000
  70
    32
  0
VERTEX
  8
0
  5
14854
 10
309.077
 20
143.609
 30
0.00000
  70
    32
  0
VERTEX
  8
0
  5
14855
 10
309.087
 20
143.616
 30
0.00000
  70
    32
  0
VERTEX
  8
0
  5
14856
 10
309.097
 20
143.622
 30
0.00000
  70
    32
  0
VERTEX
  8
0
  5
14857
 10
309.107
 20
143.629
 30
0.00000
  70
    32
  0
VERTEX
  8
0
  5
14858
 10
309.117
 20
143.636
 30
0.00000
  70
    32
  0
VERTEX
  8
0
  5
14859
 10
309.127
 20
143.643
 30
0.00000
  70
    32
  0
VERTEX
  8
0
  5
1485A
 10
309.137
 20
143.650
 30
0.00000
  70
    32
  0
VERTEX
  8
0
  5
1485B
 10
309.147
 20
143.658
 30
0.00000
  70
    32
  0
VERTEX
  8
0
  5
1485C
 10
309.156
 20
143.665
 30
0.00000
  70
    32
  0
VERTEX
  8
0
  5
1485D
 10
309.166
 20
143.673
 30
0.00000
  70
    32
  0
VERTEX
  8
0
  5
1485E
 10
309.175
 20
143.680
 30
0.00000
  70
    32
  0
VERTEX
  8
0
  5
1485F
 10
309.184
 20
143.688
 30
0.00000
  70
    32
  0
VERTEX
  8
0
  5
14860
 10
309.194
 20
143.696
 30
0.00000
  70
    32
  0
VERTEX
  8
0
  5
14861
 10
309.203
 20
143.704
 30
0.00000
  70
    32
  0
VERTEX
  8
0
  5
14862
 10
309.212
 20
143.712
 30
0.00000
  70
    32
  0
VERTEX
  8
0
  5
14863
 10
309.221
 20
143.720
 30
0.00000
  70
    32
  0
VERTEX
  8
0
  5
14864
 10
309.230
 20
143.728
 30
0.00000
  70
    32
  0
VERTEX
  8
0
  5
14865
 10
309.238
 20
143.736
 30
0.00000
  70
    32
  0
VERTEX
  8
0
  5
14866
 10
309.247
 20
143.745
 30
0.00000
  70
    32
  0
VERTEX
  8
0
  5
14867
 10
309.256
 20
143.754
 30
0.00000
  70
    32
  0
VERTEX
  8
0
  5
14868
 10
309.264
 20
143.762
 30
0.00000
  70
    32
  0
VERTEX
  8
0
  5
14869
 10
309.272
 20
143.771
 30
0.00000
  70
    32
  0
VERTEX
  8
0
  5
1486A
 10
309.280
 20
143.780
 30
0.00000
  70
    32
  0
VERTEX
  8
0
  5
1486B
 10
309.289
 20
143.789
 30
0.00000
  70
    32
  0
VERTEX
  8
0
  5
1486C
 10
309.296
 20
143.798
 30
0.00000
  70
    32
  0
VERTEX
  8
0
  5
1486D
 10
309.304
 20
143.807
 30
0.00000
  70
    32
  0
VERTEX
  8
0
  5
1486E
 10
309.312
 20
143.816
 30
0.00000
  70
    32
  0
VERTEX
  8
0
  5
1486F
 10
309.320
 20
143.826
 30
0.00000
  70
    32
  0
VERTEX
  8
0
  5
14870
 10
309.327
 20
143.835
 30
0.00000
  70
    32
  0
VERTEX
  8
0
  5
14871
 10
309.335
 20
143.845
 30
0.00000
  70
    32
  0
VERTEX
  8
0
  5
14872
 10
309.342
 20
143.854
 30
0.00000
  70
    32
  0
VERTEX
  8
0
  5
14873
 10
309.349
 20
143.864
 30
0.00000
  70
    32
  0
VERTEX
  8
0
  5
14874
 10
309.356
 20
143.874
 30
0.00000
  70
    32
  0
VERTEX
  8
0
  5
14875
 10
309.363
 20
143.884
 30
0.00000
  70
    32
  0
VERTEX
  8
0
  5
14876
 10
309.370
 20
143.893
 30
0.00000
  70
    32
  0
VERTEX
  8
0
  5
14877
 10
309.376
 20
143.904
 30
0.00000
  70
    32
  0
VERTEX
  8
0
  5
14878
 10
309.383
 20
143.914
 30
0.00000
  70
    32
  0
VERTEX
  8
0
  5
14879
 10
309.389
 20
143.924
 30
0.00000
  70
    32
  0
VERTEX
  8
0
  5
1487A
 10
309.395
 20
143.934
 30
0.00000
  70
    32
  0
VERTEX
  8
0
  5
1487B
 10
309.401
 20
143.944
 30
0.00000
  70
    32
  0
VERTEX
  8
0
  5
1487C
 10
309.407
 20
143.955
 30
0.00000
  70
    32
  0
VERTEX
  8
0
  5
1487D
 10
309.413
 20
143.965
 30
0.00000
  70
    32
  0
VERTEX
  8
0
  5
1487E
 10
309.419
 20
143.976
 30
0.00000
  70
    32
  0
VERTEX
  8
0
  5
1487F
 10
309.425
 20
143.986
 30
0.00000
  70
    32
  0
VERTEX
  8
0
  5
14880
 10
309.430
 20
143.997
 30
0.00000
  70
    32
  0
VERTEX
  8
0
  5
14881
 10
309.435
 20
144.008
 30
0.00000
  70
    32
  0
VERTEX
  8
0
  5
14882
 10
309.440
 20
144.019
 30
0.00000
  70
    32
  0
VERTEX
  8
0
  5
14883
 10
309.446
 20
144.029
 30
0.00000
  70
    32
  0
VERTEX
  8
0
  5
14884
 10
309.450
 20
144.040
 30
0.00000
  70
    32
  0
VERTEX
  8
0
  5
14885
 10
309.455
 20
144.051
 30
0.00000
  70
    32
  0
VERTEX
  8
0
  5
14886
 10
309.460
 20
144.062
 30
0.00000
  70
    32
  0
VERTEX
  8
0
  5
14887
 10
309.464
 20
144.073
 30
0.00000
  70
    32
  0
VERTEX
  8
0
  5
14888
 10
309.469
 20
144.085
 30
0.00000
  70
    32
  0
VERTEX
  8
0
  5
14889
 10
309.473
 20
144.096
 30
0.00000
  70
    32
  0
VERTEX
  8
0
  5
1488A
 10
309.477
 20
144.107
 30
0.00000
  70
    32
  0
VERTEX
  8
0
  5
1488B
 10
309.481
 20
144.118
 30
0.00000
  70
    32
  0
VERTEX
  8
0
  5
1488C
 10
309.485
 20
144.130
 30
0.00000
  70
    32
  0
VERTEX
  8
0
  5
1488D
 10
309.488
 20
144.141
 30
0.00000
  70
    32
  0
VERTEX
  8
0
  5
1488E
 10
309.492
 20
144.152
 30
0.00000
  70
    32
  0
VERTEX
  8
0
  5
1488F
 10
309.495
 20
144.164
 30
0.00000
  70
    32
  0
VERTEX
  8
0
  5
14890
 10
309.498
 20
144.175
 30
0.00000
  70
    32
  0
VERTEX
  8
0
  5
14891
 10
309.501
 20
144.187
 30
0.00000
  70
    32
  0
VERTEX
  8
0
  5
14892
 10
309.504
 20
144.198
 30
0.00000
  70
    32
  0
VERTEX
  8
0
  5
14893
 10
309.507
 20
144.210
 30
0.00000
  70
    32
  0
VERTEX
  8
0
  5
14894
 10
309.510
 20
144.222
 30
0.00000
  70
    32
  0
VERTEX
  8
0
  5
14895
 10
309.512
 20
144.233
 30
0.00000
  70
    32
  0
VERTEX
  8
0
  5
14896
 10
309.514
 20
144.245
 30
0.00000
  70
    32
  0
VERTEX
  8
0
  5
14897
 10
309.517
 20
144.257
 30
0.00000
  70
    32
  0
VERTEX
  8
0
  5
14898
 10
309.519
 20
144.269
 30
0.00000
  70
    32
  0
VERTEX
  8
0
  5
14899
 10
309.520
 20
144.280
 30
0.00000
  70
    32
  0
VERTEX
  8
0
  5
1489A
 10
309.522
 20
144.292
 30
0.00000
  70
    32
  0
VERTEX
  8
0
  5
1489B
 10
309.524
 20
144.304
 30
0.00000
  70
    32
  0
VERTEX
  8
0
  5
1489C
 10
309.525
 20
144.316
 30
0.00000
  70
    32
  0
VERTEX
  8
0
  5
1489D
 10
309.527
 20
144.328
 30
0.00000
  70
    32
  0
VERTEX
  8
0
  5
1489E
 10
309.528
 20
144.339
 30
0.00000
  70
    32
  0
VERTEX
  8
0
  5
1489F
 10
309.529
 20
144.351
 30
0.00000
  70
    32
  0
VERTEX
  8
0
  5
148A0
 10
309.529
 20
144.363
 30
0.00000
  70
    32
  0
VERTEX
  8
0
  5
148A1
 10
309.530
 20
144.375
 30
0.00000
  70
    32
  0
VERTEX
  8
0
  5
148A2
 10
309.531
 20
144.387
 30
0.00000
  70
    32
  0
VERTEX
  8
0
  5
148A3
 10
309.531
 20
144.399
 30
0.00000
  70
    32
  0
VERTEX
  8
0
  5
148A4
 10
309.531
 20
144.411
 30
0.00000
  70
    32
  0
VERTEX
  8
0
  5
148A5
 10
309.531
 20
144.423
 30
0.00000
  70
    32
  0
SEQEND
  8
0
  5
148A6
  0
LINE
  5
126ED
  8
0
 10
301.5213222156775146
 20
143.4522043439471872
 30
0.0
 11
302.0263222166227024
 21
143.4522043439471872
 31
0.0
  0
LINE
  5
126EE
  8
0
 10
308.0263222166229866
 20
143.4522043439471872
 30
0.0
 11
308.5313222156775055
 21
143.4522043439471872
 31
0.0
  0
POLYLINE
  5
126EF
  8
0
 10
300.5213222156775146
 20
144.4227397617746078
 30
0.0
 66
     1
 70
     8
  0
VERTEX
  8
0
  5
148A7
 10
300.521
 20
144.423
 30
0.00000
  70
    32
  0
VERTEX
  8
0
  5
148A8
 10
300.521
 20
144.411
 30
0.00000
  70
    32
  0
VERTEX
  8
0
  5
148A9
 10
300.522
 20
144.399
 30
0.00000
  70
    32
  0
VERTEX
  8
0
  5
148AA
 10
300.522
 20
144.387
 30
0.00000
  70
    32
  0
VERTEX
  8
0
  5
148AB
 10
300.523
 20
144.375
 30
0.00000
  70
    32
  0
VERTEX
  8
0
  5
148AC
 10
300.523
 20
144.363
 30
0.00000
  70
    32
  0
VERTEX
  8
0
  5
148AD
 10
300.524
 20
144.351
 30
0.00000
  70
    32
  0
VERTEX
  8
0
  5
148AE
 10
300.525
 20
144.339
 30
0.00000
  70
    32
  0
VERTEX
  8
0
  5
148AF
 10
300.526
 20
144.328
 30
0.00000
  70
    32
  0
VERTEX
  8
0
  5
148B0
 10
300.527
 20
144.316
 30
0.00000
  70
    32
  0
VERTEX
  8
0
  5
148B1
 10
300.529
 20
144.304
 30
0.00000
  70
    32
  0
VERTEX
  8
0
  5
148B2
 10
300.530
 20
144.292
 30
0.00000
  70
    32
  0
VERTEX
  8
0
  5
148B3
 10
300.532
 20
144.280
 30
0.00000
  70
    32
  0
VERTEX
  8
0
  5
148B4
 10
300.534
 20
144.269
 30
0.00000
  70
    32
  0
VERTEX
  8
0
  5
148B5
 10
300.536
 20
144.257
 30
0.00000
  70
    32
  0
VERTEX
  8
0
  5
148B6
 10
300.538
 20
144.245
 30
0.00000
  70
    32
  0
VERTEX
  8
0
  5
148B7
 10
300.541
 20
144.233
 30
0.00000
  70
    32
  0
VERTEX
  8
0
  5
148B8
 10
300.543
 20
144.222
 30
0.00000
  70
    32
  0
VERTEX
  8
0
  5
148B9
 10
300.546
 20
144.210
 30
0.00000
  70
    32
  0
VERTEX
  8
0
  5
148BA
 10
300.548
 20
144.198
 30
0.00000
  70
    32
  0
VERTEX
  8
0
  5
148BB
 10
300.551
 20
144.187
 30
0.00000
  70
    32
  0
VERTEX
  8
0
  5
148BC
 10
300.554
 20
144.175
 30
0.00000
  70
    32
  0
VERTEX
  8
0
  5
148BD
 10
300.558
 20
144.164
 30
0.00000
  70
    32
  0
VERTEX
  8
0
  5
148BE
 10
300.561
 20
144.152
 30
0.00000
  70
    32
  0
VERTEX
  8
0
  5
148BF
 10
300.564
 20
144.141
 30
0.00000
  70
    32
  0
VERTEX
  8
0
  5
148C0
 10
300.568
 20
144.130
 30
0.00000
  70
    32
  0
VERTEX
  8
0
  5
148C1
 10
300.572
 20
144.118
 30
0.00000
  70
    32
  0
VERTEX
  8
0
  5
148C2
 10
300.576
 20
144.107
 30
0.00000
  70
    32
  0
VERTEX
  8
0
  5
148C3
 10
300.580
 20
144.096
 30
0.00000
  70
    32
  0
VERTEX
  8
0
  5
148C4
 10
300.584
 20
144.085
 30
0.00000
  70
    32
  0
VERTEX
  8
0
  5
148C5
 10
300.588
 20
144.073
 30
0.00000
  70
    32
  0
VERTEX
  8
0
  5
148C6
 10
300.593
 20
144.062
 30
0.00000
  70
    32
  0
VERTEX
  8
0
  5
148C7
 10
300.597
 20
144.051
 30
0.00000
  70
    32
  0
VERTEX
  8
0
  5
148C8
 10
300.602
 20
144.040
 30
0.00000
  70
    32
  0
VERTEX
  8
0
  5
148C9
 10
300.607
 20
144.029
 30
0.00000
  70
    32
  0
VERTEX
  8
0
  5
148CA
 10
300.612
 20
144.019
 30
0.00000
  70
    32
  0
VERTEX
  8
0
  5
148CB
 10
300.617
 20
144.008
 30
0.00000
  70
    32
  0
VERTEX
  8
0
  5
148CC
 10
300.623
 20
143.997
 30
0.00000
  70
    32
  0
VERTEX
  8
0
  5
148CD
 10
300.628
 20
143.986
 30
0.00000
  70
    32
  0
VERTEX
  8
0
  5
148CE
 10
300.634
 20
143.976
 30
0.00000
  70
    32
  0
VERTEX
  8
0
  5
148CF
 10
300.639
 20
143.965
 30
0.00000
  70
    32
  0
VERTEX
  8
0
  5
148D0
 10
300.645
 20
143.955
 30
0.00000
  70
    32
  0
VERTEX
  8
0
  5
148D1
 10
300.651
 20
143.944
 30
0.00000
  70
    32
  0
VERTEX
  8
0
  5
148D2
 10
300.657
 20
143.934
 30
0.00000
  70
    32
  0
VERTEX
  8
0
  5
148D3
 10
300.664
 20
143.924
 30
0.00000
  70
    32
  0
VERTEX
  8
0
  5
148D4
 10
300.670
 20
143.914
 30
0.00000
  70
    32
  0
VERTEX
  8
0
  5
148D5
 10
300.676
 20
143.904
 30
0.00000
  70
    32
  0
VERTEX
  8
0
  5
148D6
 10
300.683
 20
143.893
 30
0.00000
  70
    32
  0
VERTEX
  8
0
  5
148D7
 10
300.690
 20
143.884
 30
0.00000
  70
    32
  0
VERTEX
  8
0
  5
148D8
 10
300.697
 20
143.874
 30
0.00000
  70
    32
  0
VERTEX
  8
0
  5
148D9
 10
300.704
 20
143.864
 30
0.00000
  70
    32
  0
VERTEX
  8
0
  5
148DA
 10
300.711
 20
143.854
 30
0.00000
  70
    32
  0
VERTEX
  8
0
  5
148DB
 10
300.718
 20
143.845
 30
0.00000
  70
    32
  0
VERTEX
  8
0
  5
148DC
 10
300.725
 20
143.835
 30
0.00000
  70
    32
  0
VERTEX
  8
0
  5
148DD
 10
300.733
 20
143.826
 30
0.00000
  70
    32
  0
VERTEX
  8
0
  5
148DE
 10
300.741
 20
143.816
 30
0.00000
  70
    32
  0
VERTEX
  8
0
  5
148DF
 10
300.748
 20
143.807
 30
0.00000
  70
    32
  0
VERTEX
  8
0
  5
148E0
 10
300.756
 20
143.798
 30
0.00000
  70
    32
  0
VERTEX
  8
0
  5
148E1
 10
300.764
 20
143.789
 30
0.00000
  70
    32
  0
VERTEX
  8
0
  5
148E2
 10
300.772
 20
143.780
 30
0.00000
  70
    32
  0
VERTEX
  8
0
  5
148E3
 10
300.780
 20
143.771
 30
0.00000
  70
    32
  0
VERTEX
  8
0
  5
148E4
 10
300.789
 20
143.762
 30
0.00000
  70
    32
  0
VERTEX
  8
0
  5
148E5
 10
300.797
 20
143.754
 30
0.00000
  70
    32
  0
VERTEX
  8
0
  5
148E6
 10
300.806
 20
143.745
 30
0.00000
  70
    32
  0
VERTEX
  8
0
  5
148E7
 10
300.814
 20
143.736
 30
0.00000
  70
    32
  0
VERTEX
  8
0
  5
148E8
 10
300.823
 20
143.728
 30
0.00000
  70
    32
  0
VERTEX
  8
0
  5
148E9
 10
300.832
 20
143.720
 30
0.00000
  70
    32
  0
VERTEX
  8
0
  5
148EA
 10
300.841
 20
143.712
 30
0.00000
  70
    32
  0
VERTEX
  8
0
  5
148EB
 10
300.850
 20
143.704
 30
0.00000
  70
    32
  0
VERTEX
  8
0
  5
148EC
 10
300.859
 20
143.696
 30
0.00000
  70
    32
  0
VERTEX
  8
0
  5
148ED
 10
300.868
 20
143.688
 30
0.00000
  70
    32
  0
VERTEX
  8
0
  5
148EE
 10
300.877
 20
143.680
 30
0.00000
  70
    32
  0
VERTEX
  8
0
  5
148EF
 10
300.887
 20
143.673
 30
0.00000
  70
    32
  0
VERTEX
  8
0
  5
148F0
 10
300.896
 20
143.665
 30
0.00000
  70
    32
  0
VERTEX
  8
0
  5
148F1
 10
300.906
 20
143.658
 30
0.00000
  70
    32
  0
VERTEX
  8
0
  5
148F2
 10
300.916
 20
143.650
 30
0.00000
  70
    32
  0
VERTEX
  8
0
  5
148F3
 10
300.926
 20
143.643
 30
0.00000
  70
    32
  0
VERTEX
  8
0
  5
148F4
 10
300.936
 20
143.636
 30
0.00000
  70
    32
  0
VERTEX
  8
0
  5
148F5
 10
300.946
 20
143.629
 30
0.00000
  70
    32
  0
VERTEX
  8
0
  5
148F6
 10
300.956
 20
143.622
 30
0.00000
  70
    32
  0
VERTEX
  8
0
  5
148F7
 10
300.966
 20
143.616
 30
0.00000
  70
    32
  0
VERTEX
  8
0
  5
148F8
 10
300.976
 20
143.609
 30
0.00000
  70
    32
  0
VERTEX
  8
0
  5
148F9
 10
300.986
 20
143.603
 30
0.00000
  70
    32
  0
VERTEX
  8
0
  5
148FA
 10
300.997
 20
143.596
 30
0.00000
  70
    32
  0
VERTEX
  8
0
  5
148FB
 10
301.007
 20
143.590
 30
0.00000
  70
    32
  0
VERTEX
  8
0
  5
148FC
 10
301.018
 20
143.584
 30
0.00000
  70
    32
  0
VERTEX
  8
0
  5
148FD
 10
301.028
 20
143.578
 30
0.00000
  70
    32
  0
VERTEX
  8
0
  5
148FE
 10
301.039
 20
143.572
 30
0.00000
  70
    32
  0
VERTEX
  8
0
  5
148FF
 10
301.050
 20
143.567
 30
0.00000
  70
    32
  0
VERTEX
  8
0
  5
14900
 10
301.061
 20
143.561
 30
0.00000
  70
    32
  0
VERTEX
  8
0
  5
14901
 10
301.072
 20
143.556
 30
0.00000
  70
    32
  0
VERTEX
  8
0
  5
14902
 10
301.083
 20
143.551
 30
0.00000
  70
    32
  0
VERTEX
  8
0
  5
14903
 10
301.094
 20
143.545
 30
0.00000
  70
    32
  0
VERTEX
  8
0
  5
14904
 10
301.105
 20
143.540
 30
0.00000
  70
    32
  0
VERTEX
  8
0
  5
14905
 10
301.116
 20
143.535
 30
0.00000
  70
    32
  0
VERTEX
  8
0
  5
14906
 10
301.127
 20
143.531
 30
0.00000
  70
    32
  0
VERTEX
  8
0
  5
14907
 10
301.139
 20
143.526
 30
0.00000
  70
    32
  0
VERTEX
  8
0
  5
14908
 10
301.150
 20
143.522
 30
0.00000
  70
    32
  0
VERTEX
  8
0
  5
14909
 10
301.161
 20
143.517
 30
0.00000
  70
    32
  0
VERTEX
  8
0
  5
1490A
 10
301.173
 20
143.513
 30
0.00000
  70
    32
  0
VERTEX
  8
0
  5
1490B
 10
301.184
 20
143.509
 30
0.00000
  70
    32
  0
VERTEX
  8
0
  5
1490C
 10
301.196
 20
143.505
 30
0.00000
  70
    32
  0
VERTEX
  8
0
  5
1490D
 10
301.208
 20
143.501
 30
0.00000
  70
    32
  0
VERTEX
  8
0
  5
1490E
 10
301.219
 20
143.498
 30
0.00000
  70
    32
  0
VERTEX
  8
0
  5
1490F
 10
301.231
 20
143.494
 30
0.00000
  70
    32
  0
VERTEX
  8
0
  5
14910
 10
301.243
 20
143.491
 30
0.00000
  70
    32
  0
VERTEX
  8
0
  5
14911
 10
301.255
 20
143.487
 30
0.00000
  70
    32
  0
VERTEX
  8
0
  5
14912
 10
301.266
 20
143.484
 30
0.00000
  70
    32
  0
VERTEX
  8
0
  5
14913
 10
301.278
 20
143.481
 30
0.00000
  70
    32
  0
VERTEX
  8
0
  5
14914
 10
301.290
 20
143.478
 30
0.00000
  70
    32
  0
VERTEX
  8
0
  5
14915
 10
301.302
 20
143.476
 30
0.00000
  70
    32
  0
VERTEX
  8
0
  5
14916
 10
301.314
 20
143.473
 30
0.00000
  70
    32
  0
VERTEX
  8
0
  5
14917
 10
301.326
 20
143.471
 30
0.00000
  70
    32
  0
VERTEX
  8
0
  5
14918
 10
301.338
 20
143.469
 30
0.00000
  70
    32
  0
VERTEX
  8
0
  5
14919
 10
301.350
 20
143.466
 30
0.00000
  70
    32
  0
VERTEX
  8
0
  5
1491A
 10
301.362
 20
143.465
 30
0.00000
  70
    32
  0
VERTEX
  8
0
  5
1491B
 10
301.375
 20
143.463
 30
0.00000
  70
    32
  0
VERTEX
  8
0
  5
1491C
 10
301.387
 20
143.461
 30
0.00000
  70
    32
  0
VERTEX
  8
0
  5
1491D
 10
301.399
 20
143.460
 30
0.00000
  70
    32
  0
VERTEX
  8
0
  5
1491E
 10
301.411
 20
143.458
 30
0.00000
  70
    32
  0
VERTEX
  8
0
  5
1491F
 10
301.423
 20
143.457
 30
0.00000
  70
    32
  0
VERTEX
  8
0
  5
14920
 10
301.436
 20
143.456
 30
0.00000
  70
    32
  0
VERTEX
  8
0
  5
14921
 10
301.448
 20
143.455
 30
0.00000
  70
    32
  0
VERTEX
  8
0
  5
14922
 10
301.460
 20
143.454
 30
0.00000
  70
    32
  0
VERTEX
  8
0
  5
14923
 10
301.472
 20
143.453
 30
0.00000
  70
    32
  0
VERTEX
  8
0
  5
14924
 10
301.485
 20
143.453
 30
0.00000
  70
    32
  0
VERTEX
  8
0
  5
14925
 10
301.497
 20
143.452
 30
0.00000
  70
    32
  0
VERTEX
  8
0
  5
14926
 10
301.509
 20
143.452
 30
0.00000
  70
    32
  0
VERTEX
  8
0
  5
14927
 10
301.521
 20
143.452
 30
0.00000
  70
    32
  0
SEQEND
  8
0
  5
14928
  0
LINE
  5
12714
  8
0
 10
307.7757690025683814
 20
123.2470197028108032
 30
0.0
 11
302.2757690044595051
 21
123.2470197028109027
 31
0.0
  0
LINE
  5
12715
  8
0
 10
302.2757690044593915
 20
103.2470197028109027
 30
0.0
 11
307.7757690025683814
 21
103.2470197028108032
 31
0.0
  0
LINE
  5
12717
  8
0
 10
299.0260775342459283
 20
123.2470197028108032
 30
0.0
 11
302.2757690044595051
 21
123.2470197028109027
 31
0.0
  0
LINE
  5
12718
  8
0
 10
302.2757690044593915
 20
103.2470197028109027
 30
0.0
 11
299.0257978542002775
 21
103.2470197028109027
 31
0.0
  0
LINE
  5
1271A
  8
0
 10
311.0257690025683814
 20
123.2470197028108032
 30
0.0
 11
307.7757690025683814
 21
123.2470197028108032
 31
0.0
  0
LINE
  5
1271B
  8
0
 10
307.7757690025683814
 20
103.2470197028108032
 30
0.0
 11
311.0257690025683814
 21
103.2470197028108032
 31
0.0
  0
ARC
  5
1271C
  8
0
 10
298.7757690044593915
 20
101.433966488756397
 30
0.0
 40
3.250000000000056
 50
270.0000000000007958
 51
0.0
  0
LINE
  5
1271D
  8
0
 10
298.7757690044593915
 20
98.1839664887564112
 30
0.0
 11
281.7257690044594938
 21
98.1839664887565107
 31
0.0
  0
LINE
  5
1271F
  8
0
 10
281.7257690044594938
 20
101.1839664887564965
 30
0.0
 11
299.0257690044595051
 21
101.183966488756397
 31
0.0
  0
LINE
  5
12720
  8
0
 10
299.0257690044595051
 20
101.183966488756397
 30
0.0
 11
299.0263222166228161
 21
140.7443264109024881
 31
0.0
  0
LINE
  5
12721
  8
0
 10
302.0257690044595051
 20
103.2470197028109027
 30
0.0
 11
302.0257690044595051
 21
101.433966488756397
 31
0.0
  0
LINE
  5
12722
  8
0
 10
299.026222187586086
 20
133.591221402810902
 30
0.0
 11
302.0263222163056867
 21
133.591221402810902
 31
0.0
  0
LINE
  5
12725
  8
0
 10
311.0257690025683246
 20
101.183966488756397
 30
0.0
 11
328.3257690025682223
 21
101.183966488756397
 31
0.0
  0
LINE
  5
12727
  8
0
 10
328.3257690025682223
 20
98.1839664887564254
 30
0.0
 11
311.2757690025683814
 21
98.1839664887564112
 31
0.0
  0
ARC
  5
12728
  8
0
 10
311.2757690025683814
 20
101.433966488756397
 30
0.0
 40
3.2500000000000142
 50
180.0
 51
270.0000000000007958
  0
LINE
  5
12729
  8
0
 10
311.0263222166228729
 20
140.7443264109024028
 30
0.0
 11
311.0257690025683246
 21
101.183966488756397
 31
0.0
  0
LINE
  5
1272A
  8
0
 10
308.0257690025683814
 20
101.433966488756397
 30
0.0
 11
308.0257690025683246
 21
103.2470197028108032
 31
0.0
  0
LINE
  5
1272B
  8
0
 10
308.0257690025683814
 20
133.591221402810902
 30
0.0
 11
311.0257690025683814
 21
133.591221402810902
 31
0.0
  0
LINE
  5
12738
  8
0
 10
328.3257690025682223
 20
101.183966488756198
 30
0.0
 11
328.3257690025682223
 21
98.1839664887564254
 31
0.0
  0
LINE
  5
1273B
  8
0
 10
281.7257690044594938
 20
98.1839664887565107
 30
0.0
 11
281.7257690044594938
 21
101.1839664887564965
 31
0.0
  0
LINE
  5
1275B
  8
1
 10
305.0257690035139149
 20
90.784435025270426
 30
0.0
 11
305.0257690035143128
 21
171.6703378957953134
 31
0.0
  0
LINE
  5
1275C
  8
1
 10
319.7263222166228047
 20
103.183966488756397
 30
0.0
 11
319.7263222166228047
 21
96.1839664887563117
 31
0.0
  0
LINE
  5
1275D
  8
1
 10
290.3263222166228275
 20
103.1839664887564965
 30
0.0
 11
290.3263222166227138
 21
96.1839664887565675
 31
0.0
  0
LINE
  5
12768
  8
0
 10
78.2565646988668391
 20
166.4816685406048009
 30
0.0
 11
86.3893084541571881
 21
166.2511027471774128
 31
0.0
  0
ARC
  5
1276A
  8
0
 10
86.3565646988669471
 20
165.2516389676989093
 30
0.0
 40
1.0
 50
0.0000000000002036
 51
88.1235856138359992
  0
LINE
  5
1276D
  8
0
 10
78.2565646988668107
 20
160.0326914183775955
 30
0.0
 11
86.3893592724675443
 21
160.2636171023602003
 31
0.0
  0
ARC
  5
1276E
  8
0
 10
86.3565646988669755
 20
161.2630792156703876
 30
0.0
 40
1.0
 50
271.8793276254343141
 51
0.0000000000002036
  0
LINE
  5
1276F
  8
0
 10
34.3565646988668902
 20
161.2630792156703023
 30
0.0
 11
34.3565646988670821
 21
165.2516389676987956
 31
0.0
  0
ARC
  5
12770
  8
0
 10
35.3565646988668902
 20
161.2630792156703023
 30
0.0
 40
1.0
 50
179.9999999999972999
 51
268.1206723745631848
  0
ARC
  5
12771
  8
0
 10
35.3565646988670821
 20
165.2516389676987956
 30
0.0
 40
1.0
 50
91.8764143861621534
 51
179.9999999999972999
  0
LINE
  5
12772
  8
0
 10
55.3515646988665466
 20
160.0326914183777944
 30
0.0
 11
43.4565646988665719
 21
160.0326914183783913
 31
0.0
  0
LINE
  5
12773
  8
0
 10
43.4565646988668277
 20
166.4816685406055967
 30
0.0
 11
35.3238209435768766
 21
166.2511027471772991
 31
0.0
  0
LINE
  5
12774
  8
0
 10
43.4565646988665719
 20
160.0326914183783913
 30
0.0
 11
35.3237701252662717
 21
160.2636171023600866
 31
0.0
  0
ARC
  5
12775
  8
0
 10
55.3515646988665111
 20
159.0326914183777092
 30
0.0
 40
1.0
 50
359.9999999999973852
 51
89.9999999999967457
  0
ARC
  5
12777
  8
0
 10
68.5240259808381609
 20
133.9337666086298952
 30
0.0
 40
2.7410386629179868
 50
30.0535527337129693
 51
89.9464472662856025
  0
ARC
  5
12778
  8
0
 10
68.533749553039911
 20
133.950608324435791
 30
0.0
 40
0.7242311596342708
 50
29.4334184923368483
 51
90.5665818693273224
  0
ARC
  5
12779
  8
0
 10
53.1888198271355535
 20
133.9342577972273887
 30
0.0
 40
2.740547224098612
 50
90.0476334500307445
 51
149.9523665499677918
  0
ARC
  5
1277A
  8
0
 10
53.1802929415535601
 20
133.9490267909957879
 30
0.0
 40
0.7258041806673189
 50
89.5067302116373469
 51
150.4932694266954059
  0
ARC
  5
1277B
  8
0
 10
53.1793798428030513
 20
122.398999721155505
 30
0.0
 40
0.7242311596345204
 50
209.433418492348892
 51
270.566581869324807
  0
ARC
  5
1277C
  8
0
 10
53.1891034150048512
 20
122.4158414369615002
 30
0.0
 40
2.7410386629182919
 50
210.0535527337167991
 51
269.9464472662837125
  0
ARC
  5
1277D
  8
0
 10
68.5243095687072952
 20
122.4153502483635947
 30
0.0
 40
2.7405472240985702
 50
270.047633450033004
 51
329.9523665499692129
  0
ARC
  5
1277E
  8
0
 10
68.5328364542893667
 20
122.4005812545952949
 30
0.0
 40
0.7258041806672197
 50
269.5067302116360111
 51
330.4932694266973954
  0
LINE
  5
1277F
  8
0
 10
68.5571179100846138
 20
114.5972214028109022
 30
0.0
 11
68.5571179100846138
 21
119.6749994131145058
 31
0.0
  0
LINE
  5
12780
  8
0
 10
53.1571179100845868
 20
114.5972214028109022
 30
0.0
 11
53.1571179100845868
 21
119.6749894017199978
 31
0.0
  0
ARC
  5
12781
  8
0
 10
55.6209516152781021
 20
139.8832263567458938
 30
0.0
 40
2.8084024167020072
 50
96.2747829141448506
 51
129.9012124409840965
  0
ARC
  5
12782
  8
0
 10
55.0197145758990231
 20
139.9068539029456133
 30
0.0
 40
2.7835504828370019
 50
39.6952989652808128
 51
83.9311305658613378
  0
ARC
  5
12783
  8
0
 10
60.8565646742224331
 20
135.2847205339012078
 30
0.0
 40
7.3900835375907201
 50
60.0000001364022779
 51
119.999999534594096
  0
ARC
  5
12784
  8
0
 10
66.7060767754490485
 20
139.8832263876695094
 30
0.0
 40
2.8084023850816231
 50
96.2747828219000468
 51
140.0987884066958031
  0
ARC
  5
12785
  8
0
 10
66.1048397486062242
 20
139.9068539168152938
 30
0.0
 40
2.7835504685923338
 50
50.3047007320517068
 51
83.9311306207471546
  0
ARC
  5
12786
  8
0
 10
55.620951615278031
 20
139.4663818040407079
 30
0.0
 40
2.8084024167020072
 50
230.0987875589993052
 51
263.7252170858379827
  0
ARC
  5
12787
  8
0
 10
55.0197145758989521
 20
139.4427542578411874
 30
0.0
 40
2.7835504828370019
 50
276.0688694341213818
 51
320.3047010347013952
  0
ARC
  5
12788
  8
0
 10
60.8565646742237334
 20
144.0648876268838876
 30
0.0
 40
7.3900835375907201
 50
240.0000004653882968
 51
299.9999998635797738
  0
ARC
  5
12789
  8
0
 10
66.7060767754489632
 20
139.466381773113909
 30
0.0
 40
2.8084023850816231
 50
219.9012115932862912
 51
263.7252171780828007
  0
ARC
  5
1278A
  8
0
 10
66.1048397486061532
 20
139.4427542439682099
 30
0.0
 40
2.7835504685923338
 50
276.0688693792355934
 51
309.6952992679313752
  0
LINE
  5
1278B
  8
0
 10
53.1571179119756607
 20
130.0912214028107883
 30
0.0
 11
53.157117911975682
 21
134.6744608863332928
 31
0.0
  0
LINE
  5
1278C
  8
0
 10
68.5565646979214733
 20
137.7443264109020902
 30
0.0
 11
68.5565646979214733
 21
136.6746121320954899
 31
0.0
  0
LINE
  5
1278E
  8
0
 10
68.5565646979214733
 20
134.6744800269835025
 30
0.0
 11
68.5565646979214733
 21
130.0677074068007926
 31
0.0
  0
LINE
  5
1278F
  8
0
 10
53.157117911975682
 20
136.6746216555663125
 30
0.0
 11
53.1571179119756607
 21
137.7678404069131091
 31
0.0
  0
ARC
  5
12790
  8
0
 10
55.6209516152781021
 20
116.883226256605397
 30
0.0
 40
2.8084024167020072
 50
96.2747829141448506
 51
129.9012124409840965
  0
ARC
  5
12791
  8
0
 10
55.0197145758990231
 20
116.9068538028050028
 30
0.0
 40
2.7835504828370019
 50
39.6952989652808128
 51
83.9311305658613378
  0
ARC
  5
12792
  8
0
 10
60.8565646742224331
 20
112.2847204337606968
 30
0.0
 40
7.3900835375907201
 50
60.0000001364022779
 51
119.999999534594096
  0
ARC
  5
12793
  8
0
 10
66.7060767754490485
 20
116.883226287528899
 30
0.0
 40
2.8084023850816231
 50
96.2747828219000468
 51
140.0987884066958031
  0
ARC
  5
12794
  8
0
 10
66.1048397486062242
 20
116.906853816674797
 30
0.0
 40
2.7835504685923338
 50
50.3047007320518489
 51
83.9311306207471546
  0
ARC
  5
12795
  8
0
 10
55.620951615278031
 20
116.466381703900197
 30
0.0
 40
2.8084024167020072
 50
230.0987875589993052
 51
263.7252170858379827
  0
ARC
  5
12796
  8
0
 10
55.0197145758989521
 20
116.4427541577007048
 30
0.0
 40
2.7835504828370019
 50
276.0688694341213818
 51
320.3047010347013952
  0
ARC
  5
12797
  8
0
 10
60.8565646742237334
 20
121.064887526743405
 30
0.0
 40
7.3900835375907201
 50
240.0000004653882968
 51
299.9999998635797169
  0
ARC
  5
12798
  8
0
 10
66.7060767754489632
 20
116.4663816729732986
 30
0.0
 40
2.8084023850816231
 50
219.9012115932864049
 51
263.7252171780828007
  0
ARC
  5
12799
  8
0
 10
66.1048397486061532
 20
116.442754143827699
 30
0.0
 40
2.7835504685923338
 50
276.0688693792355934
 51
309.6952992679313752
  0
LINE
  5
1279A
  8
0
 10
195.130496555881308
 20
226.981668539659097
 30
0.0
 11
195.130496555881308
 21
225.7816685396591083
 31
0.0
  0
LINE
  5
1279B
  8
0
 10
203.130496555881308
 20
226.981668539659097
 30
0.0
 11
203.130496555881308
 21
225.7816685396591083
 31
0.0
  0
LINE
  5
1279C
  8
0
 10
205.2645493485134125
 20
226.981115327495786
 30
0.0
 11
205.2645493485134125
 21
225.7816685396589946
 31
0.0
  0
LINE
  5
1279D
  8
0
 10
213.2645493485132988
 20
226.981668539659097
 30
0.0
 11
213.2645493485132988
 21
225.7816685396591083
 31
0.0
  0
LINE
  5
1279E
  8
0
 10
215.870215788513292
 20
226.9811153256046907
 30
0.0
 11
215.870215788513292
 21
225.7816685396589946
 31
0.0
  0
LINE
  5
1279F
  8
0
 10
223.870215788513292
 20
226.9811153256046055
 30
0.0
 11
223.870215788513292
 21
225.7816685396589094
 31
0.0
  0
LINE
  5
127A0
  8
0
 10
195.1304965558811944
 20
213.7816685396589946
 30
0.0
 11
195.1304965558811944
 21
212.5816685396590913
 31
0.0
  0
LINE
  5
127A1
  8
0
 10
203.1304965558811944
 20
213.7816685396589946
 30
0.0
 11
203.1304965558811944
 21
212.581668539659006
 31
0.0
  0
LINE
  5
127A2
  8
0
 10
205.2645493485132135
 20
213.7816685396589946
 30
0.0
 11
205.2645493485132135
 21
212.581115327495894
 31
0.0
  0
LINE
  5
127A3
  8
0
 10
213.2645493485130999
 20
213.7816685396589946
 30
0.0
 11
213.2645493485130999
 21
212.5811153274958087
 31
0.0
  0
LINE
  5
127A4
  8
0
 10
215.870215788513093
 20
213.7816685396589946
 30
0.0
 11
215.870215788513093
 21
212.5811153256047135
 31
0.0
  0
LINE
  5
127A5
  8
0
 10
223.8702157885132067
 20
213.7816685396589094
 30
0.0
 11
223.8702157885132067
 21
212.5811153256047135
 31
0.0
  0
POLYLINE
  5
127A6
  8
0
 66
     1
 10
0.0
 20
0.0
 30
0.0
 70
     1
  0
VERTEX
  5
147DB
  8
0
 10
153.5744943419250887
 20
227.1717519675923995
 30
0.0
  0
VERTEX
  5
147DC
  8
0
 10
147.1744943419249978
 20
223.4767102801677936
 30
0.0
  0
VERTEX
  5
147DD
  8
0
 10
147.1744943112771864
 20
216.086626852235014
 30
0.0
  0
VERTEX
  5
147DE
  8
0
 10
153.5744942806294944
 20
212.3915851117268971
 30
0.0
  0
VERTEX
  5
147DF
  8
0
 10
159.9744942806295001
 20
216.0866267991515031
 30
0.0
  0
VERTEX
  5
147E0
  8
0
 10
159.9744943112773115
 20
223.4767102270841974
 30
0.0
  0
SEQEND
  5
147E1
  8
0
  0
CIRCLE
  5
127A7
  8
0
 10
153.5744943112773058
 20
219.7816685396595915
 30
0.0
 40
6.3999999999926711
  0
ARC
  5
127A8
  8
0
 10
151.6534501291785944
 20
223.8254418546650015
 30
0.0
 40
7.2768726311131919
 50
124.5117620105669971
 51
150.1107337184955099
  0
ARC
  5
127A9
  8
0
 10
152.8202859322994129
 20
221.3577620525437055
 30
0.0
 40
10.8559824351171095
 50
34.1487260639466328
 51
51.2287782069876414
  0
ARC
  5
127AA
  8
0
 10
155.4958842780453097
 20
215.7375762694063894
 30
0.0
 40
7.2764138964892862
 50
304.5109413811167087
 51
330.1115543479443772
  0
ARC
  5
127AB
  8
0
 10
154.3287026902486048
 20
218.2055750267697078
 30
0.0
 40
10.8559824351082792
 50
214.1487260639408134
 51
231.2287782069955995
  0
ARC
  5
127AC
  8
0
 10
195.380902411693711
 20
223.3948817730872918
 30
0.0
 40
0.912101663494514
 50
353.1862859268330794
 51
77.8847407202726458
  0
ARC
  5
127AD
  8
0
 10
195.3801142656512866
 20
216.1690182208355964
 30
0.0
 40
0.9128176908090367
 50
282.1562121437760879
 51
6.7727612091121951
  0
LINE
  5
127AE
  8
0
 10
195.6304965558813933
 20
227.481668539659097
 30
0.0
 11
202.630496555881308
 21
227.4816685396590117
 31
0.0
  0
LINE
  5
127AF
  8
0
 10
205.7645493485134125
 20
227.4811153274958997
 30
0.0
 11
212.7645493485132988
 21
227.481115327495786
 31
0.0
  0
LINE
  5
127B0
  8
0
 10
216.370215788513292
 20
227.4811153256046907
 30
0.0
 11
223.370215788513292
 21
227.4811153256046055
 31
0.0
  0
LINE
  5
127B1
  8
0
 10
223.370215788513292
 20
212.0811153256047135
 30
0.0
 11
216.3702157885132067
 21
212.0811153256047135
 31
0.0
  0
LINE
  5
127B2
  8
0
 10
212.7645493485132988
 20
212.0811153274958087
 30
0.0
 11
205.7645493485132135
 21
212.0811153274958087
 31
0.0
  0
LINE
  5
127B3
  8
0
 10
202.6304965558811091
 20
212.081668539659006
 30
0.0
 11
195.6304965558811944
 21
212.081668539659006
 31
0.0
  0
LINE
  5
127B4
  8
0
 10
225.870215788513292
 20
219.7816685396589094
 30
0.0
 11
196.2865620279160055
 21
219.7816685396589094
 31
0.0
  0
ARC
  5
127B5
  8
0
 10
144.8213708074960948
 20
133.4086062478673966
 30
0.0
 40
3.3078217358686821
 50
35.0128832540155486
 51
80.9009826332494271
  0
ARC
  5
127B6
  8
0
 10
162.7347390878709064
 20
132.758164445367612
 30
0.0
 40
4.0255909534633663
 50
103.3605232124185989
 51
140.7256103006089063
  0
ARC
  5
127B7
  8
0
 10
162.1600085810003975
 20
125.8927476861748005
 30
0.0
 40
8.7892485441221275
 50
92.3180400094915257
 51
106.8081764475822979
  0
ARC
  5
127B8
  8
0
 10
145.2557813335722869
 20
127.4763720773717068
 30
0.0
 40
7.1989783654392241
 50
71.5796910402840467
 51
89.2940925026360475
  0
ARC
  5
127B9
  8
0
 10
144.9890342443437987
 20
130.4565386336132065
 30
0.0
 40
8.7889248893728826
 50
272.3177717764605745
 51
286.8084446806154233
  0
ARC
  5
127BA
  8
0
 10
144.414335721400704
 20
123.5913059030633008
 30
0.0
 40
4.0254370675485172
 50
283.3597825705689957
 51
320.7263509424602148
  0
ARC
  5
127BB
  8
0
 10
161.8932072889822109
 20
128.8732359682190065
 30
0.0
 40
7.1989783654387702
 50
251.5796910402837909
 51
269.2940925026363743
  0
ARC
  5
127BC
  8
0
 10
162.3276178047184999
 20
122.9410017868010954
 30
0.0
 40
3.3078217211329819
 50
215.0128832018230867
 51
260.9009832851468786
  0
LINE
  5
127BF
  8
0
 10
147.1744943112755095
 20
113.6748039741231935
 30
0.0
 11
147.174494311286594
 21
119.6748039713744021
 31
0.0
  0
LINE
  5
127C2
  8
0
 10
153.574494280629807
 20
114.6648874020634992
 30
0.0
 11
153.5744943112773058
 21
118.6847205283971931
 31
0.0
  0
LINE
  5
127C7
  8
0
 10
159.9744942731068988
 20
113.6748039741231935
 30
0.0
 11
159.9744943188117929
 21
119.6748039713744021
 31
0.0
  0
LINE
  5
127C8
  8
0
 10
159.9744942731068988
 20
113.6748039741231935
 30
0.0
 11
147.1744943112755095
 21
113.6748039741231935
 31
0.0
  0
LINE
  5
127C9
  8
0
 10
185.6587383013830106
 20
166.0402091704492022
 30
0.0
 11
171.6556796773263045
 21
166.4811730819365039
 31
0.0
  0
LINE
  5
127CA
  8
0
 10
185.4695739110875934
 20
160.0331868770458925
 30
0.0
 11
171.466515287031001
 21
160.4741507885331089
 31
0.0
  0
ARC
  5
127CB
  8
0
 10
150.3744943114564876
 20
137.0084810726714863
 30
0.0
 40
5.6663229988270167
 50
55.6157527982816973
 51
124.3842475816187942
  0
ARC
  5
127CC
  8
0
 10
156.774494280631302
 20
137.0084809730331017
 30
0.0
 40
5.6663230984654396
 50
55.6157531098087432
 51
124.3842468899941025
  0
ARC
  5
127CD
  8
0
 10
156.7744943112735996
 20
142.3411270961784965
 30
0.0
 40
5.6663230228915351
 50
235.6157525871365124
 51
304.3842474128638855
  0
ARC
  5
127CE
  8
0
 10
150.374494311281012
 20
142.3411270918084881
 30
0.0
 40
5.6663230192851266
 50
235.6157525621819957
 51
304.3842474378183169
  0
ARC
  5
127CF
  8
0
 10
150.374494311281012
 20
114.0084809181823999
 30
0.0
 40
5.6663230486901774
 50
55.6157527656498729
 51
124.3842472343501981
  0
ARC
  5
127D0
  8
0
 10
156.7744943112735996
 20
114.0084808856242944
 30
0.0
 40
5.6663230755593847
 50
55.615752951571487
 51
124.3842470484285059
  0
ARC
  5
127D1
  8
0
 10
156.774494280631302
 20
119.3411270725886055
 30
0.0
 40
5.66632309846542
 50
235.6157531100053006
 51
304.3842468901910934
  0
ARC
  5
127D2
  8
0
 10
150.3744943114564876
 20
119.3411269729502067
 30
0.0
 40
5.6663229988269839
 50
235.6157524183809073
 51
304.384247201718722
  0
LINE
  5
127D3
  8
0
 10
172.7883858180111076
 20
43.3748040237568375
 30
0.0
 11
225.870215788513292
 21
43.3748040237568375
 31
0.0
  0
LINE
  5
127D4
  8
0
 10
178.6338873485132126
 20
51.0748040237564709
 30
0.0
 11
182.2702157885132976
 21
51.0748040237564709
 31
0.0
  0
LINE
  5
127D5
  8
0
 10
178.6338873485134116
 20
35.6748040237564368
 30
0.0
 11
182.2702157885132976
 21
35.6748040237564368
 31
0.0
  0
ARC
  5
127D6
  8
0
 10
151.6534501291793902
 20
47.4185773387605067
 30
0.0
 40
7.2768726311144478
 50
124.5117620105687024
 51
150.110733718493492
  0
ARC
  5
127D7
  8
0
 10
152.8202859322989866
 20
44.9508975366393884
 30
0.0
 40
10.8559824351177703
 50
34.148726063948601
 51
51.2287782069887214
  0
ARC
  5
127D8
  8
0
 10
155.4958842780457928
 20
39.3307117535019302
 30
0.0
 40
7.2764138964882896
 50
304.5109413811173908
 51
330.1115543479472194
  0
ARC
  5
127D9
  8
0
 10
154.3287026902544881
 20
41.7987105108719632
 30
0.0
 40
10.8559824351165801
 50
214.1487260639486863
 51
231.2287782069903983
  0
ARC
  5
127DA
  8
0
 10
297.3585773625146089
 20
133.9342577683420075
 30
0.0
 40
2.7405472529979691
 50
90.6759807277485237
 51
149.9523662018083883
  0
ARC
  5
127DB
  8
0
 10
297.3500498597877026
 20
133.9490278310368012
 30
0.0
 40
0.7258031458346412
 50
91.8909500582142158
 51
150.4933175334311102
  0
LINE
  5
127DC
  8
0
 10
297.3263222166228275
 20
137.7443264109020902
 30
0.0
 11
297.3257690025683928
 21
130.091221402810902
 31
0.0
  0
LINE
  5
127DD
  8
0
 10
312.7257690025684269
 20
130.0912214028107883
 30
0.0
 11
312.7263222166229184
 21
137.7443264109020902
 31
0.0
  0
ARC
  5
127DE
  8
0
 10
312.6937834995401886
 20
133.9337666086298952
 30
0.0
 40
2.7410386629179269
 50
30.0535527337119994
 51
89.3214454667153177
  0
ARC
  5
127DF
  8
0
 10
312.703507071742024
 20
133.950608324435791
 30
0.0
 40
0.7242311596342638
 50
29.4334184923358286
 51
88.2123011237549974
  0
LINE
  5
127E0
  8
0
 10
312.7257690044596075
 20
121.5972214028109022
 30
0.0
 11
312.7257690044596075
 21
114.5972214028109022
 31
0.0
  0
LINE
  5
127E1
  8
0
 10
297.3257690044595734
 20
114.5972214028109022
 30
0.0
 11
297.3257690044595734
 21
121.5972214028109022
 31
0.0
  0
ARC
  5
127E2
  8
0
 10
297.3491373615049156
 20
122.3989997211554055
 30
0.0
 40
0.7242311596343258
 50
209.4334184923374949
 51
268.6323497333411865
  0
ARC
  5
127E3
  8
0
 10
297.3588609337065236
 20
122.4158414369612018
 30
0.0
 40
2.7410386629178709
 50
210.0535527337123085
 51
269.3082644295733985
  0
ARC
  5
127E4
  8
0
 10
312.7025945734590096
 20
122.4005802145546937
 30
0.0
 40
0.7258031458349603
 50
271.3493315887754989
 51
330.4933175334072075
  0
ARC
  5
127E5
  8
0
 10
312.6940670707319896
 20
122.4153502772491038
 30
0.0
 40
2.740547252997962
 50
270.6627973718331077
 51
329.9523662018096957
  0
ARC
  5
127E6
  8
0
 10
310.7579444107975064
 20
115.197064424471904
 30
0.0
 40
1.4679564199741231
 50
280.5193149013837228
 51
311.4759223864297724
  0
ARC
  5
127E7
  8
0
 10
299.2174355592949269
 20
115.0834290114676008
 30
0.0
 40
1.3409969186304731
 50
227.3434523641439
 51
261.7902533096648199
  0
ARC
  5
127E8
  8
0
 10
299.7907091382130034
 20
139.8832263430489036
 30
0.0
 40
2.808402430779763
 50
96.2747829694750124
 51
129.901212132505492
  0
ARC
  5
127E9
  8
0
 10
299.1894720945949757
 20
139.9068539029300098
 30
0.0
 40
2.7835504828531001
 50
39.6952989651283374
 51
83.9311305657770959
  0
ARC
  5
127EA
  8
0
 10
310.8758343974934064
 20
139.8832260638218941
 30
0.0
 40
2.8084027182637912
 50
96.2747841892661569
 51
140.0987849138344075
  0
ARC
  5
127EB
  8
0
 10
310.274597263263388
 20
139.9068539032205933
 30
0.0
 40
2.7835504824907771
 50
50.3047010361548317
 51
83.9311305766376421
  0
ARC
  5
127EC
  8
0
 10
299.7907091382130034
 20
139.8832263430489036
 30
0.0
 40
2.808402430779763
 50
140.0987873507025938
 51
140.0987878674928027
  0
ARC
  5
127ED
  8
0
 10
330.5271489417013981
 20
165.2558250588429871
 30
0.0
 40
0.9986344545509918
 50
0.3076143497583316
 51
88.1468819221760214
  0
LINE
  5
127F0
  8
0
 10
322.4263222156777147
 20
166.481668540604602
 30
0.0
 11
330.559442156884927
 21
166.2539372379438021
 31
0.0
  0
ARC
  5
127F4
  8
0
 10
330.5271489417013981
 20
161.2585349001390114
 30
0.0
 40
0.9986344545509918
 50
271.8531180778239786
 51
359.6923856502406238
  0
LINE
  5
127F5
  8
0
 10
322.426322215677601
 20
160.0326914183773965
 30
0.0
 11
330.559442156884927
 21
160.2604227210381111
 31
0.0
  0
LINE
  5
127F6
  8
0
 10
278.5257690035141991
 20
161.2531733741209905
 30
0.0
 11
278.5257690035141991
 21
165.2611865848608943
 31
0.0
  0
LINE
  5
127F7
  8
0
 10
299.5213222175677856
 20
160.0326914183775102
 30
0.0
 11
287.6263222175678038
 21
160.0326914183773965
 31
0.0
  0
ARC
  5
127F9
  8
0
 10
279.5243890653271137
 20
165.2558250588429871
 30
0.0
 40
0.9986344545509918
 50
91.8531180778245755
 51
179.6923856502417038
  0
LINE
  5
127FA
  8
0
 10
287.6263222175676901
 20
166.481668540604602
 30
0.0
 11
279.4920958501435848
 21
166.2539372379438021
 31
0.0
  0
ARC
  5
127FB
  8
0
 10
279.5243890653271137
 20
161.2585349001390114
 30
0.0
 40
0.9986344545509918
 50
180.3076143497592909
 51
268.1468819221755098
  0
LINE
  5
127FC
  8
0
 10
287.6263222175678038
 20
160.0326914183773965
 30
0.0
 11
279.4920958501435848
 21
160.2604227210381111
 31
0.0
  0
LINE
  5
12801
  8
1
 10
187.070215788513309
 20
234.4822217527677992
 30
0.0
 11
198.070215788513309
 21
234.4822217527677992
 31
0.0
  0
LINE
  5
12802
  8
1
 10
192.570215788513309
 20
228.9822217527679982
 30
0.0
 11
192.570215788513309
 21
239.9822217527679982
 31
0.0
  0
LINE
  5
12803
  8
1
 10
221.070215788513309
 20
234.4822217527679129
 30
0.0
 11
210.070215788513309
 21
234.4822217527677992
 31
0.0
  0
LINE
  5
12804
  8
1
 10
215.5702157885133943
 20
228.9822217527677992
 30
0.0
 11
215.5702157885133943
 21
239.9822217527677992
 31
0.0
  0
LINE
  5
12805
  8
1
 10
187.0702157885131953
 20
205.0822217527677935
 30
0.0
 11
198.0702157885131953
 21
205.0822217527677935
 31
0.0
  0
LINE
  5
12806
  8
1
 10
192.5702157885131953
 20
199.5822217527679925
 30
0.0
 11
192.5702157885131953
 21
210.5822217527681062
 31
0.0
  0
LINE
  5
12807
  8
1
 10
221.0702157885131953
 20
205.0822217527679072
 30
0.0
 11
210.070215788513309
 21
205.0822217527679072
 31
0.0
  0
LINE
  5
12808
  8
1
 10
215.5702157885131953
 20
199.5822217527677935
 30
0.0
 11
215.5702157885131953
 21
210.5822217527679072
 31
0.0
  0
LINE
  5
12809
  8
1
 10
153.574494311277391
 20
30.4446684564483583
 30
0.0
 11
153.5744943112771921
 21
56.3049395910661232
 31
0.0
  0
LINE
  5
1280A
  8
1
 10
187.0702157885131953
 20
58.0742508106476123
 30
0.0
 11
198.0702157885131953
 21
58.0742508106476123
 31
0.0
  0
LINE
  5
1280B
  8
1
 10
192.5702157885131953
 20
52.5742508106478397
 30
0.0
 11
192.5702157885131953
 21
63.5742508106478397
 31
0.0
  0
LINE
  5
1280C
  8
1
 10
221.0702157885131953
 20
58.0742508106476976
 30
0.0
 11
210.070215788513309
 21
58.0742508106476691
 31
0.0
  0
LINE
  5
1280D
  8
1
 10
215.5702157885131953
 20
52.574250810647662
 30
0.0
 11
215.5702157885131953
 21
63.5742508106476976
 31
0.0
  0
LINE
  5
1280E
  8
1
 10
187.0702157885131101
 20
28.6742508106476599
 30
0.0
 11
198.0702157885131101
 21
28.6742508106476599
 31
0.0
  0
LINE
  5
1280F
  8
1
 10
192.5702157885131101
 20
23.1742508106478908
 30
0.0
 11
192.5702157885131101
 21
34.1742508106478908
 31
0.0
  0
LINE
  5
12810
  8
1
 10
221.0702157885131101
 20
28.6742508106477487
 30
0.0
 11
210.0702157885131101
 21
28.6742508106477203
 31
0.0
  0
LINE
  5
12811
  8
1
 10
215.5702157885131101
 20
23.1742508106477203
 30
0.0
 11
215.5702157885131101
 21
34.1742508106477487
 31
0.0
  0
LINE
  5
12813
  8
3
 10
64.1800646979218925
 20
142.6748040715060029
 30
0.0
 11
64.1800646979218925
 21
162.6748040228108891
 31
0.0
  0
LINE
  5
12814
  8
3
 10
57.5330646979219011
 20
142.6748040715060029
 30
0.0
 11
57.5330646979219011
 21
162.6748040228108891
 31
0.0
  0
LINE
  5
12815
  8
3
 10
156.8979943103321091
 20
142.6748040715060029
 30
0.0
 11
156.8979943103319954
 21
162.6748040228108891
 31
0.0
  0
LINE
  5
12816
  8
3
 10
150.2509943103320893
 20
142.6748040715060029
 30
0.0
 11
150.250994310332004
 21
162.6748040228108891
 31
0.0
  0
CIRCLE
  5
12817
  8
3
 10
153.574494311277391
 20
219.7816685396587104
 30
0.0
 40
3.3235000000000001
  0
POLYLINE
  5
137CE
  8
0
 66
     1
 10
0.0
 20
0.0
 30
0.0
  0
VERTEX
  5
147E2
  8
0
 10
171.4665152870311999
 20
37.8698040247017076
 30
0.0
  0
VERTEX
  5
147E3
  8
0
 10
171.3825589079991971
 20
37.8771155336913168
 30
0.0
  0
VERTEX
  5
147E4
  8
0
 10
171.3015973673016106
 20
37.8973351968912127
 30
0.0
  0
VERTEX
  5
147E5
  8
0
 10
171.2255285983727902
 20
37.9295997250905899
 30
0.0
  0
VERTEX
  5
147E6
  8
0
 10
171.1550096176044065
 20
37.9707081037141521
 30
0.0
  0
VERTEX
  5
147E7
  8
0
 10
171.0902165240053137
 20
38.0188149471963683
 30
0.0
  0
VERTEX
  5
147E8
  8
0
 10
171.031142437694399
 20
38.0723065555998019
 30
0.0
  0
VERTEX
  5
147E9
  8
0
 10
170.9773471581368085
 20
38.1301004399443002
 30
0.0
  0
VERTEX
  5
147EA
  8
0
 10
170.9283259602192118
 20
38.1911932124024673
 30
0.0
  0
VERTEX
  5
147EB
  8
0
 10
170.8835613355294072
 20
38.2546833046748489
 30
0.0
  0
VERTEX
  5
147EC
  8
0
 10
170.8424790326818083
 20
38.3201211087014215
 30
0.0
  0
VERTEX
  5
147ED
  8
0
 10
170.8044890615807958
 20
38.3871823759276225
 30
0.0
  0
VERTEX
  5
147EE
  8
0
 10
170.7690014315384985
 20
38.4555428625180511
 30
0.0
  0
VERTEX
  5
147EF
  8
0
 10
170.7355566308108905
 20
38.5249210786514809
 30
0.0
  0
VERTEX
  5
147F0
  8
0
 10
170.7349328665872861
 20
38.5263200545335422
 30
0.0
  0
SEQEND
  5
147F1
  8
0
  0
POLYLINE
  5
137CF
  8
0
 66
     1
 10
0.0
 20
0.0
 30
0.0
  0
VERTEX
  5
147F2
  8
0
 10
308.5313222156775055
 20
155.293093497062614
 30
0.0
  0
VERTEX
  5
147F3
  8
0
 10
308.6245439909151855
 20
155.2861337512275952
 30
0.0
  0
VERTEX
  5
147F4
  8
0
 10
308.7169393982119914
 20
155.277001877100588
 30
0.0
  0
VERTEX
  5
147F5
  8
0
 10
308.807682069626992
 20
155.2635257463894902
 30
0.0
  0
VERTEX
  5
147F6
  8
0
 10
308.8959466882295146
 20
155.2435771560620026
 30
0.0
  0
VERTEX
  5
147F7
  8
0
 10
308.9809406269989154
 20
155.2163941248736876
 30
0.0
  0
VERTEX
  5
147F8
  8
0
 10
309.0619095240087972
 20
155.1828138991201058
 30
0.0
  0
VERTEX
  5
147F9
  8
0
 10
309.1381011920544211
 20
155.1437646140560958
 30
0.0
  0
VERTEX
  5
147FA
  8
0
 10
309.2088131894786898
 20
155.1001003263538962
 30
0.0
  0
VERTEX
  5
147FB
  8
0
 10
309.2736287391307997
 20
155.0522496953869904
 30
0.0
  0
VERTEX
  5
147FC
  8
0
 10
309.3322328408024759
 20
155.0004898193951988
 30
0.0
  0
VERTEX
  5
147FD
  8
0
 10
309.384308112456381
 20
154.9450988804890983
 30
0.0
  0
VERTEX
  5
147FE
  8
0
 10
309.4293284075698125
 20
154.8864607872413899
 30
0.0
  0
VERTEX
  5
147FF
  8
0
 10
309.4664050315864188
 20
154.8251430566621138
 30
0.0
  0
VERTEX
  5
14800
  8
0
 10
309.4946130579847932
 20
154.7617315550386934
 30
0.0
  0
VERTEX
  5
14801
  8
0
 10
309.5132312549553149
 20
154.6968081018625014
 30
0.0
  0
VERTEX
  5
14802
  8
0
 10
309.5241989989028184
 20
154.6309016584019957
 30
0.0
  0
VERTEX
  5
14803
  8
0
 10
309.5313222156775055
 20
154.5645041032450138
 30
0.0
  0
SEQEND
  5
14804
  8
0
  0
POLYLINE
  5
137D0
  8
0
 66
     1
 10
0.0
 20
0.0
 30
0.0
  0
VERTEX
  5
14805
  8
0
 10
300.5213222156775146
 20
154.5645041032452127
 30
0.0
  0
VERTEX
  5
14806
  8
0
 10
300.5308930746421083
 20
154.6310726986363875
 30
0.0
  0
VERTEX
  5
14807
  8
0
 10
300.5432138397576978
 20
154.6971145378815891
 30
0.0
  0
VERTEX
  5
14808
  8
0
 10
300.561034417175506
 20
154.7621028648345884
 30
0.0
  0
VERTEX
  5
14809
  8
0
 10
300.5870939281629148
 20
154.8255109122995066
 30
0.0
  0
VERTEX
  5
1480A
  8
0
 10
300.6229005495935098
 20
154.8868106518879983
 30
0.0
  0
VERTEX
  5
1480B
  8
0
 10
300.6676105969996229
 20
154.9454716455587118
 30
0.0
  0
VERTEX
  5
1480C
  8
0
 10
300.7201155116130167
 20
155.0009631838873077
 30
0.0
  0
VERTEX
  5
1480D
  8
0
 10
300.7793235284020739
 20
155.0527598348766958
 30
0.0
  0
VERTEX
  5
1480E
  8
0
 10
300.8445105137017777
 20
155.1004516945941987
 30
0.0
  0
VERTEX
  5
1480F
  8
0
 10
300.9153099065899255
 20
155.1437412262513078
 30
0.0
  0
VERTEX
  5
14810
  8
0
 10
300.9913699276701209
 20
155.182335538150312
 30
0.0
  0
VERTEX
  5
14811
  8
0
 10
301.0722925967916126
 20
155.2159075627590994
 30
0.0
  0
VERTEX
  5
14812
  8
0
 10
301.1573420598356847
 20
155.2438802988635871
 30
0.0
  0
VERTEX
  5
14813
  8
0
 10
301.2456324155976972
 20
155.2655657517302075
 30
0.0
  0
VERTEX
  5
14814
  8
0
 10
301.3362771949264811
 20
155.2802786975323954
 30
0.0
  0
VERTEX
  5
14815
  8
0
 10
301.4284268680484047
 20
155.2884273974189
 30
0.0
  0
VERTEX
  5
14816
  8
0
 10
301.5213222156775146
 20
155.293093497062614
 30
0.0
  0
SEQEND
  5
14817
  8
0
  0
LINE
  5
137D1
  8
0
 10
195.5723333632222989
 20
224.2866685387137125
 30
0.0
 11
186.6272633612340996
 21
224.2866685387137125
 31
0.0
  0
LINE
  5
137D2
  8
0
 10
195.5723333632222136
 20
215.2766685387136931
 30
0.0
 11
186.627263361233986
 21
215.2766685387138068
 31
0.0
  0
LINE
  5
137F7
  8
0
 10
157.5744943112771068
 20
162.1748030095320132
 30
0.0
 11
157.0744932979980888
 21
162.6748040228108891
 31
0.0
  0
LINE
  5
137F8
  8
0
 10
150.0744878739753858
 20
162.6748040228108891
 30
0.0
 11
149.5744943112771068
 21
162.1748030095318995
 31
0.0
  0
LINE
  5
137F9
  8
0
 10
157.5744943112771068
 20
162.1748030095320132
 30
0.0
 11
149.5744943112771068
 21
162.1748030095318995
 31
0.0
  0
LINE
  5
137FA
  8
0
 10
157.0744932979982025
 20
162.6748040228108891
 30
0.0
 11
150.0744878739753858
 21
162.6748040228108891
 31
0.0
  0
LINE
  5
13A25
  8
2
 10
144.9721690442353861
 20
212.5316685396587957
 30
0.0
 11
162.176819578319197
 21
212.5316685396587957
 31
0.0
  0
LINE
  5
13A30
  8
2
 10
144.9721690442339934
 20
227.0316685396587957
 30
0.0
 11
162.1768195783207034
 21
227.0316685396587957
 31
0.0
  0
ARC
  5
13A32
  8
2
 10
144.070215788513309
 20
219.331668539659006
 30
0.0
 40
3.7999999999999972
 50
255.3406345557310999
 51
270.0000000000007958
  0
ARC
  5
13A34
  8
2
 10
144.0702157885133943
 20
220.2316685396590117
 30
0.0
 40
3.8000000000000109
 50
90.0
 51
104.6593654442929022
  0
LINE
  5
14745
  8
0
 10
167.3065213024534046
 20
47.4090588875672978
 30
0.0
 11
170.2463513560591934
 21
44.4692288339615729
 31
0.0
  0
ARC
  5
14746
  8
0
 10
166.7846522969119007
 20
46.8866863733419024
 30
0.0
 40
0.7383903456594862
 50
45.0276266742404587
 51
89.9213064424521349
  0
ARC
  5
14748
  8
0
 10
166.7856664474363129
 20
39.8614040325455932
 30
0.0
 40
0.73660000000001
 50
271.5570824570352784
 51
315.0000000000005116
  0
LINE
  5
14749
  8
0
 10
170.2463513560591082
 20
42.2803792311245772
 30
0.0
 11
167.3065213024582079
 21
39.3405491775236769
 31
0.0
  0
LINE
  5
1474A
  8
0
 10
172.5834168358105103
 20
40.374804023756738
 30
0.0
 11
169.427841646017697
 21
37.219228833963939
 31
0.0
  0
ARC
  5
1474B
  8
0
 10
166.7856664474360002
 20
39.8614040325455932
 30
0.0
 40
3.7365999999999948
 50
270.0
 51
315.0000000000005116
  0
LINE
  5
1474C
  8
0
 10
166.7856664474360002
 20
36.1248040325455975
 30
0.0
 11
162.1768195857277135
 21
36.1248040325455975
 31
0.0
  0
ARC
  5
1474E
  8
0
 10
167.035666493516004
 20
46.8882041137920567
 30
0.0
 40
3.7365999099647289
 50
44.9999996187279123
 51
90.0000007071707557
  0
LINE
  5
1474F
  8
0
 10
172.833416853385188
 20
46.3748040237571288
 30
0.0
 11
169.6778416460151107
 21
49.530379231126993
 31
0.0
  0
ARC
  5
14750
  8
0
 10
172.8885265546406913
 20
47.1114040325431986
 30
0.0
 40
3.7365999999999828
 50
224.9999999999996021
 51
258.9786109793425908
  0
ARC
  5
14751
  8
0
 10
172.8885265546406913
 20
39.6382040325428093
 30
0.0
 40
3.7366000000001778
 50
101.0213890206572955
 51
135.0000000000003979
  0
LINE
  5
14752
  8
0
 10
172.8885265546404923
 20
43.3748040237568375
 30
0.0
 11
172.1741804347867912
 21
43.3058857500656273
 31
0.0
  0
LINE
  5
14753
  8
0
 10
172.8885265546404923
 20
43.3748040237568375
 30
0.0
 11
172.1741804347869902
 21
43.4437223150205796
 31
0.0
  0
POLYLINE
  5
14757
  8
0
 66
     1
 10
0.0
 20
0.0
 30
0.0
  0
VERTEX
  5
14818
  8
0
 10
170.8193156601963096
 20
48.3886286064684796
 30
0.0
  0
VERTEX
  5
14819
  8
0
 10
170.8447072529237971
 20
48.4331996380833587
 30
0.0
  0
VERTEX
  5
1481A
  8
0
 10
170.8857325711960868
 20
48.4981764631427694
 30
0.0
  0
VERTEX
  5
1481B
  8
0
 10
170.9304285796193028
 20
48.5612109988614904
 30
0.0
  0
VERTEX
  5
1481C
  8
0
 10
170.9793622247161125
 20
48.6218439292355171
 30
0.0
  0
VERTEX
  5
1481D
  8
0
 10
171.0330392511282014
 20
48.6791757835158378
 30
0.0
  0
VERTEX
  5
1481E
  8
0
 10
171.0919533901287082
 20
48.7322206926110084
 30
0.0
  0
VERTEX
  5
1481F
  8
0
 10
171.1565289187763028
 20
48.7799068458408769
 30
0.0
  0
VERTEX
  5
14820
  8
0
 10
171.2267617713449965
 20
48.8206324076755322
 30
0.0
  0
VERTEX
  5
14821
  8
0
 10
171.302479527204099
 20
48.8525789633871099
 30
0.0
  0
VERTEX
  5
14822
  8
0
 10
171.3830234065385127
 20
48.872563053298947
 30
0.0
  0
VERTEX
  5
14823
  8
0
 10
171.4665152870310862
 20
48.8798040247017269
 30
0.0
  0
SEQEND
  5
14824
  8
0
  0
LINE
  5
14758
  8
0
 10
163.9909386141949881
 20
39.1250760225527188
 30
0.0
 11
166.8056819839005129
 21
39.1250760225527188
 31
0.0
  0
LINE
  5
14759
  8
0
 10
166.7856664474371939
 20
47.6250760225528325
 30
0.0
 11
163.9907166560739995
 21
47.6250760225528325
 31
0.0
  0
LINE
  5
1475E
  8
0
 10
162.176819578319197
 20
227.0319451457405933
 30
0.0
 11
167.0356664473970909
 21
227.0319451457405933
 31
0.0
  0
LINE
  5
1475F
  8
0
 10
167.3065213024534046
 20
223.8162000095510109
 30
0.0
 11
170.2463513560591934
 21
220.8763699559453073
 31
0.0
  0
ARC
  5
14760
  8
0
 10
166.7846522969119007
 20
223.2938274953257007
 30
0.0
 40
0.7383903456594862
 50
45.0276266742399827
 51
89.9213064424521349
  0
ARC
  5
14761
  8
0
 10
166.7856664474363129
 20
216.2685451545293915
 30
0.0
 40
0.73660000000001
 50
271.5570824570352215
 51
315.0
  0
LINE
  5
14762
  8
0
 10
170.2463513560591082
 20
218.6875203531083969
 30
0.0
 11
167.3065213024582079
 21
215.7476902995074965
 31
0.0
  0
LINE
  5
14763
  8
0
 10
170.6247001958458043
 20
214.823228505775802
 30
0.0
 11
169.427841646017697
 21
213.6263699559476947
 31
0.0
  0
ARC
  5
14764
  8
0
 10
166.7856664474360002
 20
216.2685451545293915
 30
0.0
 40
3.7365999999999948
 50
270.0
 51
315.0
  0
LINE
  5
14765
  8
0
 10
166.7856664474360002
 20
212.53194515452941
 30
0.0
 11
162.1768195857277135
 21
212.53194515452941
 31
0.0
  0
ARC
  5
14766
  8
0
 10
167.035666493516004
 20
223.2953452357758124
 30
0.0
 40
3.7365999099647289
 50
44.9999996187279834
 51
90.0000007071707557
  0
ARC
  5
14767
  8
0
 10
172.8885265546406913
 20
223.5185451545270041
 30
0.0
 40
3.7365999999999828
 50
225.0
 51
226.4363513751686128
  0
LINE
  5
14769
  8
0
 10
163.9909386141949881
 20
215.5322171445365029
 30
0.0
 11
166.8056819839005129
 21
215.5322171445365029
 31
0.0
  0
LINE
  5
1476A
  8
0
 10
166.7856664474371939
 20
224.0322171445365882
 30
0.0
 11
163.9907166560739995
 21
224.0322171445365882
 31
0.0
  0
LINE
  5
1476B
  8
0
 10
170.6247001958458043
 20
224.9906618032802044
 30
0.0
 11
169.6778416460151107
 21
225.937520353110699
 31
0.0
  0
ARC
  5
1476D
  8
0
 10
172.8885265546406913
 20
216.0453451545265864
 30
0.0
 40
3.7366000000001778
 50
133.5636486248286872
 51
134.9999999999998863
  0
ENDSEC
  0
EOF
