  0
SECTION
  2
HEADER
  9
$ACADVER
  1
AC1009
  9
$INSBASE
 10
0.0
 20
0.0
 30
0.0
  9
$EXTMIN
 10
0.0
 20
-2.960436562073669
 30
0.0
  9
$EXTMAX
 10
285.35246710719957
 20
234.90499148832461
 30
0.0
  9
$LIMMIN
 10
0.0
 20
0.0
  9
$LIMMAX
 10
420.0
 20
297.0
  9
$ORTHOMODE
 70
     1
  9
$REGENMODE
 70
     1
  9
$FILLMODE
 70
     1
  9
$QTEXTMODE
 70
     0
  9
$MIRRTEXT
 70
     0
  9
$DRAGMODE
 70
     2
  9
$LTSCALE
 40
3.0
  9
$OSMODE
 70
    37
  9
$ATTMODE
 70
     1
  9
$TEXTSIZE
 40
2.5
  9
$TRACEWID
 40
1.0
  9
$TEXTSTYLE
  7
STANDARD
  9
$CLAYER
  8
0
  9
$CELTYPE
  6
BYLAYER
  9
$CECOLOR
 62
   256
  9
$DIMSCALE
 40
1.0
  9
$DIMASZ
 40
2.5
  9
$DIMEXO
 40
0.625
  9
$DIMDLI
 40
3.75
  9
$DIMRND
 40
0.0
  9
$DIMDLE
 40
0.0
  9
$DIMEXE
 40
1.25
  9
$DIMTP
 40
0.0
  9
$DIMTM
 40
0.0
  9
$DIMTXT
 40
2.5
  9
$DIMCEN
 40
2.5
  9
$DIMTSZ
 40
0.0
  9
$DIMTOL
 70
     0
  9
$DIMLIM
 70
     0
  9
$DIMTIH
 70
     0
  9
$DIMTOH
 70
     0
  9
$DIMSE1
 70
     0
  9
$DIMSE2
 70
     0
  9
$DIMTAD
 70
     1
  9
$DIMZIN
 70
     8
  9
$DIMBLK
  1

  9
$DIMASO
 70
     1
  9
$DIMSHO
 70
     1
  9
$DIMPOST
  1

  9
$DIMAPOST
  1

  9
$DIMALT
 70
     0
  9
$DIMALTD
 70
     3
  9
$DIMALTF
 40
0.03937007874016
  9
$DIMLFAC
 40
1.0
  9
$DIMTOFL
 70
     1
  9
$DIMTVP
 40
0.0
  9
$DIMTIX
 70
     0
  9
$DIMSOXD
 70
     0
  9
$DIMSAH
 70
     0
  9
$DIMBLK1
  1

  9
$DIMBLK2
  1

  9
$DIMSTYLE
  2
ISO-25
  9
$DIMCLRD
 70
     0
  9
$DIMCLRE
 70
     0
  9
$DIMCLRT
 70
     0
  9
$DIMTFAC
 40
1.0
  9
$DIMGAP
 40
0.625
  9
$LUNITS
 70
     2
  9
$LUPREC
 70
     1
  9
$SKETCHINC
 40
1.0
  9
$FILLETRAD
 40
0.0
  9
$AUNITS
 70
     0
  9
$AUPREC
 70
     1
  9
$MENU
  1
.
  9
$ELEVATION
 40
0.0
  9
$PELEVATION
 40
0.0
  9
$THICKNESS
 40
0.0
  9
$LIMCHECK
 70
     0
  9
$BLIPMODE
 70
     0
  9
$CHAMFERA
 40
0.0
  9
$CHAMFERB
 40
0.0
  9
$SKPOLY
 70
     0
  9
$TDCREATE
 40
2454083.4444627082
  9
$TDUPDATE
 40
2458838.5594176739
  9
$TDINDWG
 40
2.0133814583
  9
$TDUSRTIMER
 40
2.0133814583
  9
$USRTIMER
 70
     1
  9
$ANGBASE
 50
0.0
  9
$ANGDIR
 70
     0
  9
$PDMODE
 70
     0
  9
$PDSIZE
 40
0.0
  9
$PLINEWID
 40
0.0
  9
$COORDS
 70
     1
  9
$SPLFRAME
 70
     0
  9
$SPLINETYPE
 70
     6
  9
$SPLINESEGS
 70
     8
  9
$ATTDIA
 70
     0
  9
$ATTREQ
 70
     1
  9
$HANDLING
 70
     1
  9
$HANDSEED
  5
1798E
  9
$SURFTAB1
 70
     6
  9
$SURFTAB2
 70
     6
  9
$SURFTYPE
 70
     6
  9
$SURFU
 70
     6
  9
$SURFV
 70
     6
  9
$UCSNAME
  2

  9
$UCSORG
 10
0.0
 20
0.0
 30
0.0
  9
$UCSXDIR
 10
1.0
 20
0.0
 30
0.0
  9
$UCSYDIR
 10
0.0
 20
1.0
 30
0.0
  9
$PUCSNAME
  2

  9
$PUCSORG
 10
0.0
 20
0.0
 30
0.0
  9
$PUCSXDIR
 10
1.0
 20
0.0
 30
0.0
  9
$PUCSYDIR
 10
0.0
 20
1.0
 30
0.0
  9
$USERI1
 70
     0
  9
$USERI2
 70
     0
  9
$USERI3
 70
     0
  9
$USERI4
 70
     0
  9
$USERI5
 70
     0
  9
$USERR1
 40
0.0
  9
$USERR2
 40
0.0
  9
$USERR3
 40
0.0
  9
$USERR4
 40
0.0
  9
$USERR5
 40
0.0
  9
$WORLDVIEW
 70
     1
  9
$SHADEDGE
 70
     3
  9
$SHADEDIF
 70
    70
  9
$TILEMODE
 70
     1
  9
$MAXACTVP
 70
    64
  9
$PLIMCHECK
 70
     0
  9
$PEXTMIN
 10
0.0
 20
0.0
 30
0.0
  9
$PEXTMAX
 10
0.0
 20
0.0
 30
0.0
  9
$PLIMMIN
 10
0.0
 20
0.0
  9
$PLIMMAX
 10
12.0
 20
9.0
  9
$UNITMODE
 70
     0
  9
$VISRETAIN
 70
     1
  9
$PLINEGEN
 70
     0
  9
$PSLTSCALE
 70
     1
  0
ENDSEC
  0
SECTION
  2
TABLES
  0
TABLE
  2
VPORT
 70
     1
  0
VPORT
  2
*ACTIVE
 70
     0
 10
0.0
 20
0.0
 11
1.0
 21
1.0
 12
349.54238698020202
 22
150.0
 13
0.0
 23
0.0
 14
10.0
 24
10.0
 15
10.0
 25
10.0
 16
0.0
 26
0.0
 36
1.0
 17
0.0
 27
0.0
 37
0.0
 40
289.41176470588238
 41
2.415644171779141
 42
50.0
 43
0.0
 44
0.0
 50
0.0
 51
0.0
 71
     0
 72
  1000
 73
     1
 74
     3
 75
     0
 76
     0
 77
     0
 78
     0
  0
ENDTAB
  0
TABLE
  2
LTYPE
 70
     3
  0
LTYPE
  2
CONTINUOUS
 70
     0
  3
Solid line
 72
    65
 73
     0
 40
0.0
  0
LTYPE
  2
CENTER
 70
     0
  3
____ _ ____ _ ____ _ ____ _ ____ _ ____ _ ____
 72
    65
 73
     4
 40
2.0
 49
1.25
 49
-0.25
 49
0.25
 49
-0.25
  0
LTYPE
  2
HIDDEN
 70
     0
  3
Hidden __ __ __ __ __ __ __ __ __ __ __ __ __ __
 72
    65
 73
     2
 40
1.905
 49
1.27
 49
-0.635
  0
ENDTAB
  0
TABLE
  2
LAYER
 70
     5
  0
LAYER
  2
0
 70
     0
 62
     7
  6
CONTINUOUS
  0
LAYER
  2
DEFPOINTS
 70
     0
 62
     7
  6
CONTINUOUS
  0
LAYER
  2
1
 70
     0
 62
     1
  6
CENTER
  0
LAYER
  2
3
 70
     0
 62
     3
  6
CONTINUOUS
  0
LAYER
  2
2
 70
     0
 62
     2
  6
HIDDEN
  0
ENDTAB
  0
TABLE
  2
STYLE
 70
     2
  0
STYLE
  2
STANDARD
 70
     0
 40
0.0
 41
1.0
 50
0.0
 71
     0
 42
2.5
  3
txt
  4

  0
STYLE
  2
STANDARD1
 70
     0
 40
0.0
 41
1.0
 50
0.0
 71
     0
 42
3.0
  3
txt
  4

  0
ENDTAB
  0
TABLE
  2
VIEW
 70
     3
  0
VIEW
  2
OLE1
 70
     0
 40
17.336203194614189
 10
1078.262703908531
 20
377.67444865954309
 41
31.074911629702001
 11
0.0
 21
0.0
 31
1.0
 12
0.0
 22
0.0
 32
0.0
 42
50.0
 43
0.0
 44
0.0
 50
0.0
 71
     0
  0
VIEW
  2
OLE2
 70
     0
 40
50.523198253338478
 10
1031.767738941523
 20
579.92835671582054
 41
90.562155008667546
 11
0.0
 21
0.0
 31
1.0
 12
0.0
 22
0.0
 32
0.0
 42
50.0
 43
0.0
 44
0.0
 50
0.0
 71
     0
  0
VIEW
  2
OLE3
 70
     0
 40
19.902492574755801
 10
485.89971154156422
 20
299.78832697703888
 41
25.268360670890939
 11
0.0
 21
0.0
 31
1.0
 12
0.0
 22
0.0
 32
0.0
 42
50.0
 43
0.0
 44
0.0
 50
0.0
 71
     0
  0
ENDTAB
  0
TABLE
  2
UCS
 70
     0
  0
ENDTAB
  0
TABLE
  2
APPID
 70
    44
  0
APPID
  2
ACAD
 70
     0
  0
APPID
  2
_FTCNV
 70
     0
  0
APPID
  2
DCO15
 70
     0
  0
APPID
  2
GENIUS_GENOREF_13
 70
     0
  0
APPID
  2
GENIUS_GENOENT_13
 70
     0
  0
APPID
  2
GENIUS_GENBH_13
 70
     0
  0
APPID
  2
GENIUS_GENOBJ_13
 70
     0
  0
APPID
  2
GENIUS_GENODEF_13
 70
     0
  0
APPID
  2
GENIUS_GENOLIS_13
 70
     0
  0
APPID
  2
GENIUS_GENOBJ-NBEHI-BHF_13
 70
     0
  0
APPID
  2
GENIUS_GENOBJ-NBEHI-BHB_13
 70
     0
  0
APPID
  2
GENIUS_GENOBJ-F-PART_13
 70
     0
  0
APPID
  2
GENIUS_GEFSTDP_13
 70
     0
  0
APPID
  2
GENIUS_GENOBJ-N-RSSYM_13
 70
     0
  0
APPID
  2
GENIUS_GENSYMENT_13
 70
     0
  0
APPID
  2
GENIUS_GENOBJ-N-TIT_13
 70
     0
  0
APPID
  2
GENIUS_GENTITLE_13
 70
     0
  0
APPID
  2
GENIUS_GENZVEED_13
 70
     0
  0
APPID
  2
GENIUS_GENOBJ-N-LEADER_13
 70
     0
  0
APPID
  2
GENIUS_GENOBJ-N-FIL_13
 70
     0
  0
APPID
  2
GENIUS_GENOBJ-N-SEC_13
 70
     0
  0
APPID
  2
GENIUS_GENOBJ-N-CRS_13
 70
     0
  0
APPID
  2
GENIUS_GENOBJ-N-ZOO_13
 70
     0
  0
APPID
  2
GENIUS_GENZOO_13
 70
     0
  0
APPID
  2
GENIUS_GENOBJ-F-TOL_13
 70
     0
  0
APPID
  2
GENIUS_GENFIL_13
 70
     0
  0
APPID
  2
GENIUS_GENOBJ-N-CHA_13
 70
     0
  0
APPID
  2
_CALL_MAC$
 70
     0
  0
APPID
  2
ASM_BASE
 70
     0
  0
APPID
  2
ASM_EXPLO_VER_2_00
 70
     0
  0
APPID
  2
ASM_CADM_VER_12_00
 70
     0
  0
APPID
  2
ASM_BASEFORO
 70
     0
  0
APPID
  2
ASM_BASETRAVI
 70
     0
  0
APPID
  2
ASM_BASETRAVI1
 70
     0
  0
APPID
  2
ASM_GRUPPI
 70
     0
  0
APPID
  2
ASM_CADM_ALBERO
 70
     0
  0
APPID
  2
ASM_GOLE
 70
     0
  0
APPID
  2
ACAD_MLEADERVER
 70
     0
  0
APPID
  2
ACAD_EXEMPT_FROM_CAD_STANDARDS
 70
     0
  0
APPID
  2
ACAD_DSTYLE_DIMJAG
 70
     0
  0
APPID
  2
ACAD_DSTYLE_DIMTALN
 70
     0
  0
APPID
  2
ACAD_NAV_VCDISPLAY
 70
     0
  0
APPID
  2
ACADANNOPO
 70
     0
  0
APPID
  2
ACADANNOMONITORALERTICONDI
 70
     0
  0
ENDTAB
  0
TABLE
  2
DIMSTYLE
 70
     2
  0
DIMSTYLE
  2
ISO-25
 70
     0
  3

  4

  5

  6

  7

 40
1.0
 41
2.5
 42
0.625
 43
3.75
 44
1.25
 45
0.0
 46
0.0
 47
0.0
 48
0.0
140
2.5
141
2.5
142
0.0
143
0.03937007874016
144
1.0
145
0.0
146
1.0
147
0.625
 71
     0
 72
     0
 73
     0
 74
     0
 75
     0
 76
     0
 77
     1
 78
     8
170
     0
171
     3
172
     1
173
     0
174
     0
175
     0
176
     0
177
     0
178
     0
  0
DIMSTYLE
  2
STANDARD
 70
     0
  3

  4

  5

  6

  7

 40
1.0
 41
0.18
 42
0.0625
 43
0.38
 44
0.18
 45
0.0
 46
0.0
 47
0.0
 48
0.0
140
0.18
141
0.09
142
0.0
143
25.399999999999999
144
1.0
145
0.0
146
1.0
147
0.09
 71
     0
 72
     0
 73
     1
 74
     1
 75
     0
 76
     0
 77
     0
 78
     0
170
     0
171
     2
172
     0
173
     0
174
     0
175
     0
176
     0
177
     0
178
     0
  0
ENDTAB
  0
ENDSEC
  0
SECTION
  2
BLOCKS
  0
BLOCK
  8
0
  2
$MODEL_SPACE
 70
     0
 10
0.0
 20
0.0
 30
0.0
  3
$MODEL_SPACE
  1

  0
ENDBLK
  5
21
  8
0
  0
BLOCK
 67
     1
  8
0
  2
$PAPER_SPACE
 70
     0
 10
0.0
 20
0.0
 30
0.0
  3
$PAPER_SPACE
  1

  0
ENDBLK
  5
53
 67
     1
  8
0
  0
ENDSEC
  0
SECTION
  2
ENTITIES
  0
TEXT
  5
C317
  8
0
 62
     3
 10
0.0
 20
0.0
 30
0.0
 40
10.0
  1
ST-HTC601-S
  7
STANDARD1
  0
ARC
  5
1645B
  8
0
 10
165.6497895577557
 20
134.46352629374221
 30
0.0
 40
0.5
 50
180.0
 51
270.0
  0
ARC
  5
1645C
  8
0
 10
165.6497895577557
 20
144.46352629374221
 30
0.0
 40
0.5000000000001564
 50
90.0
 51
180.0
  0
LINE
  5
1645D
  8
0
 10
174.64978955775581
 20
144.9635262937426
 30
0.0
 11
165.6497895577557
 21
144.9635262937426
 31
0.0
  0
LINE
  5
1645E
  8
0
 10
165.6497895577557
 20
133.96352629374229
 30
0.0
 11
174.64978955775581
 21
133.96352629374229
 31
0.0
  0
LINE
  5
1645F
  8
0
 10
176.6497895577557
 20
135.46352629374229
 30
0.0
 11
178.64978955775581
 21
135.46352629374229
 31
0.0
  0
LINE
  5
16460
  8
0
 10
178.64978955775581
 20
143.46352629374249
 30
0.0
 11
176.64978955775581
 21
143.46352629374249
 31
0.0
  0
LINE
  5
16461
  8
0
 10
141.8497895577556
 20
142.61352629367889
 30
0.0
 11
141.64978955781751
 21
142.4135262937408
 31
0.0
  0
LINE
  5
16462
  8
0
 10
141.64978955781751
 20
136.51352629374389
 30
0.0
 11
141.8497895577556
 21
136.31352629380589
 31
0.0
  0
LINE
  5
16463
  8
0
 10
165.1497895577557
 20
142.61352629374221
 30
0.0
 11
141.8497895577556
 21
142.61352629374221
 31
0.0
  0
LINE
  5
16464
  8
0
 10
141.8497895577556
 20
136.31352629374251
 30
0.0
 11
165.1497895577557
 21
136.31352629374251
 31
0.0
  0
ARC
  5
16465
  8
0
 10
167.0565452929919
 20
157.20499148832459
 30
0.0
 40
1.000000000000024
 50
63.39503193556213
 51
153.39503193556101
  0
ARC
  5
16466
  8
0
 10
166.38479036681929
 20
155.86381837527651
 30
0.0
 40
1.000000000000024
 50
153.39503193556141
 51
243.39503193556209
  0
LINE
  5
16467
  8
0
 10
166.16242988429329
 20
157.65282810577301
 30
0.0
 11
165.49067495812051
 21
156.3116549927249
 31
0.0
  0
LINE
  5
16468
  8
0
 10
176.64978955775581
 20
146.0935262937424
 30
0.0
 11
174.64978955775581
 21
146.0935262937424
 31
0.0
  0
LINE
  5
1646A
  8
0
 10
165.1497895577557
 20
144.46352629374221
 30
0.0
 11
165.1497895577557
 21
134.47404387188411
 31
0.0
  0
LINE
  5
1646C
  8
0
 10
178.64978955775581
 20
135.46352629374229
 30
0.0
 11
178.64978955775581
 21
143.46352629374249
 31
0.0
  0
LINE
  5
1646D
  8
0
 10
185.14978955778381
 20
136.7262831550795
 30
0.0
 11
185.14978955778381
 21
142.20076943240571
 31
0.0
  0
LINE
  5
1646E
  8
0
 10
184.94978955781221
 20
136.5118318650546
 30
0.0
 11
185.14978955780111
 21
136.7262831550984
 31
0.0
  0
LINE
  5
1646F
  8
0
 10
184.94978955778379
 20
136.51183186508399
 30
0.0
 11
184.94978955778379
 21
142.41522072240079
 31
0.0
  0
ARC
  5
16470
  8
0
 10
140.8770500757368
 20
101.11193653838821
 30
0.0
 40
60.401718931150441
 50
42.863911385057108
 51
43.142072301461717
  0
LINE
  5
16473
  8
0
 10
141.8497895577556
 20
142.61352629367889
 30
0.0
 11
141.8497895577556
 21
136.31352629374251
 31
0.0
  0
LINE
  5
16474
  8
0
 10
184.94978955778379
 20
142.41522072240079
 30
0.0
 11
178.64978955775581
 21
142.41522072237129
 31
0.0
  0
LINE
  5
16475
  8
0
 10
178.64978955775581
 20
136.51183186511341
 30
0.0
 11
184.94978955778379
 21
136.51183186508399
 31
0.0
  0
LINE
  5
1647B
  8
0
 10
194.58563236182499
 20
138.77246142922689
 30
0.0
 11
192.46630419143821
 21
141.2970381152588
 31
0.0
  0
ARC
  5
1647C
  8
0
 10
190.0345669531811
 20
139.2556466770302
 30
0.0
 40
3.1750000000000491
 50
99.385041886918856
 51
136.98581410994041
  0
ARC
  5
1647D
  8
0
 10
190.0345669531811
 20
139.2556466770302
 30
0.0
 40
3.1750000000000238
 50
40.012740428961713
 51
78.430337132794975
  0
LINE
  5
1647E
  8
0
 10
187.7130551404826
 20
141.421566320854
 30
0.0
 11
185.464444496787
 21
139.01142327312621
 31
0.0
  0
ARC
  5
1647F
  8
0
 10
186.1956293196838
 20
138.32924385774859
 30
0.0
 40
0.9999999999998323
 50
136.9858141099308
 51
164.5207136891749
  0
LINE
  5
16480
  8
0
 10
185.2319023168773
 20
138.59613384268829
 30
0.0
 11
185.14978955775521
 21
138.34102907770989
 31
0.0
  0
ARC
  5
16481
  8
0
 10
182.09978955775529
 20
139.46352629374221
 30
0.0
 40
3.2500000000000071
 50
245.2596495812414
 51
294.74035041875862
  0
ARC
  5
16482
  8
0
 10
182.09978955775529
 20
139.46352629374221
 30
0.0
 40
3.2500000000000129
 50
93.040473515460008
 51
114.7403504187443
  0
ARC
  5
16483
  8
0
 10
181.87436373041101
 20
143.7075436354088
 30
0.0
 40
1.0000000000000051
 50
273.04047351544699
 51
300.5753730947045
  0
LINE
  5
16484
  8
0
 10
182.3830351345122
 20
142.84658289144321
 30
0.0
 11
183.92897023993149
 21
143.7599497159292
 31
0.0
  0
ARC
  5
16485
  8
0
 10
197.96934434860671
 20
139.04776706031839
 30
0.0
 40
3.2500000000000182
 50
192.47784084972221
 51
321.57010276082622
  0
ARC
  5
16486
  8
0
 10
193.8197308694605
 20
138.1295034959264
 30
0.0
 40
1.0000000000001681
 50
12.477840849725339
 51
40.012740428971057
  0
LINE
  5
1648F
  8
0
 10
175.7132039658706
 20
150.07306122917771
 30
0.0
 11
165.9369537493707
 21
154.9697029665775
 31
0.0
  0
LINE
  5
16490
  8
0
 10
182.2973184458088
 20
143.979208573715
 30
0.0
 11
184.98433815049839
 21
149.3439010259074
 31
0.0
  0
LINE
  5
16491
  8
0
 10
179.52887398727751
 20
145.36584254718241
 30
0.0
 11
182.29731844580871
 21
143.979208573715
 31
0.0
  0
ARC
  5
16492
  8
0
 10
190.39345743165021
 20
158.11167836050851
 30
0.0
 40
16.747999999999969
 50
208.6502153798636
 51
229.5556404384759
  0
LINE
  5
16493
  8
0
 10
167.50438191044029
 20
158.0991068970232
 30
0.0
 11
184.9843381504983
 21
149.3439010259072
 31
0.0
  0
LINE
  5
16495
  8
0
 10
192.61765199956699
 20
146.0253855660377
 30
0.0
 11
190.786060053482
 21
142.3685729749331
 31
0.0
  0
ARC
  5
16496
  8
0
 10
190.3941410597987
 20
158.1143712813321
 30
0.0
 40
15.75067505865716
 50
240.0856379504165
 51
271.42581965553961
  0
ARC
  5
16497
  8
0
 10
189.27953657058751
 20
146.65578366903279
 30
0.0
 40
3.398623894713412
 50
349.50885478301069
 51
357.95122412846661
  0
LINE
  5
16498
  8
0
 10
192.61765199956699
 20
146.0253855660377
 30
0.0
 11
192.62134587164181
 21
146.03695011055029
 31
0.0
  0
ARC
  5
16499
  8
0
 10
197.80225611800159
 20
181.4661443579374
 30
0.0
 40
35.305999999998981
 50
248.14697344990751
 51
261.6514064308127
  0
LINE
  5
1649A
  8
0
 10
196.97467432508421
 20
145.6697095581427
 30
0.0
 11
196.97263378613951
 21
144.55590280857271
 31
0.0
  0
ARC
  5
1649B
  8
0
 10
198.4966312285697
 20
144.55311077235899
 30
0.0
 40
1.5239999999999889
 50
179.89503150867361
 51
260.8950319355589
  0
LINE
  5
1649C
  8
0
 10
198.2554678535374
 20
143.0483130362685
 30
0.0
 11
206.091464314397
 21
141.79249286328451
 31
0.0
  0
ARC
  5
1649D
  8
0
 10
205.64933146017091
 20
139.03369701378529
 30
0.0
 40
2.7940000000000791
 50
359.89503193556362
 51
80.895031935558862
  0
ARC
  5
1649E
  8
0
 10
205.64933146017091
 20
139.0336970137854
 30
0.0
 40
2.7940000000000511
 50
248.18769599631321
 51
359.89503193556118
  0
ARC
  5
1649F
  8
0
 10
201.67186044274459
 20
130.81097008985481
 30
0.0
 40
6.3499999999999739
 50
62.426648123526952
 51
117.3634157475896
  0
ARC
  5
164A0
  8
0
 10
197.72454475942581
 20
139.04821554305241
 30
0.0
 40
2.7940000000000258
 50
189.0207277010731
 51
291.60236787480937
  0
LINE
  5
164A1
  8
0
 10
194.9651018365783
 20
138.61013934471799
 30
0.0
 11
194.72588541848171
 21
140.11696408081471
 31
0.0
  0
ARC
  5
164A2
  8
0
 10
191.99152834038739
 20
139.68287039337429
 30
0.0
 40
2.7685999999999962
 50
9.0207277010724187
 51
101.09050241372471
  0
LINE
  5
164A3
  8
0
 10
191.4589623803702
 20
142.39976558057441
 30
0.0
 11
190.786060053482
 21
142.3685729749331
 31
0.0
  0
LINE
  5
164A4
  8
0
 10
196.97467432508421
 20
145.6697095581427
 30
0.0
 11
196.9755905541794
 21
146.16982358585821
 31
0.0
  0
ARC
  5
164A5
  8
0
 10
197.80225611800179
 20
181.4661443579385
 30
0.0
 40
35.306000000000139
 50
261.6514064308127
 51
268.65833635328482
  0
CIRCLE
  5
164A6
  8
0
 10
182.09978955775529
 20
139.46352629374229
 30
0.0
 40
2.4999999999999978
  0
CIRCLE
  5
164A7
  8
0
 10
197.9693443486068
 20
139.04776706031851
 30
0.0
 40
2.5000000000000191
  0
CIRCLE
  5
164A8
  8
0
 10
205.64933146017091
 20
139.0336970137848
 30
0.0
 40
2.5000000000000142
  0
ARC
  5
164AA
  8
0
 10
177.38638955775571
 20
129.43659999999991
 30
0.0
 40
0.7365999999999815
 50
179.9999999999975
 51
247.65397805268
  0
ARC
  5
164AC
  8
0
 10
177.38638955775571
 20
129.4366
 30
0.0
 40
2.7365999999999828
 50
180.0
 51
247.65397805268
  0
LINE
  5
164AD
  8
0
 10
208.6524671071997
 20
126.6999999999999
 30
0.0
 11
177.38638955775571
 21
126.6999999999999
 31
0.0
  0
LINE
  5
164AE
  8
0
 10
196.45067052520221
 20
128.69999999999999
 30
0.0
 11
177.38638955775571
 21
128.69999999999999
 31
0.0
  0
ARC
  5
164AF
  8
0
 10
177.38638955775571
 20
129.4366
 30
0.0
 40
0.73660000000001
 50
247.65397805268
 51
270.0
  0
ARC
  5
164B0
  8
0
 10
177.38638955775571
 20
129.4366
 30
0.0
 40
2.736600000000009
 50
247.65397805268
 51
270.0
  0
LINE
  5
164B4
  8
0
 10
174.6497895577557
 20
146.0935262937424
 30
0.0
 11
174.6497895577557
 21
129.4366
 31
0.0
  0
LINE
  5
164B5
  8
0
 10
176.6497895577557
 20
129.4366
 30
0.0
 11
176.6497895577557
 21
146.0935262937424
 31
0.0
  0
ARC
  5
164BC
  8
0
 10
205.64933146017091
 20
139.0336970137848
 30
0.0
 40
3.0033745781777359
 50
0.7227234476255875
 51
102.4154516000858
  0
LINE
  5
164BD
  8
0
 10
208.6524671071997
 20
126.6999999999999
 30
0.0
 11
208.6524671071997
 21
139.07158028699291
 31
0.0
  0
ARC
  5
164BE
  8
0
 10
201.45629482216501
 20
127.3784312045903
 30
0.0
 40
5.0056242969628419
 50
146.15789499837209
 51
155.72156789313729
  0
LINE
  5
164BF
  8
0
 10
201.16021924457689
 20
137.1305257159548
 30
0.0
 11
197.29874622191599
 21
130.1660940677987
 31
0.0
  0
LINE
  5
164C4
  8
0
 10
196.45067052520221
 20
126.7
 30
0.0
 11
196.4506705252021
 21
128.75409326289031
 31
0.0
  0
ARC
  5
164C5
  8
0
 10
198.65994477518481
 20
127.80588517564
 30
0.0
 40
2.404161244251974
 50
137.2899585038453
 51
156.77126239403631
  0
ARC
  5
164C8
  8
0
 10
165.6497895577557
 20
216.5549914883245
 30
0.0
 40
0.5000000000000853
 50
180.0
 51
270.0
  0
ARC
  5
164C9
  8
0
 10
165.6497895577557
 20
226.55499148832459
 30
0.0
 40
0.500000000000057
 50
90.0
 51
180.0
  0
LINE
  5
164CA
  8
0
 10
167.89494768607759
 20
227.0549914883247
 30
0.0
 11
165.6497895577557
 21
227.0549914883247
 31
0.0
  0
LINE
  5
164CB
  8
0
 10
165.6497895577557
 20
216.05499148832439
 30
0.0
 11
167.8428145966837
 21
216.05499148832439
 31
0.0
  0
LINE
  5
164CC
  8
0
 10
141.8497895577556
 20
224.7049914882611
 30
0.0
 11
141.64978955781751
 21
224.5049914883229
 31
0.0
  0
LINE
  5
164CD
  8
0
 10
141.64978955781751
 20
218.60499148832599
 30
0.0
 11
141.8497895577556
 21
218.40499148838799
 31
0.0
  0
LINE
  5
164CE
  8
0
 10
165.1497895577557
 20
224.7049914882611
 30
0.0
 11
141.8497895577556
 21
224.7049914882611
 31
0.0
  0
LINE
  5
164CF
  8
0
 10
141.8497895577556
 20
218.40499148832461
 30
0.0
 11
165.1497895577557
 21
218.40499148832461
 31
0.0
  0
LINE
  5
164D0
  8
0
 10
201.21934434860691
 20
220.5549914883245
 30
0.0
 11
201.21934434860691
 21
222.55499148832459
 31
0.0
  0
ARC
  5
164D1
  8
0
 10
172.56940909267411
 20
221.5549914883245
 30
0.0
 40
7.2350631493342394
 50
107.3693736475888
 51
252.63062635241121
  0
POLYLINE
  5
164D2
  8
0
 66
     1
 10
0.0
 20
0.0
 30
0.0
 70
   128
  0
VERTEX
  5
176D0
  8
0
 10
176.9091851875678
 20
229.27116084934639
 30
0.0
  0
VERTEX
  5
176D1
  8
0
 10
176.335053762987
 20
229.3989912976555
 30
0.0
  0
VERTEX
  5
176D2
  8
0
 10
175.69640716939489
 20
229.4495471357653
 30
0.0
  0
SEQEND
  5
176D3
  8
0
  0
POLYLINE
  5
164D3
  8
0
 66
     1
 10
0.0
 20
0.0
 30
0.0
 70
   128
  0
VERTEX
  5
176D4
  8
0
 10
175.69640716939489
 20
213.66043584088379
 30
0.0
  0
VERTEX
  5
176D5
  8
0
 10
176.335053762987
 20
213.71099167899371
 30
0.0
  0
VERTEX
  5
176D6
  8
0
 10
176.9091851875678
 20
213.83882212730259
 30
0.0
  0
SEQEND
  5
176D7
  8
0
  0
LINE
  5
164D4
  8
0
 10
170.46514105415591
 20
214.627142307821
 30
0.0
 11
174.04983566147439
 21
213.77495885034349
 31
0.0
  0
LINE
  5
164D5
  8
0
 10
174.04983566147439
 20
229.3350241263056
 30
0.0
 11
170.46514105415599
 21
228.48284066882809
 31
0.0
  0
LINE
  5
164D6
  8
0
 10
175.69646147556639
 20
229.44954713613421
 30
0.0
 11
175.0247065493937
 21
229.44954713613421
 31
0.0
  0
LINE
  5
164D7
  8
0
 10
175.0247065493937
 20
213.66043584051491
 30
0.0
 11
175.69646147556639
 21
213.66043584051491
 31
0.0
  0
LINE
  5
164D8
  8
0
 10
176.9091851875678
 20
213.83882212730259
 30
0.0
 11
184.59407507747349
 21
216.14183583212099
 31
0.0
  0
LINE
  5
164D9
  8
0
 10
184.59407507747349
 20
226.96814714452799
 30
0.0
 11
176.9091851875678
 21
229.27116084934639
 31
0.0
  0
ARC
  5
164DA
  8
0
 10
195.84019473519351
 20
273.40865993448853
 30
0.0
 40
49.49464711598376
 50
257.33008415069611
 51
266.27117844920241
  0
ARC
  5
164DB
  8
0
 10
195.874580603369
 20
169.56690927451419
 30
0.0
 40
49.631019181685581
 50
93.758342265976438
 51
102.67521075060471
  0
LINE
  5
164DC
  8
0
 10
208.4433314601709
 20
219.0911914883246
 30
0.0
 11
208.44333146017101
 21
220.3103914883246
 31
0.0
  0
LINE
  5
164DD
  8
0
 10
208.4433314601709
 20
222.79763468171879
 30
0.0
 11
208.4433314601709
 21
224.02074829493071
 31
0.0
  0
ARC
  5
164DE
  8
0
 10
199.9693443486068
 20
225.5187914883245
 30
0.0
 40
0.5
 50
0.0
 51
90.0
  0
ARC
  5
164DF
  8
0
 10
195.9693443486068
 20
225.5187914883245
 30
0.0
 40
0.5
 50
90.0
 51
180.0
  0
ARC
  5
164E0
  8
0
 10
199.9693443486068
 20
217.58879148832449
 30
0.0
 40
0.5
 50
270.0
 51
0.0
  0
ARC
  5
164E1
  8
0
 10
195.9693443486068
 20
217.58879148832449
 30
0.0
 40
0.5
 50
180.0
 51
270.0
  0
ARC
  5
164E2
  8
0
 10
199.9693443486068
 20
224.5187914883245
 30
0.0
 40
0.5
 50
270.0
 51
0.0
  0
ARC
  5
164E3
  8
0
 10
195.9693443486068
 20
224.5187914883245
 30
0.0
 40
0.5
 50
180.0
 51
270.0
  0
ARC
  5
164E4
  8
0
 10
199.9693443486068
 20
218.58879148832449
 30
0.0
 40
0.5
 50
0.0
 51
90.0
  0
ARC
  5
164E5
  8
0
 10
195.9693443486068
 20
218.58879148832449
 30
0.0
 40
0.5
 50
90.0
 51
180.0
  0
LINE
  5
164E6
  8
0
 10
195.4693443486068
 20
218.58879148832449
 30
0.0
 11
195.4693443486068
 21
217.58879148832449
 31
0.0
  0
LINE
  5
164E7
  8
0
 10
200.4693443486068
 20
217.58879148832449
 30
0.0
 11
200.4693443486068
 21
218.58879148832449
 31
0.0
  0
LINE
  5
164E8
  8
0
 10
195.4693443486068
 20
225.5187914883245
 30
0.0
 11
195.4693443486068
 21
224.5187914883245
 31
0.0
  0
LINE
  5
164E9
  8
0
 10
200.4693443486068
 20
224.5187914883245
 30
0.0
 11
200.4693443486068
 21
225.5187914883245
 31
0.0
  0
LINE
  5
164EB
  8
0
 10
199.4693443486068
 20
220.3103914883246
 30
0.0
 11
199.4693443486068
 21
220.55499148832459
 31
0.0
  0
LINE
  5
164EC
  8
0
 10
199.4693443486068
 20
222.5495914883245
 30
0.0
 11
199.4693443486068
 21
222.7995914883245
 31
0.0
  0
ARC
  5
164ED
  8
0
 10
207.64933146017091
 20
225.5187914883245
 30
0.0
 40
0.5
 50
0.0
 51
90.0
  0
ARC
  5
164EE
  8
0
 10
203.64933146017091
 20
225.5187914883245
 30
0.0
 40
0.5
 50
90.0
 51
180.0
  0
ARC
  5
164EF
  8
0
 10
207.64933146017091
 20
224.5187914883245
 30
0.0
 40
0.5
 50
270.0
 51
0.0
  0
ARC
  5
164F0
  8
0
 10
203.64933146017091
 20
224.5187914883245
 30
0.0
 40
0.5
 50
180.0
 51
270.0
  0
ARC
  5
164F1
  8
0
 10
207.64933146017091
 20
217.58879148832449
 30
0.0
 40
0.5
 50
270.0
 51
0.0
  0
ARC
  5
164F2
  8
0
 10
203.64933146017091
 20
217.58879148832449
 30
0.0
 40
0.5
 50
180.0
 51
270.0
  0
ARC
  5
164F3
  8
0
 10
207.64933146017091
 20
218.58879148832449
 30
0.0
 40
0.5
 50
0.0
 51
90.0
  0
ARC
  5
164F4
  8
0
 10
203.64933146017091
 20
218.58879148832449
 30
0.0
 40
0.5
 50
90.0
 51
180.0
  0
LINE
  5
164F5
  8
0
 10
203.14933146017091
 20
218.58879148832449
 30
0.0
 11
203.14933146017091
 21
217.58879148832449
 31
0.0
  0
LINE
  5
164F6
  8
0
 10
208.14933146017091
 20
217.58879148832449
 30
0.0
 11
208.14933146017091
 21
218.58879148832449
 31
0.0
  0
LINE
  5
164F7
  8
0
 10
203.14933146017091
 20
225.5187914883245
 30
0.0
 11
203.14933146017091
 21
224.5187914883245
 31
0.0
  0
LINE
  5
164F8
  8
0
 10
208.14933146017091
 20
224.5187914883245
 30
0.0
 11
208.14933146017091
 21
225.5187914883245
 31
0.0
  0
LINE
  5
164F9
  8
0
 10
204.14933146017091
 20
222.7995914883245
 30
0.0
 11
204.14933146017091
 21
222.55459148832449
 31
0.0
  0
LINE
  5
164FA
  8
0
 10
204.1493314601708
 20
220.55499148832459
 30
0.0
 11
204.14933146017091
 21
220.3103914883246
 31
0.0
  0
LINE
  5
164FC
  8
0
 10
207.14933146017091
 20
220.3103914883246
 30
0.0
 11
207.14933146017091
 21
220.55499148832459
 31
0.0
  0
LINE
  5
164FD
  8
0
 10
207.14933146017091
 20
222.55459148832449
 30
0.0
 11
207.14933146017091
 21
222.7995914883245
 31
0.0
  0
LINE
  5
164FE
  8
0
 10
165.1497895577557
 20
226.55499148832459
 30
0.0
 11
165.14978955775561
 21
216.5549914883245
 31
0.0
  0
LINE
  5
16500
  8
0
 10
141.8497895577556
 20
224.7049914882611
 30
0.0
 11
141.8497895577556
 21
218.40499148838799
 31
0.0
  0
LINE
  5
16507
  8
0
 10
184.9843381504991
 20
217.16852111316089
 30
0.0
 11
184.9843381504991
 21
225.9414618634882
 31
0.0
  0
POLYLINE
  5
16508
  8
0
 66
     1
 10
0.0
 20
0.0
 30
0.0
 70
   128
  0
VERTEX
  5
176D8
  8
0
 10
170.46514105415591
 20
214.627142307821
 30
0.0
  0
VERTEX
  5
176D9
  8
0
 10
170.42673007974341
 20
214.6406761261957
 30
0.0
  0
VERTEX
  5
176DA
  8
0
 10
170.4093949367265
 20
214.6499217564463
 30
0.0
  0
SEQEND
  5
176DB
  8
0
  0
POLYLINE
  5
16509
  8
0
 66
     1
 10
0.0
 20
0.0
 30
0.0
 70
   128
  0
VERTEX
  5
176DC
  8
0
 10
170.46514105415599
 20
228.48284066882809
 30
0.0
  0
VERTEX
  5
176DD
  8
0
 10
170.42673007974349
 20
228.46930685045339
 30
0.0
  0
VERTEX
  5
176DE
  8
0
 10
170.4093902881757
 20
228.46005845426171
 30
0.0
  0
SEQEND
  5
176DF
  8
0
  0
LINE
  5
1650D
  8
0
 10
174.04983566147439
 20
213.77495885034349
 30
0.0
 11
174.09522131735
 21
213.76969783684589
 31
0.0
  0
LINE
  5
1650E
  8
0
 10
174.09522131735
 20
229.3402851398032
 30
0.0
 11
174.04983566147439
 21
229.3350241263056
 31
0.0
  0
ARC
  5
1650F
  8
0
 10
175.0255782159262
 20
225.43396343715881
 30
0.0
 40
4.0155837935821692
 50
90.012437248582316
 51
103.3963884521885
  0
ARC
  5
16510
  8
0
 10
175.0255782159268
 20
217.67601953949381
 30
0.0
 40
4.0155837935856704
 50
256.60361154781151
 51
269.98756275141108
  0
POLYLINE
  5
16511
  8
0
 10
184.59407507747343
 20
216.14183583212102
 30
0.0
 66
     1
 70
     8
  0
VERTEX
  8
0
  5
17786
 10
184.594
 20
216.142
 30
0.000000
  70
    32
  0
VERTEX
  8
0
  5
17787
 10
184.599
 20
216.143
 30
0.000000
  70
    32
  0
VERTEX
  8
0
  5
17788
 10
184.604
 20
216.145
 30
0.000000
  70
    32
  0
VERTEX
  8
0
  5
17789
 10
184.609
 20
216.147
 30
0.000000
  70
    32
  0
VERTEX
  8
0
  5
1778A
 10
184.614
 20
216.149
 30
0.000000
  70
    32
  0
VERTEX
  8
0
  5
1778B
 10
184.619
 20
216.151
 30
0.000000
  70
    32
  0
VERTEX
  8
0
  5
1778C
 10
184.624
 20
216.153
 30
0.000000
  70
    32
  0
VERTEX
  8
0
  5
1778D
 10
184.629
 20
216.156
 30
0.000000
  70
    32
  0
VERTEX
  8
0
  5
1778E
 10
184.634
 20
216.158
 30
0.000000
  70
    32
  0
VERTEX
  8
0
  5
1778F
 10
184.639
 20
216.161
 30
0.000000
  70
    32
  0
VERTEX
  8
0
  5
17790
 10
184.644
 20
216.163
 30
0.000000
  70
    32
  0
VERTEX
  8
0
  5
17791
 10
184.649
 20
216.166
 30
0.000000
  70
    32
  0
VERTEX
  8
0
  5
17792
 10
184.653
 20
216.169
 30
0.000000
  70
    32
  0
VERTEX
  8
0
  5
17793
 10
184.658
 20
216.172
 30
0.000000
  70
    32
  0
VERTEX
  8
0
  5
17794
 10
184.663
 20
216.175
 30
0.000000
  70
    32
  0
VERTEX
  8
0
  5
17795
 10
184.668
 20
216.179
 30
0.000000
  70
    32
  0
VERTEX
  8
0
  5
17796
 10
184.673
 20
216.182
 30
0.000000
  70
    32
  0
VERTEX
  8
0
  5
17797
 10
184.678
 20
216.186
 30
0.000000
  70
    32
  0
VERTEX
  8
0
  5
17798
 10
184.682
 20
216.190
 30
0.000000
  70
    32
  0
VERTEX
  8
0
  5
17799
 10
184.687
 20
216.194
 30
0.000000
  70
    32
  0
VERTEX
  8
0
  5
1779A
 10
184.692
 20
216.198
 30
0.000000
  70
    32
  0
VERTEX
  8
0
  5
1779B
 10
184.697
 20
216.202
 30
0.000000
  70
    32
  0
VERTEX
  8
0
  5
1779C
 10
184.701
 20
216.206
 30
0.000000
  70
    32
  0
VERTEX
  8
0
  5
1779D
 10
184.706
 20
216.210
 30
0.000000
  70
    32
  0
VERTEX
  8
0
  5
1779E
 10
184.711
 20
216.215
 30
0.000000
  70
    32
  0
VERTEX
  8
0
  5
1779F
 10
184.715
 20
216.219
 30
0.000000
  70
    32
  0
VERTEX
  8
0
  5
177A0
 10
184.720
 20
216.224
 30
0.000000
  70
    32
  0
VERTEX
  8
0
  5
177A1
 10
184.724
 20
216.229
 30
0.000000
  70
    32
  0
VERTEX
  8
0
  5
177A2
 10
184.729
 20
216.234
 30
0.000000
  70
    32
  0
VERTEX
  8
0
  5
177A3
 10
184.734
 20
216.239
 30
0.000000
  70
    32
  0
VERTEX
  8
0
  5
177A4
 10
184.738
 20
216.244
 30
0.000000
  70
    32
  0
VERTEX
  8
0
  5
177A5
 10
184.743
 20
216.249
 30
0.000000
  70
    32
  0
VERTEX
  8
0
  5
177A6
 10
184.747
 20
216.255
 30
0.000000
  70
    32
  0
VERTEX
  8
0
  5
177A7
 10
184.751
 20
216.260
 30
0.000000
  70
    32
  0
VERTEX
  8
0
  5
177A8
 10
184.756
 20
216.266
 30
0.000000
  70
    32
  0
VERTEX
  8
0
  5
177A9
 10
184.760
 20
216.272
 30
0.000000
  70
    32
  0
VERTEX
  8
0
  5
177AA
 10
184.765
 20
216.278
 30
0.000000
  70
    32
  0
VERTEX
  8
0
  5
177AB
 10
184.769
 20
216.284
 30
0.000000
  70
    32
  0
VERTEX
  8
0
  5
177AC
 10
184.773
 20
216.290
 30
0.000000
  70
    32
  0
VERTEX
  8
0
  5
177AD
 10
184.778
 20
216.296
 30
0.000000
  70
    32
  0
VERTEX
  8
0
  5
177AE
 10
184.782
 20
216.302
 30
0.000000
  70
    32
  0
VERTEX
  8
0
  5
177AF
 10
184.786
 20
216.309
 30
0.000000
  70
    32
  0
VERTEX
  8
0
  5
177B0
 10
184.790
 20
216.315
 30
0.000000
  70
    32
  0
VERTEX
  8
0
  5
177B1
 10
184.794
 20
216.322
 30
0.000000
  70
    32
  0
VERTEX
  8
0
  5
177B2
 10
184.798
 20
216.329
 30
0.000000
  70
    32
  0
VERTEX
  8
0
  5
177B3
 10
184.802
 20
216.336
 30
0.000000
  70
    32
  0
VERTEX
  8
0
  5
177B4
 10
184.806
 20
216.343
 30
0.000000
  70
    32
  0
VERTEX
  8
0
  5
177B5
 10
184.810
 20
216.350
 30
0.000000
  70
    32
  0
VERTEX
  8
0
  5
177B6
 10
184.814
 20
216.357
 30
0.000000
  70
    32
  0
VERTEX
  8
0
  5
177B7
 10
184.818
 20
216.364
 30
0.000000
  70
    32
  0
VERTEX
  8
0
  5
177B8
 10
184.822
 20
216.371
 30
0.000000
  70
    32
  0
VERTEX
  8
0
  5
177B9
 10
184.826
 20
216.379
 30
0.000000
  70
    32
  0
VERTEX
  8
0
  5
177BA
 10
184.830
 20
216.387
 30
0.000000
  70
    32
  0
VERTEX
  8
0
  5
177BB
 10
184.834
 20
216.394
 30
0.000000
  70
    32
  0
VERTEX
  8
0
  5
177BC
 10
184.838
 20
216.402
 30
0.000000
  70
    32
  0
VERTEX
  8
0
  5
177BD
 10
184.841
 20
216.410
 30
0.000000
  70
    32
  0
VERTEX
  8
0
  5
177BE
 10
184.845
 20
216.418
 30
0.000000
  70
    32
  0
VERTEX
  8
0
  5
177BF
 10
184.849
 20
216.426
 30
0.000000
  70
    32
  0
VERTEX
  8
0
  5
177C0
 10
184.852
 20
216.434
 30
0.000000
  70
    32
  0
VERTEX
  8
0
  5
177C1
 10
184.856
 20
216.442
 30
0.000000
  70
    32
  0
VERTEX
  8
0
  5
177C2
 10
184.859
 20
216.451
 30
0.000000
  70
    32
  0
VERTEX
  8
0
  5
177C3
 10
184.863
 20
216.459
 30
0.000000
  70
    32
  0
VERTEX
  8
0
  5
177C4
 10
184.866
 20
216.468
 30
0.000000
  70
    32
  0
VERTEX
  8
0
  5
177C5
 10
184.870
 20
216.476
 30
0.000000
  70
    32
  0
VERTEX
  8
0
  5
177C6
 10
184.873
 20
216.485
 30
0.000000
  70
    32
  0
VERTEX
  8
0
  5
177C7
 10
184.876
 20
216.494
 30
0.000000
  70
    32
  0
VERTEX
  8
0
  5
177C8
 10
184.879
 20
216.503
 30
0.000000
  70
    32
  0
VERTEX
  8
0
  5
177C9
 10
184.883
 20
216.512
 30
0.000000
  70
    32
  0
VERTEX
  8
0
  5
177CA
 10
184.886
 20
216.521
 30
0.000000
  70
    32
  0
VERTEX
  8
0
  5
177CB
 10
184.889
 20
216.530
 30
0.000000
  70
    32
  0
VERTEX
  8
0
  5
177CC
 10
184.892
 20
216.539
 30
0.000000
  70
    32
  0
VERTEX
  8
0
  5
177CD
 10
184.895
 20
216.549
 30
0.000000
  70
    32
  0
VERTEX
  8
0
  5
177CE
 10
184.898
 20
216.558
 30
0.000000
  70
    32
  0
VERTEX
  8
0
  5
177CF
 10
184.901
 20
216.567
 30
0.000000
  70
    32
  0
VERTEX
  8
0
  5
177D0
 10
184.904
 20
216.577
 30
0.000000
  70
    32
  0
VERTEX
  8
0
  5
177D1
 10
184.907
 20
216.587
 30
0.000000
  70
    32
  0
VERTEX
  8
0
  5
177D2
 10
184.910
 20
216.596
 30
0.000000
  70
    32
  0
VERTEX
  8
0
  5
177D3
 10
184.912
 20
216.606
 30
0.000000
  70
    32
  0
VERTEX
  8
0
  5
177D4
 10
184.915
 20
216.616
 30
0.000000
  70
    32
  0
VERTEX
  8
0
  5
177D5
 10
184.918
 20
216.626
 30
0.000000
  70
    32
  0
VERTEX
  8
0
  5
177D6
 10
184.920
 20
216.636
 30
0.000000
  70
    32
  0
VERTEX
  8
0
  5
177D7
 10
184.923
 20
216.646
 30
0.000000
  70
    32
  0
VERTEX
  8
0
  5
177D8
 10
184.926
 20
216.656
 30
0.000000
  70
    32
  0
VERTEX
  8
0
  5
177D9
 10
184.928
 20
216.666
 30
0.000000
  70
    32
  0
VERTEX
  8
0
  5
177DA
 10
184.930
 20
216.676
 30
0.000000
  70
    32
  0
VERTEX
  8
0
  5
177DB
 10
184.933
 20
216.686
 30
0.000000
  70
    32
  0
VERTEX
  8
0
  5
177DC
 10
184.935
 20
216.697
 30
0.000000
  70
    32
  0
VERTEX
  8
0
  5
177DD
 10
184.937
 20
216.707
 30
0.000000
  70
    32
  0
VERTEX
  8
0
  5
177DE
 10
184.940
 20
216.718
 30
0.000000
  70
    32
  0
VERTEX
  8
0
  5
177DF
 10
184.942
 20
216.728
 30
0.000000
  70
    32
  0
VERTEX
  8
0
  5
177E0
 10
184.944
 20
216.739
 30
0.000000
  70
    32
  0
VERTEX
  8
0
  5
177E1
 10
184.946
 20
216.749
 30
0.000000
  70
    32
  0
VERTEX
  8
0
  5
177E2
 10
184.948
 20
216.760
 30
0.000000
  70
    32
  0
VERTEX
  8
0
  5
177E3
 10
184.950
 20
216.771
 30
0.000000
  70
    32
  0
VERTEX
  8
0
  5
177E4
 10
184.952
 20
216.782
 30
0.000000
  70
    32
  0
VERTEX
  8
0
  5
177E5
 10
184.954
 20
216.792
 30
0.000000
  70
    32
  0
VERTEX
  8
0
  5
177E6
 10
184.956
 20
216.803
 30
0.000000
  70
    32
  0
VERTEX
  8
0
  5
177E7
 10
184.957
 20
216.814
 30
0.000000
  70
    32
  0
VERTEX
  8
0
  5
177E8
 10
184.959
 20
216.825
 30
0.000000
  70
    32
  0
VERTEX
  8
0
  5
177E9
 10
184.961
 20
216.836
 30
0.000000
  70
    32
  0
VERTEX
  8
0
  5
177EA
 10
184.962
 20
216.847
 30
0.000000
  70
    32
  0
VERTEX
  8
0
  5
177EB
 10
184.964
 20
216.858
 30
0.000000
  70
    32
  0
VERTEX
  8
0
  5
177EC
 10
184.965
 20
216.870
 30
0.000000
  70
    32
  0
VERTEX
  8
0
  5
177ED
 10
184.967
 20
216.881
 30
0.000000
  70
    32
  0
VERTEX
  8
0
  5
177EE
 10
184.968
 20
216.892
 30
0.000000
  70
    32
  0
VERTEX
  8
0
  5
177EF
 10
184.969
 20
216.903
 30
0.000000
  70
    32
  0
VERTEX
  8
0
  5
177F0
 10
184.971
 20
216.915
 30
0.000000
  70
    32
  0
VERTEX
  8
0
  5
177F1
 10
184.972
 20
216.926
 30
0.000000
  70
    32
  0
VERTEX
  8
0
  5
177F2
 10
184.973
 20
216.937
 30
0.000000
  70
    32
  0
VERTEX
  8
0
  5
177F3
 10
184.974
 20
216.949
 30
0.000000
  70
    32
  0
VERTEX
  8
0
  5
177F4
 10
184.975
 20
216.960
 30
0.000000
  70
    32
  0
VERTEX
  8
0
  5
177F5
 10
184.976
 20
216.971
 30
0.000000
  70
    32
  0
VERTEX
  8
0
  5
177F6
 10
184.977
 20
216.983
 30
0.000000
  70
    32
  0
VERTEX
  8
0
  5
177F7
 10
184.978
 20
216.994
 30
0.000000
  70
    32
  0
VERTEX
  8
0
  5
177F8
 10
184.979
 20
217.006
 30
0.000000
  70
    32
  0
VERTEX
  8
0
  5
177F9
 10
184.980
 20
217.017
 30
0.000000
  70
    32
  0
VERTEX
  8
0
  5
177FA
 10
184.980
 20
217.029
 30
0.000000
  70
    32
  0
VERTEX
  8
0
  5
177FB
 10
184.981
 20
217.041
 30
0.000000
  70
    32
  0
VERTEX
  8
0
  5
177FC
 10
184.981
 20
217.052
 30
0.000000
  70
    32
  0
VERTEX
  8
0
  5
177FD
 10
184.982
 20
217.064
 30
0.000000
  70
    32
  0
VERTEX
  8
0
  5
177FE
 10
184.983
 20
217.075
 30
0.000000
  70
    32
  0
VERTEX
  8
0
  5
177FF
 10
184.983
 20
217.087
 30
0.000000
  70
    32
  0
VERTEX
  8
0
  5
17800
 10
184.983
 20
217.099
 30
0.000000
  70
    32
  0
VERTEX
  8
0
  5
17801
 10
184.984
 20
217.110
 30
0.000000
  70
    32
  0
VERTEX
  8
0
  5
17802
 10
184.984
 20
217.122
 30
0.000000
  70
    32
  0
VERTEX
  8
0
  5
17803
 10
184.984
 20
217.134
 30
0.000000
  70
    32
  0
VERTEX
  8
0
  5
17804
 10
184.984
 20
217.145
 30
0.000000
  70
    32
  0
VERTEX
  8
0
  5
17805
 10
184.984
 20
217.157
 30
0.000000
  70
    32
  0
VERTEX
  8
0
  5
17806
 10
184.984
 20
217.169
 30
0.000000
  70
    32
  0
SEQEND
  8
0
  5
17807
  0
POLYLINE
  5
16512
  8
0
 10
184.9843381504991
 20
225.9414618634882
 30
0.0
 66
     1
 70
     8
  0
VERTEX
  8
0
  5
17808
 10
184.984
 20
225.941
 30
0.000000
  70
    32
  0
VERTEX
  8
0
  5
17809
 10
184.984
 20
225.953
 30
0.000000
  70
    32
  0
VERTEX
  8
0
  5
1780A
 10
184.984
 20
225.965
 30
0.000000
  70
    32
  0
VERTEX
  8
0
  5
1780B
 10
184.984
 20
225.976
 30
0.000000
  70
    32
  0
VERTEX
  8
0
  5
1780C
 10
184.984
 20
225.988
 30
0.000000
  70
    32
  0
VERTEX
  8
0
  5
1780D
 10
184.984
 20
226.000
 30
0.000000
  70
    32
  0
VERTEX
  8
0
  5
1780E
 10
184.983
 20
226.011
 30
0.000000
  70
    32
  0
VERTEX
  8
0
  5
1780F
 10
184.983
 20
226.023
 30
0.000000
  70
    32
  0
VERTEX
  8
0
  5
17810
 10
184.983
 20
226.035
 30
0.000000
  70
    32
  0
VERTEX
  8
0
  5
17811
 10
184.982
 20
226.046
 30
0.000000
  70
    32
  0
VERTEX
  8
0
  5
17812
 10
184.981
 20
226.058
 30
0.000000
  70
    32
  0
VERTEX
  8
0
  5
17813
 10
184.981
 20
226.069
 30
0.000000
  70
    32
  0
VERTEX
  8
0
  5
17814
 10
184.980
 20
226.081
 30
0.000000
  70
    32
  0
VERTEX
  8
0
  5
17815
 10
184.980
 20
226.093
 30
0.000000
  70
    32
  0
VERTEX
  8
0
  5
17816
 10
184.979
 20
226.104
 30
0.000000
  70
    32
  0
VERTEX
  8
0
  5
17817
 10
184.978
 20
226.116
 30
0.000000
  70
    32
  0
VERTEX
  8
0
  5
17818
 10
184.977
 20
226.127
 30
0.000000
  70
    32
  0
VERTEX
  8
0
  5
17819
 10
184.976
 20
226.139
 30
0.000000
  70
    32
  0
VERTEX
  8
0
  5
1781A
 10
184.975
 20
226.150
 30
0.000000
  70
    32
  0
VERTEX
  8
0
  5
1781B
 10
184.974
 20
226.161
 30
0.000000
  70
    32
  0
VERTEX
  8
0
  5
1781C
 10
184.973
 20
226.173
 30
0.000000
  70
    32
  0
VERTEX
  8
0
  5
1781D
 10
184.972
 20
226.184
 30
0.000000
  70
    32
  0
VERTEX
  8
0
  5
1781E
 10
184.971
 20
226.195
 30
0.000000
  70
    32
  0
VERTEX
  8
0
  5
1781F
 10
184.969
 20
226.207
 30
0.000000
  70
    32
  0
VERTEX
  8
0
  5
17820
 10
184.968
 20
226.218
 30
0.000000
  70
    32
  0
VERTEX
  8
0
  5
17821
 10
184.967
 20
226.229
 30
0.000000
  70
    32
  0
VERTEX
  8
0
  5
17822
 10
184.965
 20
226.240
 30
0.000000
  70
    32
  0
VERTEX
  8
0
  5
17823
 10
184.964
 20
226.252
 30
0.000000
  70
    32
  0
VERTEX
  8
0
  5
17824
 10
184.962
 20
226.263
 30
0.000000
  70
    32
  0
VERTEX
  8
0
  5
17825
 10
184.961
 20
226.274
 30
0.000000
  70
    32
  0
VERTEX
  8
0
  5
17826
 10
184.959
 20
226.285
 30
0.000000
  70
    32
  0
VERTEX
  8
0
  5
17827
 10
184.957
 20
226.296
 30
0.000000
  70
    32
  0
VERTEX
  8
0
  5
17828
 10
184.956
 20
226.307
 30
0.000000
  70
    32
  0
VERTEX
  8
0
  5
17829
 10
184.954
 20
226.318
 30
0.000000
  70
    32
  0
VERTEX
  8
0
  5
1782A
 10
184.952
 20
226.328
 30
0.000000
  70
    32
  0
VERTEX
  8
0
  5
1782B
 10
184.950
 20
226.339
 30
0.000000
  70
    32
  0
VERTEX
  8
0
  5
1782C
 10
184.948
 20
226.350
 30
0.000000
  70
    32
  0
VERTEX
  8
0
  5
1782D
 10
184.946
 20
226.361
 30
0.000000
  70
    32
  0
VERTEX
  8
0
  5
1782E
 10
184.944
 20
226.371
 30
0.000000
  70
    32
  0
VERTEX
  8
0
  5
1782F
 10
184.942
 20
226.382
 30
0.000000
  70
    32
  0
VERTEX
  8
0
  5
17830
 10
184.940
 20
226.392
 30
0.000000
  70
    32
  0
VERTEX
  8
0
  5
17831
 10
184.937
 20
226.403
 30
0.000000
  70
    32
  0
VERTEX
  8
0
  5
17832
 10
184.935
 20
226.413
 30
0.000000
  70
    32
  0
VERTEX
  8
0
  5
17833
 10
184.933
 20
226.424
 30
0.000000
  70
    32
  0
VERTEX
  8
0
  5
17834
 10
184.930
 20
226.434
 30
0.000000
  70
    32
  0
VERTEX
  8
0
  5
17835
 10
184.928
 20
226.444
 30
0.000000
  70
    32
  0
VERTEX
  8
0
  5
17836
 10
184.926
 20
226.454
 30
0.000000
  70
    32
  0
VERTEX
  8
0
  5
17837
 10
184.923
 20
226.464
 30
0.000000
  70
    32
  0
VERTEX
  8
0
  5
17838
 10
184.920
 20
226.474
 30
0.000000
  70
    32
  0
VERTEX
  8
0
  5
17839
 10
184.918
 20
226.484
 30
0.000000
  70
    32
  0
VERTEX
  8
0
  5
1783A
 10
184.915
 20
226.494
 30
0.000000
  70
    32
  0
VERTEX
  8
0
  5
1783B
 10
184.912
 20
226.504
 30
0.000000
  70
    32
  0
VERTEX
  8
0
  5
1783C
 10
184.910
 20
226.514
 30
0.000000
  70
    32
  0
VERTEX
  8
0
  5
1783D
 10
184.907
 20
226.523
 30
0.000000
  70
    32
  0
VERTEX
  8
0
  5
1783E
 10
184.904
 20
226.533
 30
0.000000
  70
    32
  0
VERTEX
  8
0
  5
1783F
 10
184.901
 20
226.543
 30
0.000000
  70
    32
  0
VERTEX
  8
0
  5
17840
 10
184.898
 20
226.552
 30
0.000000
  70
    32
  0
VERTEX
  8
0
  5
17841
 10
184.895
 20
226.561
 30
0.000000
  70
    32
  0
VERTEX
  8
0
  5
17842
 10
184.892
 20
226.571
 30
0.000000
  70
    32
  0
VERTEX
  8
0
  5
17843
 10
184.889
 20
226.580
 30
0.000000
  70
    32
  0
VERTEX
  8
0
  5
17844
 10
184.886
 20
226.589
 30
0.000000
  70
    32
  0
VERTEX
  8
0
  5
17845
 10
184.883
 20
226.598
 30
0.000000
  70
    32
  0
VERTEX
  8
0
  5
17846
 10
184.879
 20
226.607
 30
0.000000
  70
    32
  0
VERTEX
  8
0
  5
17847
 10
184.876
 20
226.616
 30
0.000000
  70
    32
  0
VERTEX
  8
0
  5
17848
 10
184.873
 20
226.625
 30
0.000000
  70
    32
  0
VERTEX
  8
0
  5
17849
 10
184.870
 20
226.634
 30
0.000000
  70
    32
  0
VERTEX
  8
0
  5
1784A
 10
184.866
 20
226.642
 30
0.000000
  70
    32
  0
VERTEX
  8
0
  5
1784B
 10
184.863
 20
226.651
 30
0.000000
  70
    32
  0
VERTEX
  8
0
  5
1784C
 10
184.859
 20
226.659
 30
0.000000
  70
    32
  0
VERTEX
  8
0
  5
1784D
 10
184.856
 20
226.668
 30
0.000000
  70
    32
  0
VERTEX
  8
0
  5
1784E
 10
184.852
 20
226.676
 30
0.000000
  70
    32
  0
VERTEX
  8
0
  5
1784F
 10
184.849
 20
226.684
 30
0.000000
  70
    32
  0
VERTEX
  8
0
  5
17850
 10
184.845
 20
226.692
 30
0.000000
  70
    32
  0
VERTEX
  8
0
  5
17851
 10
184.841
 20
226.700
 30
0.000000
  70
    32
  0
VERTEX
  8
0
  5
17852
 10
184.838
 20
226.708
 30
0.000000
  70
    32
  0
VERTEX
  8
0
  5
17853
 10
184.834
 20
226.716
 30
0.000000
  70
    32
  0
VERTEX
  8
0
  5
17854
 10
184.830
 20
226.723
 30
0.000000
  70
    32
  0
VERTEX
  8
0
  5
17855
 10
184.826
 20
226.731
 30
0.000000
  70
    32
  0
VERTEX
  8
0
  5
17856
 10
184.822
 20
226.738
 30
0.000000
  70
    32
  0
VERTEX
  8
0
  5
17857
 10
184.818
 20
226.746
 30
0.000000
  70
    32
  0
VERTEX
  8
0
  5
17858
 10
184.814
 20
226.753
 30
0.000000
  70
    32
  0
VERTEX
  8
0
  5
17859
 10
184.810
 20
226.760
 30
0.000000
  70
    32
  0
VERTEX
  8
0
  5
1785A
 10
184.806
 20
226.767
 30
0.000000
  70
    32
  0
VERTEX
  8
0
  5
1785B
 10
184.802
 20
226.774
 30
0.000000
  70
    32
  0
VERTEX
  8
0
  5
1785C
 10
184.798
 20
226.781
 30
0.000000
  70
    32
  0
VERTEX
  8
0
  5
1785D
 10
184.794
 20
226.788
 30
0.000000
  70
    32
  0
VERTEX
  8
0
  5
1785E
 10
184.790
 20
226.795
 30
0.000000
  70
    32
  0
VERTEX
  8
0
  5
1785F
 10
184.786
 20
226.801
 30
0.000000
  70
    32
  0
VERTEX
  8
0
  5
17860
 10
184.782
 20
226.808
 30
0.000000
  70
    32
  0
VERTEX
  8
0
  5
17861
 10
184.778
 20
226.814
 30
0.000000
  70
    32
  0
VERTEX
  8
0
  5
17862
 10
184.773
 20
226.820
 30
0.000000
  70
    32
  0
VERTEX
  8
0
  5
17863
 10
184.769
 20
226.826
 30
0.000000
  70
    32
  0
VERTEX
  8
0
  5
17864
 10
184.765
 20
226.832
 30
0.000000
  70
    32
  0
VERTEX
  8
0
  5
17865
 10
184.760
 20
226.838
 30
0.000000
  70
    32
  0
VERTEX
  8
0
  5
17866
 10
184.756
 20
226.844
 30
0.000000
  70
    32
  0
VERTEX
  8
0
  5
17867
 10
184.751
 20
226.850
 30
0.000000
  70
    32
  0
VERTEX
  8
0
  5
17868
 10
184.747
 20
226.855
 30
0.000000
  70
    32
  0
VERTEX
  8
0
  5
17869
 10
184.743
 20
226.861
 30
0.000000
  70
    32
  0
VERTEX
  8
0
  5
1786A
 10
184.738
 20
226.866
 30
0.000000
  70
    32
  0
VERTEX
  8
0
  5
1786B
 10
184.734
 20
226.871
 30
0.000000
  70
    32
  0
VERTEX
  8
0
  5
1786C
 10
184.729
 20
226.876
 30
0.000000
  70
    32
  0
VERTEX
  8
0
  5
1786D
 10
184.724
 20
226.881
 30
0.000000
  70
    32
  0
VERTEX
  8
0
  5
1786E
 10
184.720
 20
226.886
 30
0.000000
  70
    32
  0
VERTEX
  8
0
  5
1786F
 10
184.715
 20
226.891
 30
0.000000
  70
    32
  0
VERTEX
  8
0
  5
17870
 10
184.711
 20
226.895
 30
0.000000
  70
    32
  0
VERTEX
  8
0
  5
17871
 10
184.706
 20
226.900
 30
0.000000
  70
    32
  0
VERTEX
  8
0
  5
17872
 10
184.701
 20
226.904
 30
0.000000
  70
    32
  0
VERTEX
  8
0
  5
17873
 10
184.697
 20
226.908
 30
0.000000
  70
    32
  0
VERTEX
  8
0
  5
17874
 10
184.692
 20
226.912
 30
0.000000
  70
    32
  0
VERTEX
  8
0
  5
17875
 10
184.687
 20
226.916
 30
0.000000
  70
    32
  0
VERTEX
  8
0
  5
17876
 10
184.682
 20
226.920
 30
0.000000
  70
    32
  0
VERTEX
  8
0
  5
17877
 10
184.678
 20
226.924
 30
0.000000
  70
    32
  0
VERTEX
  8
0
  5
17878
 10
184.673
 20
226.928
 30
0.000000
  70
    32
  0
VERTEX
  8
0
  5
17879
 10
184.668
 20
226.931
 30
0.000000
  70
    32
  0
VERTEX
  8
0
  5
1787A
 10
184.663
 20
226.935
 30
0.000000
  70
    32
  0
VERTEX
  8
0
  5
1787B
 10
184.658
 20
226.938
 30
0.000000
  70
    32
  0
VERTEX
  8
0
  5
1787C
 10
184.653
 20
226.941
 30
0.000000
  70
    32
  0
VERTEX
  8
0
  5
1787D
 10
184.649
 20
226.944
 30
0.000000
  70
    32
  0
VERTEX
  8
0
  5
1787E
 10
184.644
 20
226.947
 30
0.000000
  70
    32
  0
VERTEX
  8
0
  5
1787F
 10
184.639
 20
226.949
 30
0.000000
  70
    32
  0
VERTEX
  8
0
  5
17880
 10
184.634
 20
226.952
 30
0.000000
  70
    32
  0
VERTEX
  8
0
  5
17881
 10
184.629
 20
226.954
 30
0.000000
  70
    32
  0
VERTEX
  8
0
  5
17882
 10
184.624
 20
226.957
 30
0.000000
  70
    32
  0
VERTEX
  8
0
  5
17883
 10
184.619
 20
226.959
 30
0.000000
  70
    32
  0
VERTEX
  8
0
  5
17884
 10
184.614
 20
226.961
 30
0.000000
  70
    32
  0
VERTEX
  8
0
  5
17885
 10
184.609
 20
226.963
 30
0.000000
  70
    32
  0
VERTEX
  8
0
  5
17886
 10
184.604
 20
226.965
 30
0.000000
  70
    32
  0
VERTEX
  8
0
  5
17887
 10
184.599
 20
226.967
 30
0.000000
  70
    32
  0
VERTEX
  8
0
  5
17888
 10
184.594
 20
226.968
 30
0.000000
  70
    32
  0
SEQEND
  8
0
  5
17889
  0
LINE
  5
16515
  8
0
 10
196.9755905541794
 20
223.5187914883245
 30
0.0
 11
196.9755905541794
 21
219.5911914883246
 31
0.0
  0
ARC
  5
16516
  8
0
 10
128.5064488738991
 20
219.46665748831001
 30
0.0
 40
68.46925493352073
 50
359.68580459959259
 51
0.104211394556071
  0
LINE
  5
16517
  8
0
 10
192.62134587164181
 20
219.0911914883246
 30
0.0
 11
208.4433314601709
 21
219.0911914883246
 31
0.0
  0
LINE
  5
16518
  8
0
 10
208.4433314601709
 20
224.01879148832461
 30
0.0
 11
192.62134587164289
 21
224.01879148832461
 31
0.0
  0
ARC
  5
16519
  8
0
 10
128.55268212080591
 20
223.64341020883111
 30
0.0
 40
68.423021917387629
 50
359.89564724736408
 51
0.3143367584888001
  0
LINE
  5
1651D
  8
0
 10
208.44333146017081
 20
220.3103914883246
 30
0.0
 11
196.97559055417949
 21
220.3103914883246
 31
0.0
  0
LINE
  5
16525
  8
0
 10
196.97559055417949
 20
222.7995914883245
 30
0.0
 11
208.4433267713311
 21
222.7995914883245
 31
0.0
  0
LINE
  5
16526
  8
0
 10
199.9693443486068
 20
226.0187914883245
 30
0.0
 11
195.9693443486068
 21
226.0187914883245
 31
0.0
  0
LINE
  5
16527
  8
0
 10
195.9693443486068
 20
217.08879148832449
 30
0.0
 11
199.9693443486068
 21
217.08879148832449
 31
0.0
  0
LINE
  5
16528
  8
0
 10
207.64933146017091
 20
226.0187914883245
 30
0.0
 11
203.64933146017091
 21
226.0187914883245
 31
0.0
  0
LINE
  5
16529
  8
0
 10
203.64933146017091
 20
217.08879148832449
 30
0.0
 11
207.64933146017091
 21
217.08879148832449
 31
0.0
  0
LINE
  5
16533
  8
0
 10
208.65246710719961
 20
222.55499148832459
 30
0.0
 11
196.9755905541794
 21
222.5549914883245
 31
0.0
  0
LINE
  5
16534
  8
0
 10
208.65246710719961
 20
220.55499148832459
 30
0.0
 11
196.97559055417949
 21
220.55499148832459
 31
0.0
  0
LINE
  5
16536
  8
0
 10
176.6497895577574
 20
229.30663777601799
 30
0.0
 11
176.6497895577557
 21
234.4657132807543
 31
0.0
  0
LINE
  5
16537
  8
0
 10
174.6497895577557
 20
229.40964737923409
 30
0.0
 11
174.6497895577557
 21
234.4657132807543
 31
0.0
  0
LINE
  5
16539
  8
0
 10
176.6497895577557
 20
208.64426969589479
 30
0.0
 11
176.6497895577557
 21
213.75879010174299
 31
0.0
  0
LINE
  5
1653A
  8
0
 10
174.64978955775561
 20
213.65578049852729
 30
0.0
 11
174.6497895577557
 21
208.64426969589479
 31
0.0
  0
POLYLINE
  5
1653B
  8
0
 66
     1
 10
0.0
 20
0.0
 30
0.0
 70
   128
  0
VERTEX
  5
176E0
  8
0
 10
176.6497895577557
 20
208.64426969589479
 30
0.0
  0
VERTEX
  5
176E1
  8
0
 10
176.6914288722067
 20
208.45099308029569
 30
0.0
  0
VERTEX
  5
176E2
  8
0
 10
176.7478466521859
 20
208.3741313473339
 30
0.0
  0
VERTEX
  5
176E3
  8
0
 10
176.7855867391977
 20
208.3406355451863
 30
0.0
  0
VERTEX
  5
176E4
  8
0
 10
176.86302590910631
 20
208.29115356226129
 30
0.0
  0
VERTEX
  5
176E5
  8
0
 10
177.0623501987653
 20
208.21611786793869
 30
0.0
  0
VERTEX
  5
176E6
  8
0
 10
177.1063348289413
 20
208.20499148832459
 30
0.0
  0
SEQEND
  5
176E7
  8
0
  0
LINE
  5
1653C
  8
0
 10
182.76337824330761
 20
208.20499148832451
 30
0.0
 11
176.34593643411529
 21
208.20499148832459
 31
0.0
  0
POLYLINE
  5
1653D
  8
0
 66
     1
 10
0.0
 20
0.0
 30
0.0
 70
   128
  0
VERTEX
  5
176E8
  8
0
 10
176.34593643411529
 20
208.20499148832459
 30
0.0
  0
VERTEX
  5
176E9
  8
0
 10
175.9131678532126
 20
208.23793639113811
 30
0.0
  0
VERTEX
  5
176EA
  8
0
 10
175.5273438241943
 20
208.279562907094
 30
0.0
  0
VERTEX
  5
176EB
  8
0
 10
175.2181289790818
 20
208.32789982152809
 30
0.0
  0
VERTEX
  5
176EC
  8
0
 10
174.9700236067095
 20
208.38680135781129
 30
0.0
  0
VERTEX
  5
176ED
  8
0
 10
174.7901164280519
 20
208.4587449557751
 30
0.0
  0
VERTEX
  5
176EE
  8
0
 10
174.6825757411911
 20
208.54573911949299
 30
0.0
  0
VERTEX
  5
176EF
  8
0
 10
174.6497895577557
 20
208.64426969589479
 30
0.0
  0
SEQEND
  5
176F0
  8
0
  0
ARC
  5
1653F
  8
0
 10
177.10262249496921
 20
234.4519651096094
 30
0.0
 40
0.4530415888583225
 50
89.530499065924701
 51
178.26101366151141
  0
LINE
  5
16542
  8
0
 10
204.3298468518453
 20
234.9049914883245
 30
0.0
 11
176.34593643411571
 21
234.90499148832461
 31
0.0
  0
POLYLINE
  5
16543
  8
0
 66
     1
 10
0.0
 20
0.0
 30
0.0
 70
   128
  0
VERTEX
  5
176F1
  8
0
 10
174.6497895577557
 20
234.4657132807543
 30
0.0
  0
VERTEX
  5
176F2
  8
0
 10
174.6977432227969
 20
234.5770006018052
 30
0.0
  0
VERTEX
  5
176F3
  8
0
 10
174.8393247963657
 20
234.67452018234451
 30
0.0
  0
VERTEX
  5
176F4
  8
0
 10
175.04819144480041
 20
234.75017700167729
 30
0.0
  0
VERTEX
  5
176F5
  8
0
 10
175.32665489492649
 20
234.8125667048416
 30
0.0
  0
VERTEX
  5
176F6
  8
0
 10
175.65983782166521
 20
234.8595537731334
 30
0.0
  0
VERTEX
  5
176F7
  8
0
 10
176.04308728190179
 20
234.89168283295561
 30
0.0
  0
VERTEX
  5
176F8
  8
0
 10
176.34593643411571
 20
234.90499148832461
 30
0.0
  0
SEQEND
  5
176F9
  8
0
  0
ARC
  5
16544
  8
0
 10
195.44954566580961
 20
224.5638522856969
 30
0.0
 40
1.001124859392587
 50
88.599589551860177
 51
153.16786540392579
  0
ARC
  5
16545
  8
0
 10
204.3296099643425
 20
230.58213435195779
 30
0.0
 40
4.3228571428572016
 50
0.0
 51
89.996860258461709
  0
CIRCLE
  5
16546
  8
0
 10
198.7633782433077
 20
229.5549914883245
 30
0.0
 40
2.2249999999999939
  0
ARC
  5
16547
  8
0
 10
182.7633782433077
 20
229.5549914883245
 30
0.0
 40
2.224999999999997
 50
280.80790674464788
 51
225.82716854586229
  0
ARC
  5
16549
  8
0
 10
182.76337824330761
 20
213.55499148832459
 30
0.0
 40
2.2249999999999899
 50
136.46619635104221
 51
76.898728358481122
  0
ARC
  5
1654A
  8
0
 10
182.76337824330761
 20
213.55499148832459
 30
0.0
 40
5.3500000000000236
 50
270.0
 51
333.16786540392712
  0
LINE
  5
1654B
  8
0
 10
194.5562091154961
 20
225.0157381030977
 30
0.0
 11
194.04064424310829
 21
223.9965139388807
 31
0.0
  0
LINE
  5
1654C
  8
0
 10
191.50055587632809
 20
218.9749936970581
 30
0.0
 11
187.53735873069309
 21
211.1401187575035
 31
0.0
  0
LINE
  5
1654F
  8
0
 10
208.65246710719981
 20
230.58213435195779
 30
0.0
 11
208.65246710719961
 21
220.55499148832459
 31
0.0
  0
ARC
  5
16550
  8
0
 10
165.6497895577557
 20
58.349999999999952
 30
0.0
 40
0.5000000000000499
 50
180.0
 51
270.0
  0
ARC
  5
16551
  8
0
 10
165.6497895577557
 20
68.34999999999998
 30
0.0
 40
0.500000000000057
 50
90.0
 51
180.0
  0
LINE
  5
16552
  8
0
 10
174.64978955775581
 20
68.850000000000094
 30
0.0
 11
165.6497895577557
 21
68.850000000000094
 31
0.0
  0
LINE
  5
16553
  8
0
 10
165.6497895577557
 20
57.849999999999838
 30
0.0
 11
174.64978955775581
 21
57.849999999999838
 31
0.0
  0
LINE
  5
16554
  8
0
 10
165.1497895577557
 20
66.499999999999872
 30
0.0
 11
141.8497895577556
 21
66.499999999999872
 31
0.0
  0
LINE
  5
16555
  8
0
 10
141.8497895577556
 20
60.200000000000117
 30
0.0
 11
165.1497895577557
 21
60.200000000000117
 31
0.0
  0
LINE
  5
16556
  8
0
 10
141.8497895577556
 20
66.499999999936492
 30
0.0
 11
141.64978955781751
 21
66.299999999998434
 31
0.0
  0
LINE
  5
16557
  8
0
 10
141.64978955781751
 20
60.400000000001519
 30
0.0
 11
141.8497895577556
 21
60.200000000063469
 31
0.0
  0
LINE
  5
16559
  8
0
 10
208.4433314601709
 20
64.592643193393528
 30
0.0
 11
208.4433314601709
 21
65.815756806602806
 31
0.0
  0
LINE
  5
1655A
  8
0
 10
181.21294244163499
 20
56.945861467951381
 30
0.0
 11
183.1806032728089
 21
57.535531577158842
 31
0.0
  0
LINE
  5
1655B
  8
0
 10
183.26772549948879
 20
69.182914665920634
 30
0.0
 11
181.15032416310291
 21
69.817459124742697
 31
0.0
  0
LINE
  5
1655C
  8
0
 10
173.9942153867151
 20
55.614949542500291
 30
0.0
 11
174.6497895577557
 21
55.529335053909712
 31
0.0
  0
LINE
  5
1655D
  8
0
 10
174.6497895577557
 20
71.215220044977997
 30
0.0
 11
174.04983566147439
 21
71.152310187424931
 31
0.0
  0
LINE
  5
1655E
  8
0
 10
170.46514105415599
 20
56.444428368940279
 30
0.0
 11
173.9942153867151
 21
55.614949542500291
 31
0.0
  0
LINE
  5
1655F
  8
0
 10
174.04983566147439
 20
71.152310187424931
 30
0.0
 11
170.46514105415591
 21
70.300126729947465
 31
0.0
  0
ARC
  5
16560
  8
0
 10
171.87548343666549
 20
64.328034861369247
 30
0.0
 40
6.1273366983314377
 50
103.8422534950291
 51
132.43880569833331
  0
ARC
  5
16561
  8
0
 10
171.69593761793979
 20
62.060177340781209
 30
0.0
 40
5.7390777378147479
 50
227.1889017504904
 51
257.04707358752762
  0
LINE
  5
16562
  8
0
 10
195.4693443486068
 20
59.386200000000059
 30
0.0
 11
195.47248931403919
 21
59.340277287526632
 31
0.0
  0
ARC
  5
16563
  8
0
 10
195.9693443486068
 20
60.386200000000073
 30
0.0
 40
0.5
 50
90.0
 51
180.0
  0
ARC
  5
16564
  8
0
 10
195.9693443486068
 20
67.316200000000052
 30
0.0
 40
0.5000000000000071
 50
90.0
 51
180.0
  0
ARC
  5
16565
  8
0
 10
199.9693443486068
 20
67.316200000000052
 30
0.0
 40
0.5000000000000071
 50
0.0
 51
90.0
  0
ARC
  5
16566
  8
0
 10
195.9693443486068
 20
66.316200000000052
 30
0.0
 40
0.5
 50
180.0
 51
270.0
  0
ARC
  5
16567
  8
0
 10
199.9693443486068
 20
66.316200000000052
 30
0.0
 40
0.5
 50
270.0
 51
0.0
  0
LINE
  5
16568
  8
0
 10
195.4693443486068
 20
60.386200000000073
 30
0.0
 11
195.4693443486068
 21
59.386200000000059
 31
0.0
  0
LINE
  5
16569
  8
0
 10
200.4693443486068
 20
66.316200000000052
 30
0.0
 11
200.4693443486068
 21
67.316200000000052
 31
0.0
  0
LINE
  5
1656A
  8
0
 10
195.4693443486068
 20
67.316200000000052
 30
0.0
 11
195.4693443486068
 21
66.316200000000052
 31
0.0
  0
LINE
  5
1656B
  8
0
 10
199.4693443486068
 20
64.355400000000159
 30
0.0
 11
199.4693443486068
 21
64.594600000000028
 31
0.0
  0
LINE
  5
1656C
  8
0
 10
196.4693443486068
 20
64.594600000000028
 30
0.0
 11
196.4693443486068
 21
64.355400000000159
 31
0.0
  0
ARC
  5
1656D
  8
0
 10
203.64933146017091
 20
67.316200000000066
 30
0.0
 40
0.5
 50
90.0
 51
180.0
  0
ARC
  5
1656E
  8
0
 10
207.64933146017091
 20
67.316200000000066
 30
0.0
 40
0.5
 50
0.0
 51
90.0
  0
ARC
  5
1656F
  8
0
 10
203.64933146017091
 20
66.316200000000066
 30
0.0
 40
0.5
 50
180.0
 51
270.0
  0
ARC
  5
16570
  8
0
 10
207.64933146017091
 20
66.316200000000066
 30
0.0
 40
0.5
 50
270.0
 51
0.0
  0
LINE
  5
16571
  8
0
 10
208.14933146017091
 20
66.316200000000066
 30
0.0
 11
208.14933146017091
 21
67.316200000000066
 31
0.0
  0
LINE
  5
16572
  8
0
 10
203.14933146017091
 20
67.316200000000066
 30
0.0
 11
203.14933146017091
 21
66.316200000000066
 31
0.0
  0
LINE
  5
16573
  8
0
 10
207.14933146017091
 20
64.350400000000192
 30
0.0
 11
207.14933146017091
 21
64.594600000000028
 31
0.0
  0
LINE
  5
16574
  8
0
 10
204.14933146017091
 20
64.594600000000028
 30
0.0
 11
204.14933146017091
 21
64.350400000000192
 31
0.0
  0
LINE
  5
16575
  8
0
 10
165.1497895577557
 20
68.34999999999998
 30
0.0
 11
165.1497895577557
 21
58.349999999999952
 31
0.0
  0
LINE
  5
16577
  8
0
 10
141.8497895577556
 20
66.499999999999872
 30
0.0
 11
141.84978955775551
 21
60.200000000063547
 31
0.0
  0
LINE
  5
16578
  8
0
 10
141.64978955781751
 20
66.299999999998434
 30
0.0
 11
141.64978955781751
 21
60.400000000001519
 31
0.0
  0
LINE
  5
1657A
  8
0
 10
193.31146378962461
 20
62.349999999999959
 30
0.0
 11
196.4506705252021
 21
62.349999999999959
 31
0.0
  0
LINE
  5
16580
  8
0
 10
204.61117266139561
 20
65.813800000000015
 30
0.0
 11
204.61117266139561
 21
64.594600000000028
 31
0.0
  0
LINE
  5
16582
  8
0
 10
192.17605417789201
 20
64.594600000000014
 30
0.0
 11
208.4433267713311
 21
64.594600000000014
 31
0.0
  0
LINE
  5
16583
  8
0
 10
196.45067052520221
 20
62.10540000000001
 30
0.0
 11
193.435192378696
 21
62.10540000000001
 31
0.0
  0
LINE
  5
16584
  8
0
 10
194.9651018365783
 20
60.886200000000017
 30
0.0
 11
196.4506705252021
 21
60.886200000000017
 31
0.0
  0
LINE
  5
16585
  8
0
 10
198.75319211839289
 20
64.594600000000028
 30
0.0
 11
198.75319211839289
 21
65.813800000000015
 31
0.0
  0
LINE
  5
1658B
  8
0
 10
194.72588541848171
 20
60.886200000000017
 30
0.0
 11
194.9651018365783
 21
60.886200000000017
 31
0.0
  0
LINE
  5
1658E
  8
0
 10
208.4433314601709
 20
65.813800000000015
 30
0.0
 11
191.55933342647779
 21
65.813800000000015
 31
0.0
  0
LINE
  5
16591
  8
0
 10
194.0406442431084
 20
60.886200000000017
 30
0.0
 11
194.72588541848171
 21
60.886200000000017
 31
0.0
  0
LINE
  5
16592
  8
0
 10
191.50458594304911
 20
65.922030721348776
 30
0.0
 11
192.61765199956699
 21
65.81379999999983
 31
0.0
  0
POLYLINE
  5
16595
  8
0
 66
     1
 10
0.0
 20
0.0
 30
0.0
 70
   128
  0
VERTEX
  5
176FA
  8
0
 10
170.46514105415599
 20
56.444428368940279
 30
0.0
  0
VERTEX
  5
176FB
  8
0
 10
170.42673007974349
 20
56.457962187315012
 30
0.0
  0
VERTEX
  5
176FC
  8
0
 10
170.4093949367265
 20
56.46720781756563
 30
0.0
  0
SEQEND
  5
176FD
  8
0
  0
POLYLINE
  5
16596
  8
0
 66
     1
 10
0.0
 20
0.0
 30
0.0
 70
   128
  0
VERTEX
  5
176FE
  8
0
 10
170.46514105415591
 20
70.300126729947465
 30
0.0
  0
VERTEX
  5
176FF
  8
0
 10
170.42673007974341
 20
70.286592911572725
 30
0.0
  0
VERTEX
  5
17700
  8
0
 10
170.4093902881757
 20
70.277344515381031
 30
0.0
  0
SEQEND
  5
17701
  8
0
  0
LINE
  5
16597
  8
0
 10
199.9693443486068
 20
67.816200000000052
 30
0.0
 11
195.9693443486068
 21
67.816200000000052
 31
0.0
  0
LINE
  5
16598
  8
0
 10
207.64933146017091
 20
67.816200000000066
 30
0.0
 11
203.64933146017091
 21
67.816200000000066
 31
0.0
  0
CIRCLE
  5
16599
  8
0
 10
198.7633782433077
 20
55.35000000000003
 30
0.0
 40
2.225000000000001
  0
CIRCLE
  5
1659A
  8
0
 10
182.7633782433077
 20
55.350000000000001
 30
0.0
 40
2.225000000000001
  0
CIRCLE
  5
1659B
  8
0
 10
182.76337824330761
 20
71.349999999999994
 30
0.0
 40
2.2250000000000081
  0
LINE
  5
1659C
  8
0
 10
182.76337824330761
 20
76.700000000000003
 30
0.0
 11
177.38638955775571
 21
76.699999999999974
 31
0.0
  0
ARC
  5
1659D
  8
0
 10
182.76337824330761
 20
71.349999999999994
 30
0.0
 40
5.3500000000000236
 50
26.832134596073431
 51
90.0
  0
LINE
  5
1659E
  8
0
 10
194.5562091154961
 20
59.889253385226887
 30
0.0
 11
187.53735873069309
 21
73.764872730821082
 31
0.0
  0
ARC
  5
1659F
  8
0
 10
195.44954566580961
 20
60.341139202627673
 30
0.0
 40
1.001124859392581
 50
206.8321345960741
 51
0.0
  0
LINE
  5
165A0
  8
0
 10
196.4506705252021
 20
60.341139202627673
 30
0.0
 11
196.4506705252021
 21
62.665417261894582
 31
0.0
  0
LINE
  5
165A1
  8
0
 10
208.65246710719981
 20
54.3228571363667
 30
0.0
 11
208.65246710719981
 21
64.350000000000023
 31
0.0
  0
ARC
  5
165A2
  8
0
 10
204.3296099643425
 20
54.3228571363667
 30
0.0
 40
4.3228571428572291
 50
270.00313974153829
 51
0.0
  0
LINE
  5
165A4
  8
0
 10
174.6497895577557
 20
76.260721792429806
 30
0.0
 11
174.6497895577557
 21
50.43927820757024
 31
0.0
  0
POLYLINE
  5
165A5
  8
0
 66
     1
 10
0.0
 20
0.0
 30
0.0
 70
   128
  0
VERTEX
  5
17702
  8
0
 10
176.34593643411529
 20
76.699999999999974
 30
0.0
  0
VERTEX
  5
17703
  8
0
 10
175.91961079787919
 20
76.667666070852533
 30
0.0
  0
VERTEX
  5
17704
  8
0
 10
175.5273438241943
 20
76.625428581230565
 30
0.0
  0
VERTEX
  5
17705
  8
0
 10
175.2218941372347
 20
76.577824000843677
 30
0.0
  0
VERTEX
  5
17706
  8
0
 10
174.9700236067095
 20
76.518190130513261
 30
0.0
  0
VERTEX
  5
17707
  8
0
 10
174.79188859393011
 20
76.447330230640276
 30
0.0
  0
VERTEX
  5
17708
  8
0
 10
174.6825757411911
 20
76.359252368831548
 30
0.0
  0
VERTEX
  5
17709
  8
0
 10
174.6497895577557
 20
76.260721792429806
 30
0.0
  0
SEQEND
  5
1770A
  8
0
  0
LINE
  5
165A6
  8
0
 10
177.38638955775571
 20
76.699999999999974
 30
0.0
 11
176.34593643411529
 21
76.699999999999974
 31
0.0
  0
POLYLINE
  5
165A7
  8
0
 66
     1
 10
0.0
 20
0.0
 30
0.0
 70
   128
  0
VERTEX
  5
1770B
  8
0
 10
174.6497895577557
 20
50.43927820757024
 30
0.0
  0
VERTEX
  5
1770C
  8
0
 10
174.69570035116891
 20
50.32972904912377
 30
0.0
  0
VERTEX
  5
1770D
  8
0
 10
174.8393247963657
 20
50.230471305980082
 30
0.0
  0
VERTEX
  5
1770E
  8
0
 10
175.04426206906541
 20
50.155845198174617
 30
0.0
  0
VERTEX
  5
1770F
  8
0
 10
175.32665489492649
 20
50.092424783482912
 30
0.0
  0
VERTEX
  5
17710
  8
0
 10
175.6542963228697
 20
50.045991591915012
 30
0.0
  0
VERTEX
  5
17711
  8
0
 10
176.04308728190179
 20
50.013308655368938
 30
0.0
  0
VERTEX
  5
17712
  8
0
 10
176.34593643411571
 20
49.999999999999993
 30
0.0
  0
SEQEND
  5
17713
  8
0
  0
LINE
  5
165A8
  8
0
 10
176.34593643411571
 20
49.999999999999993
 30
0.0
 11
204.3298468518453
 21
50.000000000000043
 31
0.0
  0
POLYLINE
  5
165A9
  8
0
 66
     1
 10
0.0
 20
0.0
 30
0.0
 70
   128
  0
VERTEX
  5
17714
  8
0
 10
196.89337735502329
 20
64.372677549443964
 30
0.0
  0
VERTEX
  5
17715
  8
0
 10
196.78331633044181
 20
64.326780772664549
 30
0.0
  0
VERTEX
  5
17716
  8
0
 10
196.6835827829488
 20
64.183193815498058
 30
0.0
  0
VERTEX
  5
17717
  8
0
 10
196.6085436828522
 20
63.978237017434068
 30
0.0
  0
VERTEX
  5
17718
  8
0
 10
196.54470886346559
 20
63.695789162619107
 30
0.0
  0
VERTEX
  5
17719
  8
0
 10
196.49786470001669
 20
63.368091722713913
 30
0.0
  0
VERTEX
  5
1771A
  8
0
 10
196.4647023789733
 20
62.979223696790669
 30
0.0
  0
VERTEX
  5
1771B
  8
0
 10
196.4506705252021
 20
62.665417261894582
 30
0.0
  0
SEQEND
  5
1771C
  8
0
  0
LINE
  5
165AA
  8
0
 10
208.65246710719981
 20
64.350000000000023
 30
0.0
 11
192.2997827669636
 21
64.350000000000023
 31
0.0
  0
POLYLINE
  5
165AD
  8
0
 66
     1
 10
0.0
 20
0.0
 30
0.0
 70
   128
  0
VERTEX
  5
1771D
  8
0
 10
63.350000000000144
 20
158.20499148832459
 30
0.0
  0
VERTEX
  5
1771E
  8
0
 10
62.635921915290908
 20
158.1874724705072
 30
0.0
  0
VERTEX
  5
1771F
  8
0
 10
62.347927060297643
 20
158.17039606831531
 30
0.0
  0
VERTEX
  5
17720
  8
0
 10
61.87554304405819
 20
158.1295923620109
 30
0.0
  0
VERTEX
  5
17721
  8
0
 10
61.395245882088432
 20
158.07119698531949
 30
0.0
  0
VERTEX
  5
17722
  8
0
 10
60.893600895665251
 20
157.99089280627649
 30
0.0
  0
VERTEX
  5
17723
  8
0
 10
60.387906066220808
 20
157.88827822443011
 30
0.0
  0
VERTEX
  5
17724
  8
0
 10
59.887289265269708
 20
157.76286421060269
 30
0.0
  0
VERTEX
  5
17725
  8
0
 10
59.399446899553311
 20
157.61456969917629
 30
0.0
  0
VERTEX
  5
17726
  8
0
 10
58.930417249022639
 20
157.44338582843309
 30
0.0
  0
VERTEX
  5
17727
  8
0
 10
58.485061785711878
 20
157.2492008699339
 30
0.0
  0
VERTEX
  5
17728
  8
0
 10
58.067419871462221
 20
157.03163173456539
 30
0.0
  0
VERTEX
  5
17729
  8
0
 10
57.681141894376083
 20
156.78993285557601
 30
0.0
  0
VERTEX
  5
1772A
  8
0
 10
57.330173129159441
 20
156.5231965040027
 30
0.0
  0
VERTEX
  5
1772B
  8
0
 10
57.020081509333131
 20
156.23167912548831
 30
0.0
  0
VERTEX
  5
1772C
  8
0
 10
56.756451733531719
 20
155.91641396516459
 30
0.0
  0
VERTEX
  5
1772D
  8
0
 10
56.544682760722822
 20
155.57967100278151
 30
0.0
  0
VERTEX
  5
1772E
  8
0
 10
56.491630295192572
 20
155.47420254350629
 30
0.0
  0
SEQEND
  5
1772F
  8
0
  0
POLYLINE
  5
165AE
  8
0
 66
     1
 10
0.0
 20
0.0
 30
0.0
 70
   128
  0
VERTEX
  5
17730
  8
0
 10
70.208369704807581
 20
155.47420254350629
 30
0.0
  0
VERTEX
  5
17731
  8
0
 10
70.114089742731935
 20
155.6542868136608
 30
0.0
  0
VERTEX
  5
17732
  8
0
 10
69.878393907949999
 20
156.00233338246341
 30
0.0
  0
VERTEX
  5
17733
  8
0
 10
69.579175158958151
 20
156.33377234980671
 30
0.0
  0
VERTEX
  5
17734
  8
0
 10
69.221325767991232
 20
156.6427037302777
 30
0.0
  0
VERTEX
  5
17735
  8
0
 10
68.813142729814842
 20
156.92427481663859
 30
0.0
  0
VERTEX
  5
17736
  8
0
 10
68.363728329331593
 20
157.17611042358681
 30
0.0
  0
VERTEX
  5
17737
  8
0
 10
67.878819137193773
 20
157.39887597940361
 30
0.0
  0
VERTEX
  5
17738
  8
0
 10
67.362743197099164
 20
157.59359759597979
 30
0.0
  0
VERTEX
  5
17739
  8
0
 10
66.820764938493355
 20
157.7606355575609
 30
0.0
  0
VERTEX
  5
1773A
  8
0
 10
66.259890440662616
 20
157.8999424514102
 30
0.0
  0
VERTEX
  5
1773B
  8
0
 10
65.691072223306605
 20
158.0111777952136
 30
0.0
  0
VERTEX
  5
1773C
  8
0
 10
65.136742743151444
 20
158.09361843940309
 30
0.0
  0
VERTEX
  5
1773D
  8
0
 10
64.627751188990374
 20
158.1485427541329
 30
0.0
  0
VERTEX
  5
1773E
  8
0
 10
64.241415389977973
 20
158.17764700980831
 30
0.0
  0
VERTEX
  5
1773F
  8
0
 10
63.801553110427669
 20
158.1979979535906
 30
0.0
  0
VERTEX
  5
17740
  8
0
 10
63.350000000000144
 20
158.20499148832459
 30
0.0
  0
SEQEND
  5
17741
  8
0
  0
LINE
  5
165AF
  8
0
 10
56.491630295192572
 20
155.47420254350629
 30
0.0
 11
55.639446837715127
 21
153.67873241525569
 31
0.0
  0
LINE
  5
165B0
  8
0
 10
71.060553162285032
 20
153.67873241525569
 30
0.0
 11
70.208369704807581
 21
155.47420254350629
 31
0.0
  0
ARC
  5
165B1
  8
0
 10
69.546833907163659
 20
151.5002061767446
 30
0.0
 40
1.698106091437426
 50
326.47328488659099
 51
1.219066233205339
  0
ARC
  5
165B2
  8
0
 10
57.210108260411168
 20
151.50834954723911
 30
0.0
 40
1.7548836186619969
 50
179.09334230960579
 51
212.74023796424339
  0
LINE
  5
165B3
  8
0
 10
55.455444352190462
 20
152.87750669095001
 30
0.0
 11
55.455444352190462
 21
151.5363335779019
 31
0.0
  0
LINE
  5
165B4
  8
0
 10
71.244555647809761
 20
151.5363335779019
 30
0.0
 11
71.244555647809761
 21
152.87750669095001
 31
0.0
  0
ARC
  5
165B5
  8
0
 10
57.071635076370342
 20
152.92808754029591
 30
0.0
 40
1.616982028114623
 50
152.33986736790229
 51
181.79256292119371
  0
ARC
  5
165B6
  8
0
 10
69.474214748236534
 20
152.89268676052049
 30
0.0
 40
1.7704059803372529
 50
359.50872026732048
 51
26.35884944359033
  0
LINE
  5
165B7
  8
0
 10
70.84855437753572
 20
150.38863282699501
 30
0.0
 11
70.962423339954569
 21
150.56229847576989
 31
0.0
  0
LINE
  5
165B8
  8
0
 10
55.73361240376704
 20
150.5592642557599
 30
0.0
 11
55.852250222433213
 21
150.38793383454521
 31
0.0
  0
ARC
  5
165B9
  8
0
 10
84.015906237410775
 20
156.75252377690941
 30
0.0
 40
28.907194362848351
 50
192.57088737400031
 51
205.9245538424459
  0
ARC
  5
165BA
  8
0
 10
42.072129943021189
 20
156.96998056024799
 30
0.0
 40
29.552571257110301
 50
334.21587296798992
 51
347.29001334477118
  0
CIRCLE
  5
165BB
  8
0
 10
63.349999999999973
 20
139.4635262937424
 30
0.0
 40
5.5000000000001483
  0
LINE
  5
165C0
  8
0
 10
70.045122913367663
 20
150.07306122917771
 30
0.0
 11
69.897559183803935
 21
150.08166286796899
 31
0.0
  0
LINE
  5
165C1
  8
0
 10
69.897559183803992
 20
150.0816628679691
 30
0.0
 11
56.802440816196231
 21
150.0816628679691
 31
0.0
  0
LINE
  5
165C2
  8
0
 10
56.80244081619616
 20
150.08166286796899
 30
0.0
 11
56.654877086632439
 21
150.07306122917771
 31
0.0
  0
ARC
  5
165C3
  8
0
 10
70.207302191364136
 20
150.8406963471009
 30
0.0
 40
0.7845800102478256
 50
258.070474573274
 51
324.81731359205708
  0
ARC
  5
165C4
  8
0
 10
56.484666660109383
 20
150.82026653807449
 30
0.0
 40
0.7663467641614199
 50
214.2660690807576
 51
282.83277495000169
  0
POLYLINE
  5
165C5
  8
0
 66
     1
 10
0.0
 20
0.0
 30
0.0
 70
   128
  0
VERTEX
  5
17742
  8
0
 10
58.10081860797964
 20
143.979208573715
 30
0.0
  0
VERTEX
  5
17743
  8
0
 10
57.831304755912129
 20
144.7015335508278
 30
0.0
  0
VERTEX
  5
17744
  8
0
 10
57.820462080455172
 20
145.0689717497992
 30
0.0
  0
VERTEX
  5
17745
  8
0
 10
57.906896399876409
 20
145.2489451331422
 30
0.0
  0
VERTEX
  5
17746
  8
0
 10
58.013225153466919
 20
145.32821206301401
 30
0.0
  0
VERTEX
  5
17747
  8
0
 10
58.09717424942869
 20
145.35542707462059
 30
0.0
  0
VERTEX
  5
17748
  8
0
 10
58.147018485526807
 20
145.36323867904201
 30
0.0
  0
VERTEX
  5
17749
  8
0
 10
58.197973795838259
 20
145.36584254718241
 30
0.0
  0
SEQEND
  5
1774A
  8
0
  0
LINE
  5
165C6
  8
0
 10
58.017628188397623
 20
144.1146669800591
 30
0.0
 11
58.10081860797964
 21
143.979208573715
 31
0.0
  0
LINE
  5
165C7
  8
0
 10
68.599181392019645
 20
143.979208573715
 30
0.0
 11
68.682426854100413
 21
144.11515398768049
 31
0.0
  0
POLYLINE
  5
165C8
  8
0
 66
     1
 10
0.0
 20
0.0
 30
0.0
 70
   128
  0
VERTEX
  5
1774B
  8
0
 10
68.50202620416195
 20
145.36584254718241
 30
0.0
  0
VERTEX
  5
1774C
  8
0
 10
68.552641554766524
 20
145.36326502831639
 30
0.0
  0
VERTEX
  5
1774D
  8
0
 10
68.600742714230648
 20
145.355955943732
 30
0.0
  0
VERTEX
  5
1774E
  8
0
 10
68.683713211943768
 20
145.32955708105791
 30
0.0
  0
VERTEX
  5
1774F
  8
0
 10
68.743873443224629
 20
145.2943166704313
 30
0.0
  0
VERTEX
  5
17750
  8
0
 10
68.791769141547434
 20
145.25044792364019
 30
0.0
  0
VERTEX
  5
17751
  8
0
 10
68.879125501060173
 20
145.07084475712719
 30
0.0
  0
VERTEX
  5
17752
  8
0
 10
68.868947832149161
 20
144.70278135765929
 30
0.0
  0
VERTEX
  5
17753
  8
0
 10
68.599181392019645
 20
143.979208573715
 30
0.0
  0
SEQEND
  5
17754
  8
0
  0
LINE
  5
165C9
  8
0
 10
58.197973795838259
 20
145.36584254718241
 30
0.0
 11
60.19200994523856
 21
145.36584254718241
 31
0.0
  0
LINE
  5
165CA
  8
0
 10
66.463434955873865
 20
145.36584254718241
 30
0.0
 11
68.50202620416195
 21
145.36584254718241
 31
0.0
  0
LINE
  5
165CB
  8
0
 10
58.10081860797964
 20
143.979208573715
 30
0.0
 11
58.264369321258641
 21
143.979208573715
 31
0.0
  0
LINE
  5
165CC
  8
0
 10
68.391075579853862
 20
143.979208573715
 30
0.0
 11
68.599181392019645
 21
143.979208573715
 31
0.0
  0
ARC
  5
165CF
  8
0
 10
51.320586954321072
 20
123.804506207426
 30
0.0
 40
25.568160008717811
 50
6.9661914922071002
 51
12.725340292774581
  0
LINE
  5
165D1
  8
0
 10
76.699999999999989
 20
126.6999999999999
 30
0.0
 11
50.0
 21
126.6999999999999
 31
0.0
  0
ARC
  5
165D3
  8
0
 10
69.152802350504942
 20
124.88515132807321
 30
0.0
 40
19.25906723757365
 50
166.33010825703059
 51
173.97835995798769
  0
LINE
  5
165D4
  8
0
 10
75.917377271246494
 20
130.07352629374239
 30
0.0
 11
69.685154427653458
 21
142.22317525598169
 31
0.0
  0
ARC
  5
165D5
  8
0
 10
71.69437570303711
 20
127.386049343656
 30
0.0
 40
5.0056242969628633
 50
24.182808377262621
 51
32.472276900216123
  0
ARC
  5
165D6
  8
0
 10
55.005624296962992
 20
127.3860493436557
 30
0.0
 40
5.0056242969629672
 50
147.52772309977971
 51
155.81719162273481
  0
LINE
  5
165D7
  8
0
 10
57.01484557234653
 20
142.2231752559816
 30
0.0
 11
50.782622728753672
 21
130.07352629374239
 31
0.0
  0
ARC
  5
165D8
  8
0
 10
63.350000000000023
 20
138.9735262937424
 30
0.0
 40
7.119999999999961
 50
27.155781156858971
 51
152.84421884314099
  0
LINE
  5
165D9
  8
0
 10
50.0
 20
128.75531525125771
 30
0.0
 11
50.0
 21
126.7
 31
0.0
  0
ARC
  5
165DA
  8
0
 10
52.191764731291578
 20
127.8243721213977
 30
0.0
 40
2.381278595286012
 50
137.38700156052789
 51
156.98683957340569
  0
ARC
  5
165DB
  8
0
 10
73.074520279924684
 20
126.89994257618611
 30
0.0
 40
4.0726540442418999
 50
27.101515026221719
 51
38.524643839840671
  0
LINE
  5
165DC
  8
0
 10
76.699999999999989
 20
128.7553152512578
 30
0.0
 11
76.699999999999989
 21
126.7
 31
0.0
  0
LINE
  5
165DE
  8
0
 10
269.53866710719979
 20
136.23969701378539
 30
0.0
 11
270.7598239138062
 21
136.23969701378539
 31
0.0
  0
LINE
  5
165DF
  8
0
 10
273.24511030059398
 20
136.23969701378539
 30
0.0
 11
274.46822391380601
 21
136.23969701378539
 31
0.0
  0
LINE
  5
165E1
  8
0
 10
269.5081409254326
 20
142.3636783605084
 30
0.0
 11
269.53866710719961
 21
142.3636783605084
 31
0.0
  0
ARC
  5
165E2
  8
0
 10
250.6232169278482
 20
157.02898893955779
 30
0.0
 40
29.665857613114241
 50
334.41291846887549
 51
347.17037047378318
  0
ARC
  5
165E3
  8
0
 10
293.11253373101391
 20
156.93616687992781
 30
0.0
 40
29.383007569431982
 50
192.7683795757533
 51
205.6505224205967
  0
ARC
  5
165E4
  8
0
 10
265.72899631802812
 20
152.9269635962219
 30
0.0
 40
1.621839111744646
 50
152.38496269058689
 51
181.747467598512
  0
ARC
  5
165E5
  8
0
 10
278.12618169012143
 20
152.8925718969333
 30
0.0
 40
1.7709051463939831
 50
359.51257517447442
 51
26.35499453642035
  0
LINE
  5
165E6
  8
0
 10
279.8970227550094
 20
151.5363335779019
 30
0.0
 11
279.8970227550094
 21
152.87750669095001
 31
0.0
  0
LINE
  5
165E7
  8
0
 10
264.1079114593901
 20
152.87750669095001
 30
0.0
 11
264.1079114593901
 21
151.5363335779019
 31
0.0
  0
LINE
  5
165E8
  8
0
 10
279.54845613913
 20
150.44160368502079
 30
0.0
 11
279.6188547034327
 21
150.5592642557599
 31
0.0
  0
LINE
  5
165E9
  8
0
 10
264.38659552916039
 20
150.5591035826009
 30
0.0
 11
264.45612462538668
 21
150.44221962142441
 31
0.0
  0
ARC
  5
165EA
  8
0
 10
278.14155004751831
 20
151.5079788446931
 30
0.0
 40
1.755701688112518
 50
327.291710449802
 51
0.9253719948249412
  0
ARC
  5
165EB
  8
0
 10
265.86223920206641
 20
151.50827627069509
 30
0.0
 40
1.754552091335978
 50
179.0837354918778
 51
212.75018629472939
  0
LINE
  5
165EC
  8
0
 10
279.71302026948467
 20
153.67873241525569
 30
0.0
 11
278.86083681200722
 21
155.47420254350629
 31
0.0
  0
LINE
  5
165ED
  8
0
 10
265.14409740239222
 20
155.47420254350629
 30
0.0
 11
264.29191394491471
 21
153.67873241525569
 31
0.0
  0
POLYLINE
  5
165EE
  8
0
 66
     1
 10
0.0
 20
0.0
 30
0.0
 70
   128
  0
VERTEX
  5
17755
  8
0
 10
272.00246710719972
 20
158.20499148832459
 30
0.0
  0
VERTEX
  5
17756
  8
0
 10
271.28838902249049
 20
158.1874724705072
 30
0.0
  0
VERTEX
  5
17757
  8
0
 10
271.00039416749718
 20
158.17039606831531
 30
0.0
  0
VERTEX
  5
17758
  8
0
 10
270.52801015125777
 20
158.1295923620109
 30
0.0
  0
VERTEX
  5
17759
  8
0
 10
270.04771298928807
 20
158.07119698531949
 30
0.0
  0
VERTEX
  5
1775A
  8
0
 10
269.54606800286501
 20
157.99089280627649
 30
0.0
  0
VERTEX
  5
1775B
  8
0
 10
269.04037317342051
 20
157.88827822443011
 30
0.0
  0
VERTEX
  5
1775C
  8
0
 10
268.5397563724693
 20
157.76286421060269
 30
0.0
  0
VERTEX
  5
1775D
  8
0
 10
268.0519140067529
 20
157.61456969917629
 30
0.0
  0
VERTEX
  5
1775E
  8
0
 10
267.58288435622228
 20
157.44338582843321
 30
0.0
  0
VERTEX
  5
1775F
  8
0
 10
267.13752889291152
 20
157.2492008699339
 30
0.0
  0
VERTEX
  5
17760
  8
0
 10
266.71988697866192
 20
157.03163173456551
 30
0.0
  0
VERTEX
  5
17761
  8
0
 10
266.33360900157572
 20
156.78993285557601
 30
0.0
  0
VERTEX
  5
17762
  8
0
 10
265.98264023635898
 20
156.5231965040027
 30
0.0
  0
VERTEX
  5
17763
  8
0
 10
265.67254861653259
 20
156.2316791254882
 30
0.0
  0
VERTEX
  5
17764
  8
0
 10
265.40891884073119
 20
155.91641396516459
 30
0.0
  0
VERTEX
  5
17765
  8
0
 10
265.19714986792241
 20
155.57967100278151
 30
0.0
  0
VERTEX
  5
17766
  8
0
 10
265.14409740239222
 20
155.47420254350629
 30
0.0
  0
SEQEND
  5
17767
  8
0
  0
POLYLINE
  5
165EF
  8
0
 66
     1
 10
0.0
 20
0.0
 30
0.0
 70
   128
  0
VERTEX
  5
17768
  8
0
 10
278.86083681200722
 20
155.47420254350629
 30
0.0
  0
VERTEX
  5
17769
  8
0
 10
278.76655684993148
 20
155.6542868136608
 30
0.0
  0
VERTEX
  5
1776A
  8
0
 10
278.53086101514958
 20
156.00233338246341
 30
0.0
  0
VERTEX
  5
1776B
  8
0
 10
278.23164226615768
 20
156.33377234980671
 30
0.0
  0
VERTEX
  5
1776C
  8
0
 10
277.87379287519087
 20
156.6427037302777
 30
0.0
  0
VERTEX
  5
1776D
  8
0
 10
277.46560983701448
 20
156.92427481663859
 30
0.0
  0
VERTEX
  5
1776E
  8
0
 10
277.01619543653118
 20
157.17611042358669
 30
0.0
  0
VERTEX
  5
1776F
  8
0
 10
276.53128624439341
 20
157.39887597940361
 30
0.0
  0
VERTEX
  5
17770
  8
0
 10
276.01521030429871
 20
157.59359759597979
 30
0.0
  0
VERTEX
  5
17771
  8
0
 10
275.47323204569301
 20
157.7606355575609
 30
0.0
  0
VERTEX
  5
17772
  8
0
 10
274.9123575478622
 20
157.8999424514102
 30
0.0
  0
VERTEX
  5
17773
  8
0
 10
274.34353933050619
 20
158.0111777952136
 30
0.0
  0
VERTEX
  5
17774
  8
0
 10
273.78920985035103
 20
158.09361843940309
 30
0.0
  0
VERTEX
  5
17775
  8
0
 10
273.28021829619001
 20
158.1485427541329
 30
0.0
  0
VERTEX
  5
17776
  8
0
 10
272.89388249717757
 20
158.17764700980831
 30
0.0
  0
VERTEX
  5
17777
  8
0
 10
272.45402021762749
 20
158.1979979535906
 30
0.0
  0
VERTEX
  5
17778
  8
0
 10
272.00246710719972
 20
158.20499148832459
 30
0.0
  0
SEQEND
  5
17779
  8
0
  0
ARC
  5
165F0
  8
0
 10
276.50246710719972
 20
137.46352629374229
 30
0.0
 40
0.5000000000000056
 50
280.09133706921682
 51
0.0
  0
ARC
  5
165F1
  8
0
 10
276.50246710719972
 20
141.46352629374229
 30
0.0
 40
0.5
 50
0.0
 51
90.0
  0
ARC
  5
165F2
  8
0
 10
275.50246710719972
 20
141.46352629374229
 30
0.0
 40
0.500000000000018
 50
90.0
 51
171.1571403101492
  0
ARC
  5
165F3
  8
0
 10
267.50246710719972
 20
137.46352629374229
 30
0.0
 40
0.5
 50
180.0
 51
270.0
  0
ARC
  5
165F4
  8
0
 10
267.50246710719972
 20
141.46352629374229
 30
0.0
 40
0.5
 50
90.0
 51
180.0
  0
ARC
  5
165F5
  8
0
 10
268.50246710719972
 20
141.46352629374229
 30
0.0
 40
0.4999999999999945
 50
9.6995439135336365
 51
90.0
  0
LINE
  5
165F6
  8
0
 10
276.50246710719972
 20
141.96352629374229
 30
0.0
 11
275.50246710719972
 21
141.96352629374229
 31
0.0
  0
LINE
  5
165F7
  8
0
 10
268.50246710719972
 20
141.96352629374229
 30
0.0
 11
267.50246710719972
 21
141.96352629374229
 31
0.0
  0
LINE
  5
165F8
  8
0
 10
267.50246710719972
 20
136.96352629374229
 30
0.0
 11
267.6689379745356
 21
136.96352629374229
 31
0.0
  0
ARC
  5
165FB
  8
0
 10
275.9662671071996
 20
141.04776706031851
 30
0.0
 40
0.5000000000000142
 50
0.0
 51
90.0
  0
ARC
  5
165FC
  8
0
 10
274.9662671071996
 20
141.04776706031851
 30
0.0
 40
0.5000000000000142
 50
90.0
 51
180.0
  0
ARC
  5
165FD
  8
0
 10
268.03626710719948
 20
141.04776706031851
 30
0.0
 40
0.5
 50
90.0
 51
180.0
  0
ARC
  5
165FE
  8
0
 10
269.03626710719948
 20
141.04776706031851
 30
0.0
 40
0.5
 50
0.0
 51
90.0
  0
LINE
  5
165FF
  8
0
 10
275.9662671071996
 20
141.54776706031851
 30
0.0
 11
274.9662671071996
 21
141.54776706031851
 31
0.0
  0
LINE
  5
16600
  8
0
 10
269.03626710719948
 20
141.54776706031851
 30
0.0
 11
268.03626710719948
 21
141.54776706031851
 31
0.0
  0
LINE
  5
16601
  8
0
 10
273.24706710719971
 20
140.54776706031851
 30
0.0
 11
273.00206710719959
 21
140.54776706031851
 31
0.0
  0
LINE
  5
16602
  8
0
 10
270.99706710719983
 20
140.54776706031851
 30
0.0
 11
270.75786710719962
 21
140.54776706031851
 31
0.0
  0
ARC
  5
16603
  8
0
 10
275.9662671071996
 20
137.03369701378489
 30
0.0
 40
0.5
 50
270.0
 51
0.0
  0
ARC
  5
16604
  8
0
 10
275.9662671071996
 20
141.0336970137848
 30
0.0
 40
0.5
 50
0.0
 51
90.0
  0
ARC
  5
16605
  8
0
 10
274.9662671071996
 20
137.0336970137848
 30
0.0
 40
0.5
 50
180.0
 51
270.0
  0
ARC
  5
16606
  8
0
 10
274.9662671071996
 20
141.0336970137848
 30
0.0
 40
0.5
 50
90.0
 51
180.0
  0
ARC
  5
16607
  8
0
 10
268.03626710719948
 20
137.03369701378489
 30
0.0
 40
0.5000000000000142
 50
180.0
 51
270.0
  0
ARC
  5
16608
  8
0
 10
268.03626710719948
 20
141.0336970137848
 30
0.0
 40
0.5
 50
90.0
 51
180.0
  0
ARC
  5
16609
  8
0
 10
269.03626710719948
 20
137.03369701378489
 30
0.0
 40
0.5
 50
270.0
 51
0.0
  0
ARC
  5
1660A
  8
0
 10
269.03626710719948
 20
141.0336970137848
 30
0.0
 40
0.5
 50
0.0
 51
90.0
  0
LINE
  5
1660B
  8
0
 10
275.9662671071996
 20
141.5336970137848
 30
0.0
 11
274.9662671071996
 21
141.5336970137848
 31
0.0
  0
LINE
  5
1660C
  8
0
 10
274.9662671071996
 20
136.5336970137848
 30
0.0
 11
275.9662671071996
 21
136.5336970137848
 31
0.0
  0
LINE
  5
1660D
  8
0
 10
269.03626710719948
 20
141.5336970137848
 30
0.0
 11
268.03626710719948
 21
141.5336970137848
 31
0.0
  0
LINE
  5
1660E
  8
0
 10
268.03626710719948
 20
136.5336970137848
 30
0.0
 11
269.03626710719948
 21
136.5336970137848
 31
0.0
  0
LINE
  5
1660F
  8
0
 10
273.24706710719971
 20
140.53369701378489
 30
0.0
 11
273.00206710719971
 21
140.53369701378489
 31
0.0
  0
LINE
  5
16610
  8
0
 10
271.00206710719971
 20
140.53369701378489
 30
0.0
 11
270.75786710719967
 21
140.53369701378489
 31
0.0
  0
LINE
  5
16611
  8
0
 10
270.75826710719957
 20
137.53369701378489
 30
0.0
 11
271.00246710719961
 21
137.53369701378489
 31
0.0
  0
LINE
  5
16612
  8
0
 10
273.00246710719949
 20
137.53369701378489
 30
0.0
 11
273.24706710719971
 21
137.5336970137848
 31
0.0
  0
LINE
  5
16613
  8
0
 10
273.00246710719961
 20
142.0370715919625
 30
0.0
 11
271.00246710719961
 21
142.0370715919625
 31
0.0
  0
LINE
  5
16614
  8
0
 10
273.00246710719961
 20
143.3420061146962
 30
0.0
 11
273.25120778516578
 21
143.27085976933611
 31
0.0
  0
POLYLINE
  5
16615
  8
0
 66
     1
 10
0.0
 20
0.0
 30
0.0
 70
   128
  0
VERTEX
  5
1777A
  8
0
 10
274.63323003426109
 20
142.4766785337728
 30
0.0
  0
VERTEX
  5
1777B
  8
0
 10
274.82464117751778
 20
142.2981926791968
 30
0.0
  0
VERTEX
  5
1777C
  8
0
 10
275.15655867929132
 20
141.92354791048911
 30
0.0
  0
SEQEND
  5
1777D
  8
0
  0
LINE
  5
16616
  8
0
 10
274.76211152378301
 20
136.56794989274371
 30
0.0
 11
274.46836142039672
 21
136.3140239146127
 31
0.0
  0
ARC
  5
16617
  8
0
 10
272.00246710719961
 20
139.4635262937424
 30
0.0
 40
4.0000000000000879
 50
284.47751218592992
 51
306.64704140782891
  0
ARC
  5
16618
  8
0
 10
272.00246710719961
 20
139.4635262937424
 30
0.0
 40
4.0000000000001048
 50
233.35295859217109
 51
255.52248781406669
  0
LINE
  5
16619
  8
0
 10
269.49355711495298
 20
136.34818190655079
 30
0.0
 11
269.22823449090879
 21
136.5819237203973
 31
0.0
  0
ARC
  5
1661A
  8
0
 10
272.00246710719961
 20
139.4635262937424
 30
0.0
 40
4.000000000000111
 50
131.5323954563253
 51
144.6336604875074
  0
LINE
  5
1661B
  8
0
 10
270.75379866496331
 20
143.2562425085722
 30
0.0
 11
270.99706710719971
 21
143.32925764167251
 31
0.0
  0
LINE
  5
1661C
  8
0
 10
271.00246710719938
 20
136.48415880552221
 30
0.0
 11
270.92514465664351
 21
136.51183186508399
 31
0.0
  0
LINE
  5
1661D
  8
0
 10
270.92474465664361
 20
142.41522072240079
 30
0.0
 11
270.9970671071996
 21
142.44117282319641
 31
0.0
  0
LINE
  5
1661E
  8
0
 10
273.00246710719972
 20
142.24793117720131
 30
0.0
 11
273.24706710719971
 21
142.14837784026389
 31
0.0
  0
LINE
  5
16621
  8
0
 10
273.00246710719961
 20
142.45901818255641
 30
0.0
 11
273.24706710719971
 21
142.36638844184779
 31
0.0
  0
LINE
  5
16622
  8
0
 10
274.46233653199232
 20
141.4311498382674
 30
0.0
 11
274.54059293384472
 21
141.32911394596249
 31
0.0
  0
LINE
  5
16623
  8
0
 10
273.2470671071996
 20
136.56065011620089
 30
0.0
 11
273.00246710719961
 21
136.4678688797959
 31
0.0
  0
LINE
  5
16628
  8
0
 10
270.75786710719962
 20
142.1276436475215
 30
0.0
 11
271.00246710719972
 21
142.234827430135
 31
0.0
  0
LINE
  5
1662B
  8
0
 10
270.92514465664351
 20
136.51183186508399
 30
0.0
 11
270.7578671071999
 21
136.58006400048069
 31
0.0
  0
LINE
  5
1662C
  8
0
 10
269.4622491820204
 20
141.295497074769
 30
0.0
 11
269.52517760612773
 21
141.38046775345731
 31
0.0
  0
LINE
  5
1662D
  8
0
 10
270.7578671071999
 20
142.34851662678699
 30
0.0
 11
270.92474465664361
 21
142.41522072240079
 31
0.0
  0
ARC
  5
1664A
  8
0
 10
273.96534838869883
 20
145.66890506382879
 30
0.0
 40
0.5009193645246253
 50
0.0920190990946086
 51
89.894915777060163
  0
LINE
  5
1664B
  8
0
 10
274.46626710719971
 20
136.23969701378539
 30
0.0
 11
274.46626710719971
 21
145.66970955819579
 31
0.0
  0
ARC
  5
1664C
  8
0
 10
270.03958670852279
 20
145.66890418120801
 30
0.0
 40
0.5009202487638929
 50
90.105185015722327
 51
179.90788010812011
  0
LINE
  5
1664E
  8
0
 10
269.53866710719967
 20
145.6697095581564
 30
0.0
 11
269.53866710719979
 21
136.23969701378539
 31
0.0
  0
ARC
  5
1664F
  8
0
 10
272.99301096337513
 20
144.69864468734369
 30
0.0
 40
0.2540561462942364
 50
359.99201112460798
 51
89.987338215307275
  0
ARC
  5
16650
  8
0
 10
271.01192325102443
 20
144.69864468734369
 30
0.0
 40
0.2540561462942364
 50
90.012661784692725
 51
180.0079888753904
  0
LINE
  5
16651
  8
0
 10
272.99306710719969
 20
144.95270082743431
 30
0.0
 11
271.01186710719969
 21
144.95270082743431
 31
0.0
  0
LINE
  5
16652
  8
0
 10
273.96626710719971
 20
146.1698235858581
 30
0.0
 11
270.03866710719967
 21
146.1698235858581
 31
0.0
  0
LINE
  5
16655
  8
0
 10
273.24706710719971
 20
144.6986092637417
 30
0.0
 11
273.24706710719971
 21
136.23969701378539
 31
0.0
  0
LINE
  5
16656
  8
0
 10
270.7578671071999
 20
136.23969701378539
 30
0.0
 11
270.75786710719967
 21
144.6986092637417
 31
0.0
  0
LINE
  5
16657
  8
0
 10
275.16604794648242
 20
148.6971723376378
 30
0.0
 11
268.8388862679173
 21
148.6971723376378
 31
0.0
  0
ARC
  5
16658
  8
0
 10
275.19672711506252
 20
148.20699465523049
 30
0.0
 40
0.4911368156786255
 50
3.9607704854248769
 51
93.581348350165896
  0
ARC
  5
16659
  8
0
 10
268.80269652381702
 20
148.21328292328911
 30
0.0
 40
0.4852408297914538
 50
85.722852316562367
 51
176.73502884782451
  0
LINE
  5
1665A
  8
0
 10
275.68669088856211
 20
144.46213080966251
 30
0.0
 11
275.68669088856223
 21
148.2409191651451
 31
0.0
  0
ARC
  5
1665B
  8
0
 10
269.6721660089346
 20
146.39542643903641
 30
0.0
 40
6.3176056792279942
 50
320.86475085181689
 51
342.18063198030842
  0
ARC
  5
1665C
  8
0
 10
275.14397331292901
 20
146.81214518773069
 30
0.0
 40
7.2189443434484764
 50
198.99795175468739
 51
217.78795785878179
  0
LINE
  5
1665D
  8
0
 10
268.31824332583727
 20
148.2409191651451
 30
0.0
 11
268.31824332583739
 21
144.46213080966251
 31
0.0
  0
LINE
  5
1665E
  8
0
 10
273.24706710719971
 20
143.71811483149679
 30
0.0
 11
273.00246710719972
 21
143.71811483149679
 31
0.0
  0
LINE
  5
1665F
  8
0
 10
270.9970671071996
 20
143.71811483149679
 30
0.0
 11
270.75786710719967
 21
143.71811483149679
 31
0.0
  0
LINE
  5
16660
  8
0
 10
267.61599673203608
 20
149.343901025907
 30
0.0
 11
276.38893748236342
 21
149.343901025907
 31
0.0
  0
POLYLINE
  5
16661
  8
0
 10
277.42421366277347
 20
148.44978561720831
 30
0.0
 66
     1
 70
     8
  0
VERTEX
  8
0
  5
1788A
 10
277.424
 20
148.450
 30
0.000000
  70
    32
  0
VERTEX
  8
0
  5
1788B
 10
277.424
 20
148.461
 30
0.000000
  70
    32
  0
VERTEX
  8
0
  5
1788C
 10
277.424
 20
148.472
 30
0.000000
  70
    32
  0
VERTEX
  8
0
  5
1788D
 10
277.424
 20
148.483
 30
0.000000
  70
    32
  0
VERTEX
  8
0
  5
1788E
 10
277.423
 20
148.494
 30
0.000000
  70
    32
  0
VERTEX
  8
0
  5
1788F
 10
277.422
 20
148.505
 30
0.000000
  70
    32
  0
VERTEX
  8
0
  5
17890
 10
277.421
 20
148.516
 30
0.000000
  70
    32
  0
VERTEX
  8
0
  5
17891
 10
277.420
 20
148.526
 30
0.000000
  70
    32
  0
VERTEX
  8
0
  5
17892
 10
277.419
 20
148.537
 30
0.000000
  70
    32
  0
VERTEX
  8
0
  5
17893
 10
277.418
 20
148.548
 30
0.000000
  70
    32
  0
VERTEX
  8
0
  5
17894
 10
277.416
 20
148.559
 30
0.000000
  70
    32
  0
VERTEX
  8
0
  5
17895
 10
277.415
 20
148.570
 30
0.000000
  70
    32
  0
VERTEX
  8
0
  5
17896
 10
277.413
 20
148.581
 30
0.000000
  70
    32
  0
VERTEX
  8
0
  5
17897
 10
277.411
 20
148.592
 30
0.000000
  70
    32
  0
VERTEX
  8
0
  5
17898
 10
277.409
 20
148.603
 30
0.000000
  70
    32
  0
VERTEX
  8
0
  5
17899
 10
277.407
 20
148.613
 30
0.000000
  70
    32
  0
VERTEX
  8
0
  5
1789A
 10
277.404
 20
148.624
 30
0.000000
  70
    32
  0
VERTEX
  8
0
  5
1789B
 10
277.402
 20
148.635
 30
0.000000
  70
    32
  0
VERTEX
  8
0
  5
1789C
 10
277.399
 20
148.646
 30
0.000000
  70
    32
  0
VERTEX
  8
0
  5
1789D
 10
277.396
 20
148.656
 30
0.000000
  70
    32
  0
VERTEX
  8
0
  5
1789E
 10
277.393
 20
148.667
 30
0.000000
  70
    32
  0
VERTEX
  8
0
  5
1789F
 10
277.390
 20
148.678
 30
0.000000
  70
    32
  0
VERTEX
  8
0
  5
178A0
 10
277.387
 20
148.688
 30
0.000000
  70
    32
  0
VERTEX
  8
0
  5
178A1
 10
277.383
 20
148.699
 30
0.000000
  70
    32
  0
VERTEX
  8
0
  5
178A2
 10
277.380
 20
148.709
 30
0.000000
  70
    32
  0
VERTEX
  8
0
  5
178A3
 10
277.376
 20
148.720
 30
0.000000
  70
    32
  0
VERTEX
  8
0
  5
178A4
 10
277.372
 20
148.730
 30
0.000000
  70
    32
  0
VERTEX
  8
0
  5
178A5
 10
277.368
 20
148.741
 30
0.000000
  70
    32
  0
VERTEX
  8
0
  5
178A6
 10
277.364
 20
148.751
 30
0.000000
  70
    32
  0
VERTEX
  8
0
  5
178A7
 10
277.359
 20
148.761
 30
0.000000
  70
    32
  0
VERTEX
  8
0
  5
178A8
 10
277.355
 20
148.772
 30
0.000000
  70
    32
  0
VERTEX
  8
0
  5
178A9
 10
277.350
 20
148.782
 30
0.000000
  70
    32
  0
VERTEX
  8
0
  5
178AA
 10
277.345
 20
148.792
 30
0.000000
  70
    32
  0
VERTEX
  8
0
  5
178AB
 10
277.340
 20
148.802
 30
0.000000
  70
    32
  0
VERTEX
  8
0
  5
178AC
 10
277.335
 20
148.812
 30
0.000000
  70
    32
  0
VERTEX
  8
0
  5
178AD
 10
277.330
 20
148.822
 30
0.000000
  70
    32
  0
VERTEX
  8
0
  5
178AE
 10
277.325
 20
148.832
 30
0.000000
  70
    32
  0
VERTEX
  8
0
  5
178AF
 10
277.319
 20
148.842
 30
0.000000
  70
    32
  0
VERTEX
  8
0
  5
178B0
 10
277.314
 20
148.852
 30
0.000000
  70
    32
  0
VERTEX
  8
0
  5
178B1
 10
277.308
 20
148.862
 30
0.000000
  70
    32
  0
VERTEX
  8
0
  5
178B2
 10
277.302
 20
148.871
 30
0.000000
  70
    32
  0
VERTEX
  8
0
  5
178B3
 10
277.296
 20
148.881
 30
0.000000
  70
    32
  0
VERTEX
  8
0
  5
178B4
 10
277.290
 20
148.890
 30
0.000000
  70
    32
  0
VERTEX
  8
0
  5
178B5
 10
277.283
 20
148.900
 30
0.000000
  70
    32
  0
VERTEX
  8
0
  5
178B6
 10
277.277
 20
148.909
 30
0.000000
  70
    32
  0
VERTEX
  8
0
  5
178B7
 10
277.270
 20
148.919
 30
0.000000
  70
    32
  0
VERTEX
  8
0
  5
178B8
 10
277.264
 20
148.928
 30
0.000000
  70
    32
  0
VERTEX
  8
0
  5
178B9
 10
277.257
 20
148.937
 30
0.000000
  70
    32
  0
VERTEX
  8
0
  5
178BA
 10
277.250
 20
148.947
 30
0.000000
  70
    32
  0
VERTEX
  8
0
  5
178BB
 10
277.243
 20
148.956
 30
0.000000
  70
    32
  0
VERTEX
  8
0
  5
178BC
 10
277.235
 20
148.965
 30
0.000000
  70
    32
  0
VERTEX
  8
0
  5
178BD
 10
277.228
 20
148.974
 30
0.000000
  70
    32
  0
VERTEX
  8
0
  5
178BE
 10
277.220
 20
148.982
 30
0.000000
  70
    32
  0
VERTEX
  8
0
  5
178BF
 10
277.213
 20
148.991
 30
0.000000
  70
    32
  0
VERTEX
  8
0
  5
178C0
 10
277.205
 20
149.000
 30
0.000000
  70
    32
  0
VERTEX
  8
0
  5
178C1
 10
277.197
 20
149.008
 30
0.000000
  70
    32
  0
VERTEX
  8
0
  5
178C2
 10
277.189
 20
149.017
 30
0.000000
  70
    32
  0
VERTEX
  8
0
  5
178C3
 10
277.181
 20
149.025
 30
0.000000
  70
    32
  0
VERTEX
  8
0
  5
178C4
 10
277.173
 20
149.034
 30
0.000000
  70
    32
  0
VERTEX
  8
0
  5
178C5
 10
277.165
 20
149.042
 30
0.000000
  70
    32
  0
VERTEX
  8
0
  5
178C6
 10
277.156
 20
149.050
 30
0.000000
  70
    32
  0
VERTEX
  8
0
  5
178C7
 10
277.147
 20
149.058
 30
0.000000
  70
    32
  0
VERTEX
  8
0
  5
178C8
 10
277.139
 20
149.066
 30
0.000000
  70
    32
  0
VERTEX
  8
0
  5
178C9
 10
277.130
 20
149.074
 30
0.000000
  70
    32
  0
VERTEX
  8
0
  5
178CA
 10
277.121
 20
149.082
 30
0.000000
  70
    32
  0
VERTEX
  8
0
  5
178CB
 10
277.112
 20
149.090
 30
0.000000
  70
    32
  0
VERTEX
  8
0
  5
178CC
 10
277.103
 20
149.097
 30
0.000000
  70
    32
  0
VERTEX
  8
0
  5
178CD
 10
277.094
 20
149.105
 30
0.000000
  70
    32
  0
VERTEX
  8
0
  5
178CE
 10
277.084
 20
149.112
 30
0.000000
  70
    32
  0
VERTEX
  8
0
  5
178CF
 10
277.075
 20
149.120
 30
0.000000
  70
    32
  0
VERTEX
  8
0
  5
178D0
 10
277.065
 20
149.127
 30
0.000000
  70
    32
  0
VERTEX
  8
0
  5
178D1
 10
277.055
 20
149.134
 30
0.000000
  70
    32
  0
VERTEX
  8
0
  5
178D2
 10
277.046
 20
149.141
 30
0.000000
  70
    32
  0
VERTEX
  8
0
  5
178D3
 10
277.036
 20
149.148
 30
0.000000
  70
    32
  0
VERTEX
  8
0
  5
178D4
 10
277.026
 20
149.155
 30
0.000000
  70
    32
  0
VERTEX
  8
0
  5
178D5
 10
277.016
 20
149.161
 30
0.000000
  70
    32
  0
VERTEX
  8
0
  5
178D6
 10
277.006
 20
149.168
 30
0.000000
  70
    32
  0
VERTEX
  8
0
  5
178D7
 10
276.995
 20
149.174
 30
0.000000
  70
    32
  0
VERTEX
  8
0
  5
178D8
 10
276.985
 20
149.181
 30
0.000000
  70
    32
  0
VERTEX
  8
0
  5
178D9
 10
276.975
 20
149.187
 30
0.000000
  70
    32
  0
VERTEX
  8
0
  5
178DA
 10
276.964
 20
149.193
 30
0.000000
  70
    32
  0
VERTEX
  8
0
  5
178DB
 10
276.953
 20
149.199
 30
0.000000
  70
    32
  0
VERTEX
  8
0
  5
178DC
 10
276.943
 20
149.205
 30
0.000000
  70
    32
  0
VERTEX
  8
0
  5
178DD
 10
276.932
 20
149.211
 30
0.000000
  70
    32
  0
VERTEX
  8
0
  5
178DE
 10
276.921
 20
149.217
 30
0.000000
  70
    32
  0
VERTEX
  8
0
  5
178DF
 10
276.910
 20
149.222
 30
0.000000
  70
    32
  0
VERTEX
  8
0
  5
178E0
 10
276.899
 20
149.228
 30
0.000000
  70
    32
  0
VERTEX
  8
0
  5
178E1
 10
276.888
 20
149.233
 30
0.000000
  70
    32
  0
VERTEX
  8
0
  5
178E2
 10
276.877
 20
149.238
 30
0.000000
  70
    32
  0
VERTEX
  8
0
  5
178E3
 10
276.866
 20
149.243
 30
0.000000
  70
    32
  0
VERTEX
  8
0
  5
178E4
 10
276.854
 20
149.248
 30
0.000000
  70
    32
  0
VERTEX
  8
0
  5
178E5
 10
276.843
 20
149.253
 30
0.000000
  70
    32
  0
VERTEX
  8
0
  5
178E6
 10
276.832
 20
149.258
 30
0.000000
  70
    32
  0
VERTEX
  8
0
  5
178E7
 10
276.820
 20
149.263
 30
0.000000
  70
    32
  0
VERTEX
  8
0
  5
178E8
 10
276.808
 20
149.267
 30
0.000000
  70
    32
  0
VERTEX
  8
0
  5
178E9
 10
276.797
 20
149.272
 30
0.000000
  70
    32
  0
VERTEX
  8
0
  5
178EA
 10
276.785
 20
149.276
 30
0.000000
  70
    32
  0
VERTEX
  8
0
  5
178EB
 10
276.773
 20
149.280
 30
0.000000
  70
    32
  0
VERTEX
  8
0
  5
178EC
 10
276.762
 20
149.284
 30
0.000000
  70
    32
  0
VERTEX
  8
0
  5
178ED
 10
276.750
 20
149.288
 30
0.000000
  70
    32
  0
VERTEX
  8
0
  5
178EE
 10
276.738
 20
149.292
 30
0.000000
  70
    32
  0
VERTEX
  8
0
  5
178EF
 10
276.726
 20
149.295
 30
0.000000
  70
    32
  0
VERTEX
  8
0
  5
178F0
 10
276.714
 20
149.299
 30
0.000000
  70
    32
  0
VERTEX
  8
0
  5
178F1
 10
276.702
 20
149.302
 30
0.000000
  70
    32
  0
VERTEX
  8
0
  5
178F2
 10
276.689
 20
149.305
 30
0.000000
  70
    32
  0
VERTEX
  8
0
  5
178F3
 10
276.677
 20
149.309
 30
0.000000
  70
    32
  0
VERTEX
  8
0
  5
178F4
 10
276.665
 20
149.312
 30
0.000000
  70
    32
  0
VERTEX
  8
0
  5
178F5
 10
276.653
 20
149.314
 30
0.000000
  70
    32
  0
VERTEX
  8
0
  5
178F6
 10
276.640
 20
149.317
 30
0.000000
  70
    32
  0
VERTEX
  8
0
  5
178F7
 10
276.628
 20
149.320
 30
0.000000
  70
    32
  0
VERTEX
  8
0
  5
178F8
 10
276.616
 20
149.322
 30
0.000000
  70
    32
  0
VERTEX
  8
0
  5
178F9
 10
276.603
 20
149.325
 30
0.000000
  70
    32
  0
VERTEX
  8
0
  5
178FA
 10
276.591
 20
149.327
 30
0.000000
  70
    32
  0
VERTEX
  8
0
  5
178FB
 10
276.578
 20
149.329
 30
0.000000
  70
    32
  0
VERTEX
  8
0
  5
178FC
 10
276.566
 20
149.331
 30
0.000000
  70
    32
  0
VERTEX
  8
0
  5
178FD
 10
276.553
 20
149.333
 30
0.000000
  70
    32
  0
VERTEX
  8
0
  5
178FE
 10
276.541
 20
149.334
 30
0.000000
  70
    32
  0
VERTEX
  8
0
  5
178FF
 10
276.528
 20
149.336
 30
0.000000
  70
    32
  0
VERTEX
  8
0
  5
17900
 10
276.516
 20
149.337
 30
0.000000
  70
    32
  0
VERTEX
  8
0
  5
17901
 10
276.503
 20
149.338
 30
0.000000
  70
    32
  0
VERTEX
  8
0
  5
17902
 10
276.490
 20
149.340
 30
0.000000
  70
    32
  0
VERTEX
  8
0
  5
17903
 10
276.478
 20
149.341
 30
0.000000
  70
    32
  0
VERTEX
  8
0
  5
17904
 10
276.465
 20
149.341
 30
0.000000
  70
    32
  0
VERTEX
  8
0
  5
17905
 10
276.452
 20
149.342
 30
0.000000
  70
    32
  0
VERTEX
  8
0
  5
17906
 10
276.440
 20
149.343
 30
0.000000
  70
    32
  0
VERTEX
  8
0
  5
17907
 10
276.427
 20
149.343
 30
0.000000
  70
    32
  0
VERTEX
  8
0
  5
17908
 10
276.414
 20
149.344
 30
0.000000
  70
    32
  0
VERTEX
  8
0
  5
17909
 10
276.402
 20
149.344
 30
0.000000
  70
    32
  0
VERTEX
  8
0
  5
1790A
 10
276.389
 20
149.344
 30
0.000000
  70
    32
  0
SEQEND
  8
0
  5
1790B
  0
POLYLINE
  5
16662
  8
0
 10
267.61599673203608
 20
149.34390102590694
 30
0.0
 66
     1
 70
     8
  0
VERTEX
  8
0
  5
1790C
 10
267.616
 20
149.344
 30
0.000000
  70
    32
  0
VERTEX
  8
0
  5
1790D
 10
267.603
 20
149.344
 30
0.000000
  70
    32
  0
VERTEX
  8
0
  5
1790E
 10
267.591
 20
149.344
 30
0.000000
  70
    32
  0
VERTEX
  8
0
  5
1790F
 10
267.578
 20
149.343
 30
0.000000
  70
    32
  0
VERTEX
  8
0
  5
17910
 10
267.565
 20
149.343
 30
0.000000
  70
    32
  0
VERTEX
  8
0
  5
17911
 10
267.553
 20
149.342
 30
0.000000
  70
    32
  0
VERTEX
  8
0
  5
17912
 10
267.540
 20
149.341
 30
0.000000
  70
    32
  0
VERTEX
  8
0
  5
17913
 10
267.527
 20
149.341
 30
0.000000
  70
    32
  0
VERTEX
  8
0
  5
17914
 10
267.515
 20
149.340
 30
0.000000
  70
    32
  0
VERTEX
  8
0
  5
17915
 10
267.502
 20
149.338
 30
0.000000
  70
    32
  0
VERTEX
  8
0
  5
17916
 10
267.489
 20
149.337
 30
0.000000
  70
    32
  0
VERTEX
  8
0
  5
17917
 10
267.477
 20
149.336
 30
0.000000
  70
    32
  0
VERTEX
  8
0
  5
17918
 10
267.464
 20
149.334
 30
0.000000
  70
    32
  0
VERTEX
  8
0
  5
17919
 10
267.452
 20
149.333
 30
0.000000
  70
    32
  0
VERTEX
  8
0
  5
1791A
 10
267.439
 20
149.331
 30
0.000000
  70
    32
  0
VERTEX
  8
0
  5
1791B
 10
267.426
 20
149.329
 30
0.000000
  70
    32
  0
VERTEX
  8
0
  5
1791C
 10
267.414
 20
149.327
 30
0.000000
  70
    32
  0
VERTEX
  8
0
  5
1791D
 10
267.402
 20
149.325
 30
0.000000
  70
    32
  0
VERTEX
  8
0
  5
1791E
 10
267.389
 20
149.322
 30
0.000000
  70
    32
  0
VERTEX
  8
0
  5
1791F
 10
267.377
 20
149.320
 30
0.000000
  70
    32
  0
VERTEX
  8
0
  5
17920
 10
267.364
 20
149.317
 30
0.000000
  70
    32
  0
VERTEX
  8
0
  5
17921
 10
267.352
 20
149.314
 30
0.000000
  70
    32
  0
VERTEX
  8
0
  5
17922
 10
267.340
 20
149.312
 30
0.000000
  70
    32
  0
VERTEX
  8
0
  5
17923
 10
267.328
 20
149.309
 30
0.000000
  70
    32
  0
VERTEX
  8
0
  5
17924
 10
267.315
 20
149.305
 30
0.000000
  70
    32
  0
VERTEX
  8
0
  5
17925
 10
267.303
 20
149.302
 30
0.000000
  70
    32
  0
VERTEX
  8
0
  5
17926
 10
267.291
 20
149.299
 30
0.000000
  70
    32
  0
VERTEX
  8
0
  5
17927
 10
267.279
 20
149.295
 30
0.000000
  70
    32
  0
VERTEX
  8
0
  5
17928
 10
267.267
 20
149.292
 30
0.000000
  70
    32
  0
VERTEX
  8
0
  5
17929
 10
267.255
 20
149.288
 30
0.000000
  70
    32
  0
VERTEX
  8
0
  5
1792A
 10
267.243
 20
149.284
 30
0.000000
  70
    32
  0
VERTEX
  8
0
  5
1792B
 10
267.232
 20
149.280
 30
0.000000
  70
    32
  0
VERTEX
  8
0
  5
1792C
 10
267.220
 20
149.276
 30
0.000000
  70
    32
  0
VERTEX
  8
0
  5
1792D
 10
267.208
 20
149.272
 30
0.000000
  70
    32
  0
VERTEX
  8
0
  5
1792E
 10
267.196
 20
149.267
 30
0.000000
  70
    32
  0
VERTEX
  8
0
  5
1792F
 10
267.185
 20
149.263
 30
0.000000
  70
    32
  0
VERTEX
  8
0
  5
17930
 10
267.173
 20
149.258
 30
0.000000
  70
    32
  0
VERTEX
  8
0
  5
17931
 10
267.162
 20
149.253
 30
0.000000
  70
    32
  0
VERTEX
  8
0
  5
17932
 10
267.151
 20
149.248
 30
0.000000
  70
    32
  0
VERTEX
  8
0
  5
17933
 10
267.139
 20
149.243
 30
0.000000
  70
    32
  0
VERTEX
  8
0
  5
17934
 10
267.128
 20
149.238
 30
0.000000
  70
    32
  0
VERTEX
  8
0
  5
17935
 10
267.117
 20
149.233
 30
0.000000
  70
    32
  0
VERTEX
  8
0
  5
17936
 10
267.106
 20
149.228
 30
0.000000
  70
    32
  0
VERTEX
  8
0
  5
17937
 10
267.095
 20
149.222
 30
0.000000
  70
    32
  0
VERTEX
  8
0
  5
17938
 10
267.084
 20
149.217
 30
0.000000
  70
    32
  0
VERTEX
  8
0
  5
17939
 10
267.073
 20
149.211
 30
0.000000
  70
    32
  0
VERTEX
  8
0
  5
1793A
 10
267.062
 20
149.205
 30
0.000000
  70
    32
  0
VERTEX
  8
0
  5
1793B
 10
267.051
 20
149.199
 30
0.000000
  70
    32
  0
VERTEX
  8
0
  5
1793C
 10
267.041
 20
149.193
 30
0.000000
  70
    32
  0
VERTEX
  8
0
  5
1793D
 10
267.030
 20
149.187
 30
0.000000
  70
    32
  0
VERTEX
  8
0
  5
1793E
 10
267.020
 20
149.181
 30
0.000000
  70
    32
  0
VERTEX
  8
0
  5
1793F
 10
267.010
 20
149.174
 30
0.000000
  70
    32
  0
VERTEX
  8
0
  5
17940
 10
266.999
 20
149.168
 30
0.000000
  70
    32
  0
VERTEX
  8
0
  5
17941
 10
266.989
 20
149.161
 30
0.000000
  70
    32
  0
VERTEX
  8
0
  5
17942
 10
266.979
 20
149.155
 30
0.000000
  70
    32
  0
VERTEX
  8
0
  5
17943
 10
266.969
 20
149.148
 30
0.000000
  70
    32
  0
VERTEX
  8
0
  5
17944
 10
266.959
 20
149.141
 30
0.000000
  70
    32
  0
VERTEX
  8
0
  5
17945
 10
266.949
 20
149.134
 30
0.000000
  70
    32
  0
VERTEX
  8
0
  5
17946
 10
266.940
 20
149.127
 30
0.000000
  70
    32
  0
VERTEX
  8
0
  5
17947
 10
266.930
 20
149.120
 30
0.000000
  70
    32
  0
VERTEX
  8
0
  5
17948
 10
266.921
 20
149.112
 30
0.000000
  70
    32
  0
VERTEX
  8
0
  5
17949
 10
266.911
 20
149.105
 30
0.000000
  70
    32
  0
VERTEX
  8
0
  5
1794A
 10
266.902
 20
149.097
 30
0.000000
  70
    32
  0
VERTEX
  8
0
  5
1794B
 10
266.893
 20
149.090
 30
0.000000
  70
    32
  0
VERTEX
  8
0
  5
1794C
 10
266.884
 20
149.082
 30
0.000000
  70
    32
  0
VERTEX
  8
0
  5
1794D
 10
266.875
 20
149.074
 30
0.000000
  70
    32
  0
VERTEX
  8
0
  5
1794E
 10
266.866
 20
149.066
 30
0.000000
  70
    32
  0
VERTEX
  8
0
  5
1794F
 10
266.857
 20
149.058
 30
0.000000
  70
    32
  0
VERTEX
  8
0
  5
17950
 10
266.849
 20
149.050
 30
0.000000
  70
    32
  0
VERTEX
  8
0
  5
17951
 10
266.840
 20
149.042
 30
0.000000
  70
    32
  0
VERTEX
  8
0
  5
17952
 10
266.832
 20
149.034
 30
0.000000
  70
    32
  0
VERTEX
  8
0
  5
17953
 10
266.824
 20
149.025
 30
0.000000
  70
    32
  0
VERTEX
  8
0
  5
17954
 10
266.816
 20
149.017
 30
0.000000
  70
    32
  0
VERTEX
  8
0
  5
17955
 10
266.808
 20
149.008
 30
0.000000
  70
    32
  0
VERTEX
  8
0
  5
17956
 10
266.800
 20
149.000
 30
0.000000
  70
    32
  0
VERTEX
  8
0
  5
17957
 10
266.792
 20
148.991
 30
0.000000
  70
    32
  0
VERTEX
  8
0
  5
17958
 10
266.784
 20
148.982
 30
0.000000
  70
    32
  0
VERTEX
  8
0
  5
17959
 10
266.777
 20
148.974
 30
0.000000
  70
    32
  0
VERTEX
  8
0
  5
1795A
 10
266.770
 20
148.965
 30
0.000000
  70
    32
  0
VERTEX
  8
0
  5
1795B
 10
266.762
 20
148.956
 30
0.000000
  70
    32
  0
VERTEX
  8
0
  5
1795C
 10
266.755
 20
148.947
 30
0.000000
  70
    32
  0
VERTEX
  8
0
  5
1795D
 10
266.748
 20
148.937
 30
0.000000
  70
    32
  0
VERTEX
  8
0
  5
1795E
 10
266.741
 20
148.928
 30
0.000000
  70
    32
  0
VERTEX
  8
0
  5
1795F
 10
266.735
 20
148.919
 30
0.000000
  70
    32
  0
VERTEX
  8
0
  5
17960
 10
266.728
 20
148.909
 30
0.000000
  70
    32
  0
VERTEX
  8
0
  5
17961
 10
266.722
 20
148.900
 30
0.000000
  70
    32
  0
VERTEX
  8
0
  5
17962
 10
266.715
 20
148.890
 30
0.000000
  70
    32
  0
VERTEX
  8
0
  5
17963
 10
266.709
 20
148.881
 30
0.000000
  70
    32
  0
VERTEX
  8
0
  5
17964
 10
266.703
 20
148.871
 30
0.000000
  70
    32
  0
VERTEX
  8
0
  5
17965
 10
266.697
 20
148.862
 30
0.000000
  70
    32
  0
VERTEX
  8
0
  5
17966
 10
266.691
 20
148.852
 30
0.000000
  70
    32
  0
VERTEX
  8
0
  5
17967
 10
266.686
 20
148.842
 30
0.000000
  70
    32
  0
VERTEX
  8
0
  5
17968
 10
266.680
 20
148.832
 30
0.000000
  70
    32
  0
VERTEX
  8
0
  5
17969
 10
266.675
 20
148.822
 30
0.000000
  70
    32
  0
VERTEX
  8
0
  5
1796A
 10
266.670
 20
148.812
 30
0.000000
  70
    32
  0
VERTEX
  8
0
  5
1796B
 10
266.664
 20
148.802
 30
0.000000
  70
    32
  0
VERTEX
  8
0
  5
1796C
 10
266.660
 20
148.792
 30
0.000000
  70
    32
  0
VERTEX
  8
0
  5
1796D
 10
266.655
 20
148.782
 30
0.000000
  70
    32
  0
VERTEX
  8
0
  5
1796E
 10
266.650
 20
148.772
 30
0.000000
  70
    32
  0
VERTEX
  8
0
  5
1796F
 10
266.646
 20
148.761
 30
0.000000
  70
    32
  0
VERTEX
  8
0
  5
17970
 10
266.641
 20
148.751
 30
0.000000
  70
    32
  0
VERTEX
  8
0
  5
17971
 10
266.637
 20
148.741
 30
0.000000
  70
    32
  0
VERTEX
  8
0
  5
17972
 10
266.633
 20
148.730
 30
0.000000
  70
    32
  0
VERTEX
  8
0
  5
17973
 10
266.629
 20
148.720
 30
0.000000
  70
    32
  0
VERTEX
  8
0
  5
17974
 10
266.625
 20
148.709
 30
0.000000
  70
    32
  0
VERTEX
  8
0
  5
17975
 10
266.622
 20
148.699
 30
0.000000
  70
    32
  0
VERTEX
  8
0
  5
17976
 10
266.618
 20
148.688
 30
0.000000
  70
    32
  0
VERTEX
  8
0
  5
17977
 10
266.615
 20
148.678
 30
0.000000
  70
    32
  0
VERTEX
  8
0
  5
17978
 10
266.612
 20
148.667
 30
0.000000
  70
    32
  0
VERTEX
  8
0
  5
17979
 10
266.609
 20
148.656
 30
0.000000
  70
    32
  0
VERTEX
  8
0
  5
1797A
 10
266.606
 20
148.646
 30
0.000000
  70
    32
  0
VERTEX
  8
0
  5
1797B
 10
266.603
 20
148.635
 30
0.000000
  70
    32
  0
VERTEX
  8
0
  5
1797C
 10
266.601
 20
148.624
 30
0.000000
  70
    32
  0
VERTEX
  8
0
  5
1797D
 10
266.598
 20
148.613
 30
0.000000
  70
    32
  0
VERTEX
  8
0
  5
1797E
 10
266.596
 20
148.603
 30
0.000000
  70
    32
  0
VERTEX
  8
0
  5
1797F
 10
266.594
 20
148.592
 30
0.000000
  70
    32
  0
VERTEX
  8
0
  5
17980
 10
266.592
 20
148.581
 30
0.000000
  70
    32
  0
VERTEX
  8
0
  5
17981
 10
266.590
 20
148.570
 30
0.000000
  70
    32
  0
VERTEX
  8
0
  5
17982
 10
266.589
 20
148.559
 30
0.000000
  70
    32
  0
VERTEX
  8
0
  5
17983
 10
266.587
 20
148.548
 30
0.000000
  70
    32
  0
VERTEX
  8
0
  5
17984
 10
266.586
 20
148.537
 30
0.000000
  70
    32
  0
VERTEX
  8
0
  5
17985
 10
266.585
 20
148.526
 30
0.000000
  70
    32
  0
VERTEX
  8
0
  5
17986
 10
266.584
 20
148.516
 30
0.000000
  70
    32
  0
VERTEX
  8
0
  5
17987
 10
266.583
 20
148.505
 30
0.000000
  70
    32
  0
VERTEX
  8
0
  5
17988
 10
266.582
 20
148.494
 30
0.000000
  70
    32
  0
VERTEX
  8
0
  5
17989
 10
266.581
 20
148.483
 30
0.000000
  70
    32
  0
VERTEX
  8
0
  5
1798A
 10
266.581
 20
148.472
 30
0.000000
  70
    32
  0
VERTEX
  8
0
  5
1798B
 10
266.581
 20
148.461
 30
0.000000
  70
    32
  0
VERTEX
  8
0
  5
1798C
 10
266.581
 20
148.450
 30
0.000000
  70
    32
  0
SEQEND
  8
0
  5
1798D
  0
LINE
  5
16663
  8
0
 10
266.58072055162597
 20
144.477436359492
 30
0.0
 11
266.58072055162597
 21
148.44978561720831
 31
0.0
  0
LINE
  5
16664
  8
0
 10
277.42421366277341
 20
148.44978561720831
 30
0.0
 11
277.42421366277352
 21
144.477436359492
 31
0.0
  0
POLYLINE
  5
16665
  8
0
 66
     1
 10
0.0
 20
0.0
 30
0.0
 70
   128
  0
VERTEX
  5
1777E
  8
0
 10
277.42421366277352
 20
144.477436359492
 30
0.0
  0
VERTEX
  5
1777F
  8
0
 10
277.37974168291362
 20
144.21682710194651
 30
0.0
  0
VERTEX
  5
17780
  8
0
 10
277.2516484992201
 20
143.979208573715
 30
0.0
  0
SEQEND
  5
17781
  8
0
  0
LINE
  5
16666
  8
0
 10
277.2516484992201
 20
143.979208573715
 30
0.0
 11
275.5094627073658
 21
143.979208573715
 31
0.0
  0
LINE
  5
16667
  8
0
 10
268.50412184058592
 20
143.979208573715
 30
0.0
 11
266.7532857151802
 21
143.979208573715
 31
0.0
  0
POLYLINE
  5
16668
  8
0
 66
     1
 10
0.0
 20
0.0
 30
0.0
 70
   128
  0
VERTEX
  5
17782
  8
0
 10
266.7532857151802
 20
143.979208573715
 30
0.0
  0
VERTEX
  5
17783
  8
0
 10
266.62518717472602
 20
144.21682702943241
 30
0.0
  0
VERTEX
  5
17784
  8
0
 10
266.58072055162597
 20
144.477436359492
 30
0.0
  0
SEQEND
  5
17785
  8
0
  0
LINE
  5
1666B
  8
0
 10
277.00246710719972
 20
137.46352898294771
 30
0.0
 11
277.00246710719972
 21
141.46352629374229
 31
0.0
  0
LINE
  5
1666C
  8
0
 10
267.00246710719972
 20
141.46352629374229
 30
0.0
 11
267.00246710719972
 21
137.46352898294771
 31
0.0
  0
LINE
  5
1666E
  8
0
 10
276.4662671071996
 20
137.03369701378489
 30
0.0
 11
276.4662671071996
 21
141.04776706031851
 31
0.0
  0
LINE
  5
16670
  8
0
 10
267.53626710719948
 20
141.04776706031851
 30
0.0
 11
267.53626710719948
 21
137.03369701378489
 31
0.0
  0
LINE
  5
16672
  8
0
 10
285.35246710719952
 20
126.6999999999999
 30
0.0
 11
258.65246710719958
 21
126.6999999999999
 31
0.0
  0
ARC
  5
16674
  8
0
 10
273.73906710719962
 20
129.4366
 30
0.0
 40
2.736600000000009
 50
180.0
 51
270.0
  0
LINE
  5
16675
  8
0
 10
271.00246710719949
 20
129.4366
 30
0.0
 11
271.00246710719972
 21
144.9525247905693
 31
0.0
  0
LINE
  5
16676
  8
0
 10
273.00246710719949
 20
129.4366
 30
0.0
 11
273.00246710719961
 21
144.9525247905693
 31
0.0
  0
ARC
  5
16677
  8
0
 10
273.73906710719962
 20
129.4366
 30
0.0
 40
0.73660000000001
 50
179.9999999999992
 51
270.0
  0
LINE
  5
16679
  8
0
 10
285.35246710719952
 20
128.69999999999999
 30
0.0
 11
273.73906710719962
 21
128.69999999999999
 31
0.0
  0
LINE
  5
1667D
  8
0
 10
271.08078715982077
 20
128.69999999999999
 30
0.0
 11
258.65246710719953
 21
128.69999999999999
 31
0.0
  0
ARC
  5
16681
  8
0
 10
262.27794682722561
 20
126.89994257621809
 30
0.0
 40
4.0726540441833343
 50
141.47535616008159
 51
152.8984849738614
  0
ARC
  5
16682
  8
0
 10
283.16070237590901
 20
127.8243721213983
 30
0.0
 40
2.381278595284853
 50
23.013160426588389
 51
42.612998439480322
  0
LINE
  5
16683
  8
0
 10
258.6524671071997
 20
128.7553152512578
 30
0.0
 11
258.65246710719958
 21
126.7
 31
0.0
  0
LINE
  5
16684
  8
0
 10
285.35246710719957
 20
126.7
 30
0.0
 11
285.35246710719957
 21
128.75531525125771
 31
0.0
  0
ARC
  5
16685
  8
0
 10
263.65809140416258
 20
127.386049343656
 30
0.0
 40
5.0056242969628677
 50
147.5277230997838
 51
155.81719162273731
  0
LINE
  5
16686
  8
0
 10
259.43508983595319
 20
130.07352629374239
 30
0.0
 11
265.66731267954623
 21
142.2231752559816
 31
0.0
  0
ARC
  5
16687
  8
0
 10
272.00246710719961
 20
138.9735262937424
 30
0.0
 40
7.1199999999999548
 50
135.3281605438296
 51
152.84421884314111
  0
ARC
  5
16688
  8
0
 10
272.00246710719961
 20
138.9735262937424
 30
0.0
 40
7.119999999999961
 50
27.155781156858879
 51
44.671839456170403
  0
LINE
  5
16689
  8
0
 10
278.3376215348531
 20
142.2231752559816
 30
0.0
 11
284.56984437844602
 21
130.07352629374239
 31
0.0
  0
ARC
  5
1668A
  8
0
 10
280.34684281023658
 20
127.3860493436557
 30
0.0
 40
5.0056242969629672
 50
24.18280837726515
 51
32.472276900220251
  0
ARC
  5
16C88
  8
0
 10
127.69968155864539
 20
142.06243185891671
 30
0.0
 40
1.0000000000000151
 50
90.004352367626325
 51
180.0043523676263
  0
ARC
  5
16C89
  8
0
 10
127.70007656700091
 20
136.86243187391969
 30
0.0
 40
1.0000000000000011
 50
180.0043523676263
 51
270.00435236762632
  0
LINE
  5
16C8A
  8
0
 10
129.69960530112169
 20
143.06258559163709
 30
0.0
 11
127.6996055801912
 21
143.0624336359312
 31
0.0
  0
LINE
  5
16C8B
  8
0
 10
127.70015243173739
 20
135.86243203307481
 30
0.0
 11
129.70015215266781
 21
135.86258398878081
 31
0.0
  0
LINE
  5
16DCA
  8
0
 10
129.69960530112169
 20
143.06258559163709
 30
0.0
 11
129.7001523418611
 21
135.86258398879511
 31
0.0
  0
LINE
  5
16DCB
  8
0
 10
126.6996815615305
 20
142.06235589577139
 30
0.0
 11
126.70007656988621
 21
136.8623559107744
 31
0.0
  0
LINE
  5
16DCF
  8
0
 10
129.7000307072156
 20
137.46350614931859
 30
0.0
 11
136.05062266143429
 21
137.46350614931961
 31
0.0
  0
LINE
  5
16DD1
  8
2
 10
148.88070333244369
 20
137.46350614931859
 30
0.0
 11
149.68070333244361
 21
138.26350614931869
 31
0.0
  0
LINE
  5
16DD2
  8
3
 10
129.7000019116054
 20
137.84250614932
 30
0.0
 11
136.05062266143429
 21
137.84250614932
 31
0.0
  0
LINE
  5
16DD4
  8
3
 10
129.69975559137171
 20
141.08450614931721
 30
0.0
 11
136.05062266143429
 21
141.08450614931721
 31
0.0
  0
LINE
  5
16DD6
  8
2
 10
148.88070333244369
 20
137.4635061493187
 30
0.0
 11
148.88070333244369
 21
141.46350614931859
 31
0.0
  0
LINE
  5
16DD7
  8
2
 10
148.88070333244369
 20
141.46350614931859
 30
0.0
 11
149.68070333244361
 21
140.66350614931861
 31
0.0
  0
LINE
  5
16DD8
  8
2
 10
149.68070333244361
 20
140.66350614931861
 30
0.0
 11
149.68070333244361
 21
138.26350614931869
 31
0.0
  0
LINE
  5
16DD9
  8
0
 10
129.69972679576131
 20
141.46350614931859
 30
0.0
 11
136.05062266143429
 21
141.46350614931859
 31
0.0
  0
LINE
  5
16E0F
  8
0
 10
59.850000357628012
 20
141.48434940000789
 30
0.0
 11
59.850000357628012
 21
140.30152680054579
 31
0.0
  0
LINE
  5
16E10
  8
0
 10
59.850000357628012
 20
138.62552578693899
 30
0.0
 11
59.850000357628012
 21
137.4428993018509
 31
0.0
  0
LINE
  5
16E11
  8
0
 10
66.849999642372154
 20
137.4428993018509
 30
0.0
 11
66.849999642372154
 21
138.62552578693979
 31
0.0
  0
LINE
  5
16E12
  8
0
 10
66.849999642372268
 20
140.30152680054491
 30
0.0
 11
66.849999642372268
 21
141.4843494000078
 31
0.0
  0
LINE
  5
16E14
  8
0
 10
66.849999642372154
 20
137.4428993018509
 30
0.0
 11
65.825997309220384
 21
136.8516917525165
 31
0.0
  0
LINE
  5
16E15
  8
0
 10
64.373914016210733
 20
136.0133317436605
 30
0.0
 11
63.350000000000023
 21
135.4221751840951
 31
0.0
  0
LINE
  5
16E16
  8
0
 10
63.350000000000023
 20
135.4221751840951
 30
0.0
 11
62.32608598378954
 21
136.01333174366039
 31
0.0
  0
LINE
  5
16E17
  8
0
 10
60.874002690779427
 20
136.8516917525167
 30
0.0
 11
59.850000357627891
 21
137.44289930185101
 31
0.0
  0
LINE
  5
16E18
  8
0
 10
66.849999642372268
 20
141.48434940000789
 30
0.0
 11
65.825467913438388
 21
142.0758625958949
 31
0.0
  0
LINE
  5
16E19
  8
0
 10
64.37461325195477
 20
142.91351325457649
 30
0.0
 11
63.350000000000144
 21
143.5050735177638
 31
0.0
  0
LINE
  5
16E1A
  8
0
 10
63.350000000000144
 20
143.5050735177638
 30
0.0
 11
62.32538674804573
 21
142.91351325457671
 31
0.0
  0
LINE
  5
16E1B
  8
0
 10
60.874532086561203
 20
142.07586259589451
 30
0.0
 11
59.850000357628012
 21
141.48434940000789
 31
0.0
  0
CIRCLE
  5
16E1E
  8
0
 10
63.350000000000023
 20
139.4635262937424
 30
0.0
 40
3.5989223867717608
  0
LINE
  5
16ED9
  8
1
 10
213.65246710719961
 20
221.55499148832459
 30
0.0
 11
123.69987896814609
 21
221.55499148832459
 31
0.0
  0
LINE
  5
16EF9
  8
1
 10
188.14978955778369
 20
139.4635262937424
 30
0.0
 11
123.703487478171
 21
139.4635262937424
 31
0.0
  0
LINE
  5
16F5A
  8
1
 10
213.65246710719961
 20
63.34999999999998
 30
0.0
 11
123.70674805805371
 21
63.34999999999998
 31
0.0
  0
LINE
  5
16F66
  8
1
 10
198.7633782433077
 20
233.7799914883245
 30
0.0
 11
198.7633782433077
 21
225.32999148832451
 31
0.0
  0
LINE
  5
16F67
  8
1
 10
194.5383782433077
 20
229.5549914883245
 30
0.0
 11
202.98837824330769
 21
229.5549914883245
 31
0.0
  0
LINE
  5
16F69
  8
1
 10
182.7633782433077
 20
233.77999148832461
 30
0.0
 11
182.7633782433077
 21
225.32999148832459
 31
0.0
  0
LINE
  5
16F6A
  8
1
 10
178.5383782433077
 20
229.5549914883245
 30
0.0
 11
186.98837824330769
 21
229.5549914883245
 31
0.0
  0
LINE
  5
16F6B
  8
1
 10
182.76337824330761
 20
217.77999148832461
 30
0.0
 11
182.76337824330761
 21
209.32999148832459
 31
0.0
  0
LINE
  5
16F6C
  8
1
 10
178.53837824330759
 20
213.55499148832459
 30
0.0
 11
186.98837824330761
 21
213.55499148832459
 31
0.0
  0
LINE
  5
16F74
  8
1
 10
182.7633782433077
 20
124.6999999999999
 30
0.0
 11
182.7633782433077
 21
130.69999999999999
 31
0.0
  0
LINE
  5
16F75
  8
1
 10
198.7633782433077
 20
124.6999999999999
 30
0.0
 11
198.7633782433077
 21
130.69999999999999
 31
0.0
  0
LINE
  5
16F92
  8
1
 10
182.76337824330761
 20
75.574999999999989
 30
0.0
 11
182.76337824330761
 21
67.125
 31
0.0
  0
LINE
  5
16F93
  8
1
 10
178.53837824330759
 20
71.349999999999994
 30
0.0
 11
186.98837824330761
 21
71.349999999999994
 31
0.0
  0
LINE
  5
16F94
  8
1
 10
182.7633782433077
 20
59.574999999999989
 30
0.0
 11
182.7633782433077
 21
51.125
 31
0.0
  0
LINE
  5
16F95
  8
1
 10
178.5383782433077
 20
55.350000000000001
 30
0.0
 11
186.98837824330769
 21
55.350000000000001
 31
0.0
  0
LINE
  5
16F96
  8
1
 10
198.7633782433077
 20
59.575000000000031
 30
0.0
 11
198.7633782433077
 21
51.125000000000043
 31
0.0
  0
LINE
  5
16F97
  8
1
 10
194.5383782433077
 20
55.35000000000003
 30
0.0
 11
202.98837824330769
 21
55.35000000000003
 31
0.0
  0
LINE
  5
16F9F
  8
1
 10
63.350000000000023
 20
163.20337706017921
 30
0.0
 11
63.350000000000023
 21
121.7
 31
0.0
  0
LINE
  5
16FA0
  8
1
 10
69.948922386771756
 20
139.4635262937424
 30
0.0
 11
56.75107761322824
 21
139.4635262937424
 31
0.0
  0
LINE
  5
1700E
  8
1
 10
55.349999999999959
 20
124.6999999999999
 30
0.0
 11
55.349999999999959
 21
130.69999999999999
 31
0.0
  0
LINE
  5
1700F
  8
1
 10
71.35000000000008
 20
124.7
 30
0.0
 11
71.35000000000008
 21
130.69999999999999
 31
0.0
  0
LINE
  5
1702F
  8
2
 10
152.64978955781751
 20
141.4635262937424
 30
0.0
 11
153.3062368138865
 21
141.0845262937421
 31
0.0
  0
LINE
  5
17030
  8
2
 10
152.64978955781751
 20
137.4635262937424
 30
0.0
 11
153.3062368138865
 21
137.84252629374271
 31
0.0
  0
LINE
  5
17031
  8
2
 10
155.6497895578174
 20
137.84252629374271
 30
0.0
 11
156.623784621261
 21
139.4635262937424
 31
0.0
  0
LINE
  5
17032
  8
2
 10
155.64978955781751
 20
141.0845262937421
 30
0.0
 11
156.623784621261
 21
139.4635262937424
 31
0.0
  0
LINE
  5
17033
  8
2
 10
155.64978955781751
 20
141.0845262937421
 30
0.0
 11
155.64978955781751
 21
137.84252629374271
 31
0.0
  0
LINE
  5
17034
  8
2
 10
152.64978955781751
 20
141.4635262937424
 30
0.0
 11
152.64978955781751
 21
137.4635262937424
 31
0.0
  0
LINE
  5
17035
  8
2
 10
141.64978955781751
 20
137.84252629374271
 30
0.0
 11
155.64978955781751
 21
137.84252629374271
 31
0.0
  0
LINE
  5
17036
  8
2
 10
141.64978955781751
 20
137.4635262937424
 30
0.0
 11
152.64978955781751
 21
137.4635262937424
 31
0.0
  0
LINE
  5
17037
  8
2
 10
141.6497895578174
 20
141.0845262937421
 30
0.0
 11
155.64978955781751
 21
141.0845262937421
 31
0.0
  0
LINE
  5
17038
  8
2
 10
141.6497895578174
 20
141.4635262937424
 30
0.0
 11
152.64978955781751
 21
141.4635262937424
 31
0.0
  0
LINE
  5
17072
  8
0
 10
141.279447141627
 20
135.42207441270301
 30
0.0
 11
139.22054852581601
 21
135.42205426827931
 31
0.0
  0
LINE
  5
17073
  8
0
 10
141.64978955781751
 20
136.06352629374271
 30
0.0
 11
141.279447141627
 21
135.42207441270301
 31
0.0
  0
ARC
  5
17074
  8
0
 10
139.80297861009919
 20
136.43243738296479
 30
0.0
 40
1.7890759224437529
 50
334.38424746777417
 51
34.384247468023617
  0
ARC
  5
17075
  8
0
 10
140.69701705734369
 20
136.43241723854109
 30
0.0
 40
1.7890759224437529
 50
145.61575253197631
 51
205.61575253222571
  0
LINE
  5
17076
  8
0
 10
138.8502061096255
 20
136.06350614931901
 30
0.0
 11
139.22054852581601
 21
135.42205426827931
 31
0.0
  0
LINE
  5
17077
  8
0
 10
138.8502061096255
 20
142.86350614931831
 30
0.0
 11
139.22054852581601
 21
143.50495803035801
 31
0.0
  0
ARC
  5
17078
  8
0
 10
140.69701705734369
 20
142.4945950600962
 30
0.0
 40
1.7890759224437529
 50
154.3842474677742
 51
214.3842474680236
  0
ARC
  5
17079
  8
0
 10
139.80297861009939
 20
142.4946152045199
 30
0.0
 40
1.7890759224437529
 50
325.6157525319764
 51
25.615752532225731
  0
ARC
  5
1707A
  8
0
 10
145.59533373827449
 20
139.46350614931839
 30
0.0
 40
6.6873926033737083
 50
162.4120462259794
 51
197.58795377402191
  0
ARC
  5
1707B
  8
0
 10
134.9046619291689
 20
139.46352629374221
 30
0.0
 40
6.6873926033737083
 50
342.41204622597809
 51
17.587953774020569
  0
LINE
  5
1707C
  8
0
 10
141.27944714162689
 20
141.48425223426
 30
0.0
 11
139.2205485258161
 21
141.48423208983621
 31
0.0
  0
LINE
  5
1707D
  8
0
 10
141.27944714162689
 20
137.4428003532243
 30
0.0
 11
139.22054852581641
 21
137.44278020880051
 31
0.0
  0
LINE
  5
1707E
  8
0
 10
141.64978955781751
 20
142.86352629374201
 30
0.0
 11
141.279447141627
 21
143.5049781747818
 31
0.0
  0
LINE
  5
1707F
  8
0
 10
138.8502061096259
 20
136.0635061493183
 30
0.0
 11
138.8502061096259
 21
142.86350614931891
 31
0.0
  0
LINE
  5
17080
  8
0
 10
141.27944714162709
 20
143.5049781747818
 30
0.0
 11
139.22054852581601
 21
143.50495803035801
 31
0.0
  0
LINE
  5
17081
  8
0
 10
141.64978955781751
 20
136.06352629374271
 30
0.0
 11
141.64978955781751
 21
142.8635262937421
 31
0.0
  0
LINE
  5
17082
  8
0
 10
138.47986369343539
 20
135.42205426827931
 30
0.0
 11
136.4209650776244
 21
135.4220341238555
 31
0.0
  0
LINE
  5
17083
  8
0
 10
138.8502061096259
 20
136.06350614931901
 30
0.0
 11
138.47986369343539
 21
135.42205426827931
 31
0.0
  0
ARC
  5
17084
  8
0
 10
137.00339516190769
 20
136.43241723854101
 30
0.0
 40
1.7890759224437529
 50
334.38424746777417
 51
34.384247468023617
  0
ARC
  5
17085
  8
0
 10
137.89743360915219
 20
136.43239709411731
 30
0.0
 40
1.7890759224437529
 50
145.61575253197631
 51
205.61575253222571
  0
LINE
  5
17086
  8
0
 10
136.05062266143389
 20
136.0634860048952
 30
0.0
 11
136.4209650776244
 21
135.4220341238555
 31
0.0
  0
LINE
  5
17087
  8
0
 10
136.05062266143389
 20
142.8634860048945
 30
0.0
 11
136.4209650776244
 21
143.5049378859342
 31
0.0
  0
ARC
  5
17088
  8
0
 10
137.89743360915219
 20
142.49457491567239
 30
0.0
 40
1.7890759224437529
 50
154.3842474677742
 51
214.3842474680236
  0
ARC
  5
17089
  8
0
 10
137.0033951619078
 20
142.4945950600962
 30
0.0
 40
1.7890759224437529
 50
325.6157525319764
 51
25.615752532225731
  0
ARC
  5
1708A
  8
0
 10
142.79575029008291
 20
139.46348600489461
 30
0.0
 40
6.6873926033737083
 50
162.4120462259794
 51
197.58795377402191
  0
ARC
  5
1708B
  8
0
 10
132.10507848097731
 20
139.46350614931839
 30
0.0
 40
6.6873926033737083
 50
342.41204622597809
 51
17.587953774020569
  0
LINE
  5
1708C
  8
0
 10
138.47986369343531
 20
141.48423208983621
 30
0.0
 11
136.42096507762449
 21
141.4842119454124
 31
0.0
  0
LINE
  5
1708D
  8
0
 10
138.47986369343531
 20
137.44278020880051
 30
0.0
 11
136.42096507762491
 21
137.44276006437681
 31
0.0
  0
LINE
  5
1708E
  8
0
 10
138.8502061096259
 20
142.8635061493182
 30
0.0
 11
138.47986369343539
 21
143.50495803035801
 31
0.0
  0
LINE
  5
1708F
  8
0
 10
136.05062266143429
 20
136.06348600489449
 30
0.0
 11
136.05062266143429
 21
142.86348600489509
 31
0.0
  0
LINE
  5
17090
  8
0
 10
138.4798636934355
 20
143.50495803035801
 30
0.0
 11
136.4209650776244
 21
143.5049378859342
 31
0.0
  0
ARC
  5
17441
  8
0
 10
127.69968155864539
 20
224.15389705349881
 30
0.0
 40
1.0000000000000151
 50
90.004352367626325
 51
180.0043523676263
  0
ARC
  5
17442
  8
0
 10
127.70007656700091
 20
218.9538970685017
 30
0.0
 40
1.0000000000000011
 50
180.0043523676263
 51
270.00435236762632
  0
LINE
  5
17443
  8
0
 10
129.69960530112169
 20
225.15405078621919
 30
0.0
 11
127.6996055801912
 21
225.1538988305133
 31
0.0
  0
LINE
  5
17444
  8
0
 10
127.70015243173739
 20
217.95389722765691
 30
0.0
 11
129.70015215266781
 21
217.9540491833628
 31
0.0
  0
LINE
  5
17445
  8
0
 10
129.69960530112169
 20
225.15405078621919
 30
0.0
 11
129.7001523418611
 21
217.95404918337721
 31
0.0
  0
LINE
  5
17446
  8
0
 10
126.6996815615305
 20
224.15382109035349
 30
0.0
 11
126.70007656988621
 21
218.9538211053565
 31
0.0
  0
LINE
  5
17447
  8
0
 10
129.7000307072156
 20
219.55497134390069
 30
0.0
 11
136.05062266143429
 21
219.5549713439016
 31
0.0
  0
LINE
  5
17448
  8
2
 10
148.88070333244369
 20
219.55497134390069
 30
0.0
 11
149.68070333244361
 21
220.3549713439007
 31
0.0
  0
LINE
  5
17449
  8
3
 10
129.7000019116054
 20
219.93397134390199
 30
0.0
 11
136.05062266143429
 21
219.93397134390199
 31
0.0
  0
LINE
  5
1744A
  8
3
 10
129.69975559137171
 20
223.17597134389931
 30
0.0
 11
136.05062266143429
 21
223.17597134389919
 31
0.0
  0
LINE
  5
1744B
  8
2
 10
148.88070333244369
 20
219.5549713439008
 30
0.0
 11
148.88070333244369
 21
223.55497134390069
 31
0.0
  0
LINE
  5
1744C
  8
2
 10
148.88070333244369
 20
223.55497134390069
 30
0.0
 11
149.68070333244361
 21
222.75497134390071
 31
0.0
  0
LINE
  5
1744D
  8
2
 10
149.68070333244361
 20
222.75497134390071
 30
0.0
 11
149.68070333244361
 21
220.3549713439007
 31
0.0
  0
LINE
  5
1744E
  8
0
 10
129.69972679576131
 20
223.55497134390069
 30
0.0
 11
136.05062266143429
 21
223.55497134390069
 31
0.0
  0
LINE
  5
17450
  8
2
 10
152.64978955781751
 20
223.55499148832439
 30
0.0
 11
153.3062368138865
 21
223.1759914883242
 31
0.0
  0
LINE
  5
17451
  8
2
 10
152.64978955781751
 20
219.5549914883245
 30
0.0
 11
153.3062368138865
 21
219.93399148832469
 31
0.0
  0
LINE
  5
17452
  8
2
 10
155.6497895578174
 20
219.93399148832469
 30
0.0
 11
156.623784621261
 21
221.5549914883245
 31
0.0
  0
LINE
  5
17453
  8
2
 10
155.64978955781751
 20
223.17599148832409
 30
0.0
 11
156.623784621261
 21
221.5549914883245
 31
0.0
  0
LINE
  5
17454
  8
2
 10
155.64978955781751
 20
223.1759914883242
 30
0.0
 11
155.64978955781751
 21
219.93399148832469
 31
0.0
  0
LINE
  5
17455
  8
2
 10
152.64978955781751
 20
223.5549914883245
 30
0.0
 11
152.64978955781751
 21
219.5549914883245
 31
0.0
  0
LINE
  5
17456
  8
2
 10
141.64978955781751
 20
219.93399148832469
 30
0.0
 11
155.64978955781751
 21
219.93399148832469
 31
0.0
  0
LINE
  5
17457
  8
2
 10
141.64978955781751
 20
219.5549914883245
 30
0.0
 11
152.64978955781751
 21
219.5549914883245
 31
0.0
  0
LINE
  5
17458
  8
2
 10
141.6497895578174
 20
223.1759914883242
 30
0.0
 11
155.64978955781751
 21
223.1759914883242
 31
0.0
  0
LINE
  5
17459
  8
2
 10
141.6497895578174
 20
223.5549914883245
 30
0.0
 11
152.64978955781751
 21
223.5549914883245
 31
0.0
  0
LINE
  5
1747B
  8
0
 10
141.64978955781751
 20
224.9549713439003
 30
0.0
 11
141.59205453254279
 21
225.05497134105229
 31
0.0
  0
ARC
  5
1747C
  8
0
 10
136.53743415614761
 20
223.30497134247619
 30
0.0
 40
5.054620376395234
 50
339.74384199954358
 51
20.256158000461308
  0
ARC
  5
1747D
  8
0
 10
136.53743415614761
 20
219.80497134532499
 30
0.0
 40
5.054620376395234
 50
339.74384199953829
 51
20.25615800045605
  0
LINE
  5
1747E
  8
0
 10
141.64978955781751
 20
224.9549713439003
 30
0.0
 11
141.64978955781751
 21
218.154971343901
 31
0.0
  0
LINE
  5
1747F
  8
0
 10
141.64978955781751
 20
218.154971343901
 30
0.0
 11
141.5920545325431
 21
218.05497134674951
 31
0.0
  0
LINE
  5
17480
  8
0
 10
139.22054852581641
 20
221.5549713439006
 30
0.0
 11
141.27944714162621
 21
221.5549713439006
 31
0.0
  0
LINE
  5
17481
  8
0
 10
138.8502061096259
 20
218.154971343901
 30
0.0
 11
138.9079411349004
 21
218.05497134674951
 31
0.0
  0
ARC
  5
17482
  8
0
 10
143.9625615112958
 20
219.80497134532499
 30
0.0
 40
5.054620376395234
 50
159.74384199954389
 51
200.25615800046131
  0
ARC
  5
17483
  8
0
 10
143.9625615112958
 20
223.30497134247619
 30
0.0
 40
5.054620376395234
 50
159.74384199953829
 51
200.256158000456
  0
LINE
  5
17484
  8
0
 10
138.8502061096259
 20
224.9549713439003
 30
0.0
 11
138.90794113490071
 21
225.05497134105229
 31
0.0
  0
LINE
  5
17485
  8
0
 10
138.90794113490071
 20
225.05497134105229
 30
0.0
 11
141.59205453254279
 21
225.05497134105229
 31
0.0
  0
LINE
  5
17486
  8
0
 10
141.5920545325431
 20
218.05497134674951
 30
0.0
 11
138.9079411349004
 21
218.05497134674951
 31
0.0
  0
LINE
  5
17487
  8
0
 10
138.8502061096259
 20
224.9549713439003
 30
0.0
 11
138.8502061096259
 21
218.154971343901
 31
0.0
  0
LINE
  5
17488
  8
0
 10
138.8502061096259
 20
224.9549713439003
 30
0.0
 11
138.79247108435121
 21
225.05497134105229
 31
0.0
  0
ARC
  5
17489
  8
0
 10
133.737850707956
 20
223.30497134247619
 30
0.0
 40
5.054620376395234
 50
339.74384199954358
 51
20.256158000461308
  0
ARC
  5
1748A
  8
0
 10
133.737850707956
 20
219.80497134532499
 30
0.0
 40
5.054620376395234
 50
339.74384199953829
 51
20.25615800045605
  0
LINE
  5
1748C
  8
0
 10
138.8502061096259
 20
218.154971343901
 30
0.0
 11
138.79247108435149
 21
218.05497134674951
 31
0.0
  0
LINE
  5
1748D
  8
0
 10
136.42096507762491
 20
221.5549713439006
 30
0.0
 11
138.4798636934346
 21
221.5549713439006
 31
0.0
  0
LINE
  5
1748E
  8
0
 10
136.05062266143429
 20
218.154971343901
 30
0.0
 11
136.1083576867089
 21
218.05497134674951
 31
0.0
  0
ARC
  5
1748F
  8
0
 10
141.16297806310419
 20
219.80497134532499
 30
0.0
 40
5.054620376395234
 50
159.74384199954389
 51
200.25615800046131
  0
ARC
  5
17490
  8
0
 10
141.16297806310419
 20
223.30497134247619
 30
0.0
 40
5.054620376395234
 50
159.74384199953829
 51
200.256158000456
  0
LINE
  5
17491
  8
0
 10
136.05062266143429
 20
224.9549713439003
 30
0.0
 11
136.1083576867091
 21
225.05497134105229
 31
0.0
  0
LINE
  5
17492
  8
0
 10
136.1083576867091
 20
225.05497134105229
 30
0.0
 11
138.79247108435121
 21
225.05497134105229
 31
0.0
  0
LINE
  5
17493
  8
0
 10
138.79247108435149
 20
218.05497134674951
 30
0.0
 11
136.1083576867089
 21
218.05497134674951
 31
0.0
  0
LINE
  5
17494
  8
0
 10
136.05062266143429
 20
224.9549713439003
 30
0.0
 11
136.05062266143429
 21
218.154971343901
 31
0.0
  0
LINE
  5
1749C
  8
0
 10
141.64978955781751
 20
66.749999999999616
 30
0.0
 11
141.59205453254279
 21
66.849999997151698
 31
0.0
  0
ARC
  5
1749D
  8
0
 10
136.53743415614761
 20
65.099999998575512
 30
0.0
 40
5.054620376395234
 50
339.74384199954358
 51
20.256158000461649
  0
ARC
  5
1749E
  8
0
 10
136.53743415614761
 20
61.600000001424391
 30
0.0
 40
5.054620376395234
 50
339.74384199953829
 51
20.256158000456381
  0
LINE
  5
1749F
  8
0
 10
141.64978955781751
 20
66.749999999999645
 30
0.0
 11
141.64978955781751
 21
59.950000000000287
 31
0.0
  0
LINE
  5
174A0
  8
0
 10
141.64978955781751
 20
59.950000000000287
 30
0.0
 11
141.5920545325431
 21
59.850000002848802
 31
0.0
  0
LINE
  5
174A1
  8
0
 10
139.22054852581641
 20
63.349999999999952
 30
0.0
 11
141.27944714162621
 21
63.349999999999952
 31
0.0
  0
LINE
  5
174A2
  8
0
 10
138.8502061096259
 20
59.950000000000287
 30
0.0
 11
138.9079411349004
 21
59.850000002848802
 31
0.0
  0
ARC
  5
174A3
  8
0
 10
143.9625615112958
 20
61.600000001424391
 30
0.0
 40
5.054620376395234
 50
159.7438419995436
 51
200.2561580004616
  0
ARC
  5
174A4
  8
0
 10
143.9625615112958
 20
65.099999998575512
 30
0.0
 40
5.054620376395234
 50
159.74384199953829
 51
200.25615800045631
  0
LINE
  5
174A5
  8
0
 10
138.8502061096259
 20
66.749999999999616
 30
0.0
 11
138.90794113490071
 21
66.849999997151698
 31
0.0
  0
LINE
  5
174A6
  8
0
 10
138.90794113490071
 20
66.849999997151698
 30
0.0
 11
141.59205453254279
 21
66.849999997151698
 31
0.0
  0
LINE
  5
174A7
  8
0
 10
141.5920545325431
 20
59.850000002848802
 30
0.0
 11
138.9079411349004
 21
59.850000002848802
 31
0.0
  0
LINE
  5
174A8
  8
0
 10
138.8502061096259
 20
66.749999999999645
 30
0.0
 11
138.8502061096259
 21
59.950000000000287
 31
0.0
  0
ARC
  5
174A9
  8
0
 10
127.69968155864539
 20
65.9489257095981
 30
0.0
 40
1.0000000000000151
 50
90.004352367626325
 51
180.0043523676263
  0
ARC
  5
174AA
  8
0
 10
127.70007656700091
 20
60.748925724601072
 30
0.0
 40
1.0000000000000011
 50
180.0043523676263
 51
270.00435236762632
  0
LINE
  5
174AB
  8
0
 10
129.69960530112169
 20
66.949079442318464
 30
0.0
 11
127.6996055801912
 21
66.948927486612618
 31
0.0
  0
LINE
  5
174AC
  8
0
 10
127.70015243173739
 20
59.748925883756172
 30
0.0
 11
129.70015215266781
 21
59.749077839462139
 31
0.0
  0
LINE
  5
174AD
  8
0
 10
129.69960530112169
 20
66.949079442318464
 30
0.0
 11
129.7001523418611
 21
59.74907783947647
 31
0.0
  0
LINE
  5
174AE
  8
0
 10
126.6996815615305
 20
65.948849746452836
 30
0.0
 11
126.70007656988621
 21
60.748849761455823
 31
0.0
  0
LINE
  5
174AF
  8
0
 10
129.7000307072156
 20
61.34999999999998
 30
0.0
 11
136.05062266143429
 21
61.350000000000968
 31
0.0
  0
LINE
  5
174B0
  8
2
 10
148.88070333244369
 20
61.34999999999998
 30
0.0
 11
149.68070333244361
 21
62.150000000000048
 31
0.0
  0
LINE
  5
174B1
  8
3
 10
129.7000019116054
 20
61.729000000001371
 30
0.0
 11
136.05062266143429
 21
61.729000000001371
 31
0.0
  0
LINE
  5
174B2
  8
3
 10
129.69975559137171
 20
64.970999999998597
 30
0.0
 11
136.05062266143429
 21
64.970999999998568
 31
0.0
  0
LINE
  5
174B3
  8
2
 10
148.88070333244369
 20
61.350000000000087
 30
0.0
 11
148.88070333244369
 21
65.34999999999998
 31
0.0
  0
LINE
  5
174B4
  8
2
 10
148.88070333244369
 20
65.34999999999998
 30
0.0
 11
149.68070333244361
 21
64.550000000000026
 31
0.0
  0
LINE
  5
174B5
  8
2
 10
149.68070333244361
 20
64.550000000000026
 30
0.0
 11
149.68070333244361
 21
62.150000000000048
 31
0.0
  0
LINE
  5
174B6
  8
0
 10
129.69972679576131
 20
65.34999999999998
 30
0.0
 11
136.05062266143429
 21
65.350000000000009
 31
0.0
  0
LINE
  5
174B7
  8
2
 10
152.64978955781751
 20
65.350020144423766
 30
0.0
 11
153.3062368138865
 21
64.97102014442352
 31
0.0
  0
LINE
  5
174B8
  8
2
 10
152.64978955781751
 20
61.350020144423823
 30
0.0
 11
153.3062368138865
 21
61.729020144424062
 31
0.0
  0
LINE
  5
174B9
  8
2
 10
155.6497895578174
 20
61.729020144424062
 30
0.0
 11
156.623784621261
 21
63.350020144423823
 31
0.0
  0
LINE
  5
174BA
  8
2
 10
155.64978955781751
 20
64.971020144423463
 30
0.0
 11
156.623784621261
 21
63.350020144423823
 31
0.0
  0
LINE
  5
174BB
  8
2
 10
155.64978955781751
 20
64.971020144423534
 30
0.0
 11
155.64978955781751
 21
61.729020144424062
 31
0.0
  0
LINE
  5
174BC
  8
2
 10
152.64978955781751
 20
65.350020144423823
 30
0.0
 11
152.64978955781751
 21
61.350020144423823
 31
0.0
  0
LINE
  5
174BD
  8
2
 10
141.64978955781751
 20
61.729020144424062
 30
0.0
 11
155.64978955781751
 21
61.729020144424062
 31
0.0
  0
LINE
  5
174BE
  8
2
 10
141.64978955781751
 20
61.350020144423823
 30
0.0
 11
152.64978955781751
 21
61.350020144423823
 31
0.0
  0
LINE
  5
174BF
  8
2
 10
141.6497895578174
 20
64.971020144423534
 30
0.0
 11
155.64978955781751
 21
64.971020144423534
 31
0.0
  0
LINE
  5
174C0
  8
2
 10
141.6497895578174
 20
65.350020144423823
 30
0.0
 11
152.64978955781751
 21
65.350020144423823
 31
0.0
  0
LINE
  5
174C1
  8
0
 10
138.8502061096259
 20
66.749999999999616
 30
0.0
 11
138.79247108435121
 21
66.849999997151698
 31
0.0
  0
ARC
  5
174C2
  8
0
 10
133.737850707956
 20
65.099999998575512
 30
0.0
 40
5.054620376395234
 50
339.74384199954358
 51
20.256158000461649
  0
ARC
  5
174C3
  8
0
 10
133.737850707956
 20
61.600000001424391
 30
0.0
 40
5.054620376395234
 50
339.74384199953829
 51
20.256158000456381
  0
LINE
  5
174C4
  8
0
 10
138.8502061096259
 20
59.950000000000287
 30
0.0
 11
138.79247108435149
 21
59.850000002848802
 31
0.0
  0
LINE
  5
174C5
  8
0
 10
136.42096507762491
 20
63.349999999999952
 30
0.0
 11
138.4798636934346
 21
63.349999999999952
 31
0.0
  0
LINE
  5
174C6
  8
0
 10
136.05062266143429
 20
59.950000000000287
 30
0.0
 11
136.1083576867089
 21
59.850000002848802
 31
0.0
  0
ARC
  5
174C7
  8
0
 10
141.16297806310419
 20
61.600000001424391
 30
0.0
 40
5.054620376395234
 50
159.7438419995436
 51
200.2561580004616
  0
ARC
  5
174C8
  8
0
 10
141.16297806310419
 20
65.099999998575512
 30
0.0
 40
5.054620376395234
 50
159.74384199953829
 51
200.25615800045631
  0
LINE
  5
174C9
  8
0
 10
136.05062266143429
 20
66.749999999999616
 30
0.0
 11
136.1083576867091
 21
66.849999997151698
 31
0.0
  0
LINE
  5
174CA
  8
0
 10
136.1083576867091
 20
66.849999997151698
 30
0.0
 11
138.79247108435121
 21
66.849999997151698
 31
0.0
  0
LINE
  5
174CB
  8
0
 10
138.79247108435149
 20
59.850000002848802
 30
0.0
 11
136.1083576867089
 21
59.850000002848802
 31
0.0
  0
LINE
  5
174CC
  8
0
 10
136.05062266143429
 20
66.749999999999645
 30
0.0
 11
136.05062266143429
 21
59.950000000000287
 31
0.0
  0
LINE
  5
1757F
  8
1
 10
272.00246710719961
 20
163.20337706017921
 30
0.0
 11
272.00246710719961
 21
121.7
 31
0.0
  0
LINE
  5
17580
  8
1
 10
264.00246710719961
 20
124.6999999999999
 30
0.0
 11
264.00246710719961
 21
130.69999999999999
 31
0.0
  0
LINE
  5
17581
  8
1
 10
280.00246710719972
 20
124.7
 30
0.0
 11
280.00246710719972
 21
130.69999999999999
 31
0.0
  0
ENDSEC
  0
EOF
