  0
SECTION
  2
HEADER
  9
$ACADVER
  1
AC1009
  9
$INSBASE
 10
0.0
 20
0.0
 30
0.0
  9
$EXTMIN
 10
0.0
 20
-2.960436562073669
 30
0.0
  9
$EXTMAX
 10
510.7048466522246
 20
288.0048915464431
 30
0.0
  9
$LIMMIN
 10
0.0
 20
0.0
  9
$LIMMAX
 10
420.0
 20
297.0
  9
$ORTHOMODE
 70
     1
  9
$REGENMODE
 70
     1
  9
$FILLMODE
 70
     1
  9
$QTEXTMODE
 70
     0
  9
$MIRRTEXT
 70
     0
  9
$DRAGMODE
 70
     2
  9
$LTSCALE
 40
10.0
  9
$OSMODE
 70
    37
  9
$ATTMODE
 70
     1
  9
$TEXTSIZE
 40
2.5
  9
$TRACEWID
 40
1.0
  9
$TEXTSTYLE
  7
STANDARD
  9
$CLAYER
  8
0
  9
$CELTYPE
  6
BYLAYER
  9
$CECOLOR
 62
   256
  9
$DIMSCALE
 40
1.0
  9
$DIMASZ
 40
2.5
  9
$DIMEXO
 40
0.625
  9
$DIMDLI
 40
3.75
  9
$DIMRND
 40
0.0
  9
$DIMDLE
 40
0.0
  9
$DIMEXE
 40
1.25
  9
$DIMTP
 40
0.0
  9
$DIMTM
 40
0.0
  9
$DIMTXT
 40
2.5
  9
$DIMCEN
 40
2.5
  9
$DIMTSZ
 40
0.0
  9
$DIMTOL
 70
     0
  9
$DIMLIM
 70
     0
  9
$DIMTIH
 70
     0
  9
$DIMTOH
 70
     0
  9
$DIMSE1
 70
     0
  9
$DIMSE2
 70
     0
  9
$DIMTAD
 70
     1
  9
$DIMZIN
 70
     8
  9
$DIMBLK
  1

  9
$DIMASO
 70
     1
  9
$DIMSHO
 70
     1
  9
$DIMPOST
  1

  9
$DIMAPOST
  1

  9
$DIMALT
 70
     0
  9
$DIMALTD
 70
     3
  9
$DIMALTF
 40
0.03937007874016
  9
$DIMLFAC
 40
1.0
  9
$DIMTOFL
 70
     1
  9
$DIMTVP
 40
0.0
  9
$DIMTIX
 70
     0
  9
$DIMSOXD
 70
     0
  9
$DIMSAH
 70
     0
  9
$DIMBLK1
  1

  9
$DIMBLK2
  1

  9
$DIMSTYLE
  2
ISO-25
  9
$DIMCLRD
 70
     0
  9
$DIMCLRE
 70
     0
  9
$DIMCLRT
 70
     0
  9
$DIMTFAC
 40
1.0
  9
$DIMGAP
 40
0.625
  9
$LUNITS
 70
     2
  9
$LUPREC
 70
     1
  9
$SKETCHINC
 40
1.0
  9
$FILLETRAD
 40
0.0
  9
$AUNITS
 70
     0
  9
$AUPREC
 70
     1
  9
$MENU
  1
.
  9
$ELEVATION
 40
0.0
  9
$PELEVATION
 40
0.0
  9
$THICKNESS
 40
0.0
  9
$LIMCHECK
 70
     0
  9
$BLIPMODE
 70
     0
  9
$CHAMFERA
 40
0.0
  9
$CHAMFERB
 40
0.0
  9
$SKPOLY
 70
     0
  9
$TDCREATE
 40
2454083.4444627082
  9
$TDUPDATE
 40
2458838.559496528
  9
$TDINDWG
 40
2.7402819792000002
  9
$TDUSRTIMER
 40
2.7402819792000002
  9
$USRTIMER
 70
     1
  9
$ANGBASE
 50
0.0
  9
$ANGDIR
 70
     0
  9
$PDMODE
 70
     0
  9
$PDSIZE
 40
0.0
  9
$PLINEWID
 40
0.0
  9
$COORDS
 70
     1
  9
$SPLFRAME
 70
     0
  9
$SPLINETYPE
 70
     6
  9
$SPLINESEGS
 70
     8
  9
$ATTDIA
 70
     0
  9
$ATTREQ
 70
     1
  9
$HANDLING
 70
     1
  9
$HANDSEED
  5
17C83
  9
$SURFTAB1
 70
     6
  9
$SURFTAB2
 70
     6
  9
$SURFTYPE
 70
     6
  9
$SURFU
 70
     6
  9
$SURFV
 70
     6
  9
$UCSNAME
  2

  9
$UCSORG
 10
0.0
 20
0.0
 30
0.0
  9
$UCSXDIR
 10
1.0
 20
0.0
 30
0.0
  9
$UCSYDIR
 10
0.0
 20
1.0
 30
0.0
  9
$PUCSNAME
  2

  9
$PUCSORG
 10
0.0
 20
0.0
 30
0.0
  9
$PUCSXDIR
 10
1.0
 20
0.0
 30
0.0
  9
$PUCSYDIR
 10
0.0
 20
1.0
 30
0.0
  9
$USERI1
 70
     0
  9
$USERI2
 70
     0
  9
$USERI3
 70
     0
  9
$USERI4
 70
     0
  9
$USERI5
 70
     0
  9
$USERR1
 40
0.0
  9
$USERR2
 40
0.0
  9
$USERR3
 40
0.0
  9
$USERR4
 40
0.0
  9
$USERR5
 40
0.0
  9
$WORLDVIEW
 70
     1
  9
$SHADEDGE
 70
     3
  9
$SHADEDIF
 70
    70
  9
$TILEMODE
 70
     1
  9
$MAXACTVP
 70
    64
  9
$PLIMCHECK
 70
     0
  9
$PEXTMIN
 10
0.0
 20
0.0
 30
0.0
  9
$PEXTMAX
 10
0.0
 20
0.0
 30
0.0
  9
$PLIMMIN
 10
0.0
 20
0.0
  9
$PLIMMAX
 10
12.0
 20
9.0
  9
$UNITMODE
 70
     0
  9
$VISRETAIN
 70
     1
  9
$PLINEGEN
 70
     0
  9
$PSLTSCALE
 70
     1
  0
ENDSEC
  0
SECTION
  2
TABLES
  0
TABLE
  2
VPORT
 70
     1
  0
VPORT
  2
*ACTIVE
 70
     0
 10
0.0
 20
0.0
 11
1.0
 21
1.0
 12
603.91104294478521
 22
250.0
 13
0.0
 23
0.0
 14
10.0
 24
10.0
 15
10.0
 25
10.0
 16
0.0
 26
0.0
 36
1.0
 17
0.0
 27
0.0
 37
0.0
 40
500.0
 41
2.415644171779141
 42
50.0
 43
0.0
 44
0.0
 50
0.0
 51
0.0
 71
     0
 72
  1000
 73
     1
 74
     3
 75
     0
 76
     0
 77
     0
 78
     0
  0
ENDTAB
  0
TABLE
  2
LTYPE
 70
     2
  0
LTYPE
  2
CONTINUOUS
 70
     0
  3
Solid line
 72
    65
 73
     0
 40
0.0
  0
LTYPE
  2
CENTER
 70
     0
  3
____ _ ____ _ ____ _ ____ _ ____ _ ____ _ ____
 72
    65
 73
     4
 40
2.0
 49
1.25
 49
-0.25
 49
0.25
 49
-0.25
  0
ENDTAB
  0
TABLE
  2
LAYER
 70
     4
  0
LAYER
  2
0
 70
     0
 62
     7
  6
CONTINUOUS
  0
LAYER
  2
DEFPOINTS
 70
     0
 62
     7
  6
CONTINUOUS
  0
LAYER
  2
1
 70
     0
 62
     1
  6
CENTER
  0
LAYER
  2
3
 70
     0
 62
     3
  6
CONTINUOUS
  0
ENDTAB
  0
TABLE
  2
STYLE
 70
     2
  0
STYLE
  2
STANDARD
 70
     0
 40
0.0
 41
1.0
 50
0.0
 71
     0
 42
2.5
  3
txt
  4

  0
STYLE
  2
STANDARD1
 70
     0
 40
0.0
 41
1.0
 50
0.0
 71
     0
 42
3.0
  3
txt
  4

  0
ENDTAB
  0
TABLE
  2
VIEW
 70
     4
  0
VIEW
  2
OLE1
 70
     0
 40
17.336203194614189
 10
1078.262703908531
 20
377.67444865954309
 41
31.074911629702001
 11
0.0
 21
0.0
 31
1.0
 12
0.0
 22
0.0
 32
0.0
 42
50.0
 43
0.0
 44
0.0
 50
0.0
 71
     0
  0
VIEW
  2
OLE2
 70
     0
 40
50.523198253338478
 10
1031.767738941523
 20
579.92835671582054
 41
90.562155008667546
 11
0.0
 21
0.0
 31
1.0
 12
0.0
 22
0.0
 32
0.0
 42
50.0
 43
0.0
 44
0.0
 50
0.0
 71
     0
  0
VIEW
  2
OLE3
 70
     0
 40
95.502301876216066
 10
202.0430959360805
 20
425.55992261598641
 41
146.70534324358491
 11
0.0
 21
0.0
 31
1.0
 12
0.0
 22
0.0
 32
0.0
 42
50.0
 43
0.0
 44
0.0
 50
0.0
 71
     0
  0
VIEW
  2
OLE4
 70
     0
 40
10.01275349423395
 10
937.04056650973382
 20
276.15005419720887
 41
14.972048328368629
 11
0.0
 21
0.0
 31
1.0
 12
0.0
 22
0.0
 32
0.0
 42
50.0
 43
0.0
 44
0.0
 50
0.0
 71
     0
  0
ENDTAB
  0
TABLE
  2
UCS
 70
     0
  0
ENDTAB
  0
TABLE
  2
APPID
 70
    42
  0
APPID
  2
ACAD
 70
     0
  0
APPID
  2
_FTCNV
 70
     0
  0
APPID
  2
DCO15
 70
     0
  0
APPID
  2
GENIUS_GENOREF_13
 70
     0
  0
APPID
  2
GENIUS_GENOENT_13
 70
     0
  0
APPID
  2
GENIUS_GENBH_13
 70
     0
  0
APPID
  2
GENIUS_GENOBJ_13
 70
     0
  0
APPID
  2
GENIUS_GENODEF_13
 70
     0
  0
APPID
  2
GENIUS_GENOLIS_13
 70
     0
  0
APPID
  2
GENIUS_GENOBJ-NBEHI-BHF_13
 70
     0
  0
APPID
  2
GENIUS_GENOBJ-NBEHI-BHB_13
 70
     0
  0
APPID
  2
GENIUS_GENOBJ-F-PART_13
 70
     0
  0
APPID
  2
GENIUS_GEFSTDP_13
 70
     0
  0
APPID
  2
GENIUS_GENOBJ-N-RSSYM_13
 70
     0
  0
APPID
  2
GENIUS_GENSYMENT_13
 70
     0
  0
APPID
  2
GENIUS_GENOBJ-N-TIT_13
 70
     0
  0
APPID
  2
GENIUS_GENTITLE_13
 70
     0
  0
APPID
  2
GENIUS_GENZVEED_13
 70
     0
  0
APPID
  2
GENIUS_GENOBJ-N-LEADER_13
 70
     0
  0
APPID
  2
GENIUS_GENOBJ-N-FIL_13
 70
     0
  0
APPID
  2
GENIUS_GENOBJ-N-SEC_13
 70
     0
  0
APPID
  2
GENIUS_GENOBJ-N-CRS_13
 70
     0
  0
APPID
  2
GENIUS_GENOBJ-N-ZOO_13
 70
     0
  0
APPID
  2
GENIUS_GENZOO_13
 70
     0
  0
APPID
  2
GENIUS_GENOBJ-F-TOL_13
 70
     0
  0
APPID
  2
GENIUS_GENFIL_13
 70
     0
  0
APPID
  2
GENIUS_GENOBJ-N-CHA_13
 70
     0
  0
APPID
  2
_CALL_MAC$
 70
     0
  0
APPID
  2
ASM_BASE
 70
     0
  0
APPID
  2
ASM_EXPLO_VER_2_00
 70
     0
  0
APPID
  2
ASM_CADM_VER_12_00
 70
     0
  0
APPID
  2
ASM_BASEFORO
 70
     0
  0
APPID
  2
ASM_BASETRAVI
 70
     0
  0
APPID
  2
ASM_BASETRAVI1
 70
     0
  0
APPID
  2
ASM_GRUPPI
 70
     0
  0
APPID
  2
ASM_CADM_ALBERO
 70
     0
  0
APPID
  2
ASM_GOLE
 70
     0
  0
APPID
  2
ACAD_MLEADERVER
 70
     0
  0
APPID
  2
ACAD_EXEMPT_FROM_CAD_STANDARDS
 70
     0
  0
APPID
  2
ACAD_DSTYLE_DIMJAG
 70
     0
  0
APPID
  2
ACAD_DSTYLE_DIMTALN
 70
     0
  0
APPID
  2
ACAD_NAV_VCDISPLAY
 70
     0
  0
ENDTAB
  0
TABLE
  2
DIMSTYLE
 70
     2
  0
DIMSTYLE
  2
ISO-25
 70
     0
  3

  4

  5

  6

  7

 40
1.0
 41
2.5
 42
0.625
 43
3.75
 44
1.25
 45
0.0
 46
0.0
 47
0.0
 48
0.0
140
2.5
141
2.5
142
0.0
143
0.03937007874016
144
1.0
145
0.0
146
1.0
147
0.625
 71
     0
 72
     0
 73
     0
 74
     0
 75
     0
 76
     0
 77
     1
 78
     8
170
     0
171
     3
172
     1
173
     0
174
     0
175
     0
176
     0
177
     0
178
     0
  0
DIMSTYLE
  2
STANDARD
 70
     0
  3

  4

  5

  6

  7

 40
1.0
 41
0.18
 42
0.0625
 43
0.38
 44
0.18
 45
0.0
 46
0.0
 47
0.0
 48
0.0
140
0.18
141
0.09
142
0.0
143
25.399999999999999
144
1.0
145
0.0
146
1.0
147
0.09
 71
     0
 72
     0
 73
     1
 74
     1
 75
     0
 76
     0
 77
     0
 78
     0
170
     0
171
     2
172
     0
173
     0
174
     0
175
     0
176
     0
177
     0
178
     0
  0
ENDTAB
  0
ENDSEC
  0
SECTION
  2
BLOCKS
  0
BLOCK
  8
0
  2
$MODEL_SPACE
 70
     0
 10
0.0
 20
0.0
 30
0.0
  3
$MODEL_SPACE
  1

  0
ENDBLK
  5
21
  8
0
  0
BLOCK
 67
     1
  8
0
  2
$PAPER_SPACE
 70
     0
 10
0.0
 20
0.0
 30
0.0
  3
$PAPER_SPACE
  1

  0
ENDBLK
  5
53
 67
     1
  8
0
  0
ENDSEC
  0
SECTION
  2
ENTITIES
  0
TEXT
  5
C317
  8
0
 62
     3
 10
0.0
 20
0.0
 30
0.0
 40
10.0
  1
ST-PAH434000
  7
STANDARD1
  0
LINE
  5
175D4
  8
0
 10
361.59481248352682
 20
178.69970715139061
 30
0.0
 11
361.59482738468802
 21
178.69970715139061
 31
0.0
  0
LINE
  5
175D5
  8
0
 10
375.58053574059147
 20
178.45046287868169
 30
0.0
 11
375.58055064175272
 21
178.45046287868169
 31
0.0
  0
LINE
  5
175D6
  8
0
 10
391.15579566452652
 20
178.45149850938469
 30
0.0
 11
391.15581056568772
 21
178.45149850938469
 31
0.0
  0
LINE
  5
175D7
  8
0
 10
237.48821346554911
 20
180.3007102617994
 30
0.0
 11
211.0000005969778
 21
180.30033028218901
 31
0.0
  0
LINE
  5
175D8
  8
0
 10
194.82781971339131
 20
180.3000993141905
 30
0.0
 11
193.9531271392479
 21
180.30008813831961
 31
0.0
  0
LINE
  5
175D9
  8
0
 10
181.4631312200799
 20
180.2999093243852
 30
0.0
 11
180.7081284979358
 21
180.29989814851439
 31
0.0
  0
LINE
  5
175DA
  8
0
 10
180.70827192161229
 20
170.2999002346769
 30
0.0
 11
181.46327464375639
 21
170.2999095479027
 31
0.0
  0
LINE
  5
175DB
  8
0
 10
193.95326963160181
 20
170.300088361837
 30
0.0
 11
194.8279631370678
 21
170.30010140035299
 31
0.0
  0
LINE
  5
175DC
  8
0
 10
211.0000005969778
 20
170.30033236835149
 30
0.0
 11
236.70672765467319
 21
170.30069930944589
 31
0.0
  0
LINE
  5
175DD
  8
0
 10
180.7081284979358
 20
180.29989814851439
 30
0.0
 11
179.7081432351842
 21
179.29988494608551
 31
0.0
  0
LINE
  5
175DE
  8
0
 10
179.7082568565383
 20
171.2998836347833
 30
0.0
 11
180.70827192161229
 21
170.2999002346769
 31
0.0
  0
LINE
  5
175DF
  8
0
 10
236.70672765467319
 20
154.9999988684431
 30
0.0
 11
314.70670691225678
 21
154.9999988684431
 31
0.0
  0
ARC
  5
175E2
  8
0
 10
249.7067268479552
 20
175.86134998195189
 30
0.0
 40
13.00000000000006
 50
90.0
 51
180.00000315289719
  0
LINE
  5
175E3
  8
0
 10
249.70672792289409
 20
188.86134913656861
 30
0.0
 11
257.70671060774481
 21
188.86134913656861
 31
0.0
  0
ARC
  5
175E4
  8
0
 10
257.7067111905244
 20
180.8613485343495
 30
0.0
 40
8.0000014476024717
 50
359.99996743336408
 51
90.0
  0
LINE
  5
175E5
  8
0
 10
265.706711919047
 20
180.86134409997609
 30
0.0
 11
265.706711919047
 21
173.86134854052219
 31
0.0
  0
ARC
  5
175E6
  8
0
 10
275.70671137146911
 20
173.8613452772374
 30
0.0
 40
9.9999999999999911
 50
179.99998963228819
 51
269.9999896322833
  0
LINE
  5
175E7
  8
0
 10
275.70670983288443
 20
163.86134503874931
 30
0.0
 11
285.7067077467218
 21
163.8613431761041
 31
0.0
  0
ARC
  5
175E8
  8
0
 10
285.70671137146911
 20
173.86134346773031
 30
0.0
 40
9.9999999999999911
 50
269.9999896322833
 51
359.99998963228819
  0
LINE
  5
175E9
  8
0
 10
295.70671311113989
 20
173.86134108994159
 30
0.0
 11
295.70671311113989
 21
183.9897721121088
 31
0.0
  0
ARC
  5
175EA
  8
0
 10
300.70671320421519
 20
183.98977006984541
 30
0.0
 40
4.999999999999968
 50
90.0
 51
179.9999896322866
  0
LINE
  5
175EB
  8
0
 10
300.70671579334891
 20
188.98977106902751
 30
0.0
 11
301.05482181999832
 21
188.98977106902751
 31
0.0
  0
ARC
  5
175EC
  8
0
 10
301.05481919735621
 20
172.9897699438649
 30
0.0
 40
16.000000062990178
 50
41.782821382271763
 51
90.0
  0
ARC
  5
175ED
  8
0
 10
312.23995632082438
 20
182.98440388059379
 30
0.0
 40
1.0000000000000739
 50
359.99998963228978
 51
41.782821382272488
  0
LINE
  5
175EE
  8
0
 10
313.23995581362402
 20
182.98440194223079
 30
0.0
 11
313.23995581362402
 21
181.86133495066321
 31
0.0
  0
ARC
  5
175EF
  8
0
 10
312.7399543302588
 20
181.86133851304069
 30
0.0
 40
0.5000017873620724
 50
269.99986041380612
 51
359.99975056430242
  0
LINE
  5
175F0
  8
0
 10
312.739954800345
 20
181.36133766267449
 30
0.0
 11
310.31995406840002
 21
181.36133766267449
 31
0.0
  0
ARC
  5
175F1
  8
0
 10
310.31995207439701
 20
180.36133942832919
 30
0.0
 40
1.000000000000437
 50
89.999962822310891
 51
179.99993842776709
  0
LINE
  5
175F2
  8
0
 10
309.3199520418421
 20
180.36133936140689
 30
0.0
 11
309.3199520418421
 21
178.2746105501428
 31
0.0
  0
ARC
  5
175F3
  8
0
 10
319.31995169680272
 20
178.2746096071775
 30
0.0
 40
10.00000000000005
 50
179.99998963228819
 51
199.9999935886961
  0
LINE
  5
175F4
  8
0
 10
309.92302438709891
 20
174.8544103512541
 30
0.0
 11
314.10363456699997
 21
163.36826747749001
 31
0.0
  0
ARC
  5
175F5
  8
0
 10
304.70671070159682
 20
159.94806726420879
 30
0.0
 40
10.00000000000002
 50
359.99998963228819
 51
19.999993588690948
  0
LINE
  5
175F6
  8
0
 10
314.70671436283737
 20
159.94806541595611
 30
0.0
 11
314.70667506283701
 21
154.9999988684431
 31
0.0
  0
LINE
  5
175F7
  8
0
 10
236.70672765467319
 20
154.9999988684431
 30
0.0
 11
236.70672765467319
 21
175.8613488683477
 31
0.0
  0
CIRCLE
  5
175FB
  8
0
 10
280.6682004042807
 20
175.30132629774229
 30
0.0
 40
5.9999999999999707
  0
CIRCLE
  5
175FD
  8
0
 10
187.708200413751
 20
175.29999936627991
 30
0.0
 40
7.999999999999992
  0
ARC
  5
17600
  8
0
 10
157.16584671814709
 20
161.0524516024434
 30
0.0
 40
2.271333406910113
 50
139.45198303478941
 51
162.46971485864151
  0
LINE
  5
17601
  8
0
 10
161.2407057592645
 20
168.3297674218193
 30
0.0
 11
155.4399482021108
 21
162.52901172731069
 31
0.0
  0
ARC
  5
17602
  8
0
 10
164.88668801509399
 20
164.68378353367481
 30
0.0
 40
5.1561999999996564
 50
90.0
 51
135.00000000000739
  0
LINE
  5
17603
  8
0
 10
179.2020588228479
 20
169.83998334500939
 30
0.0
 11
164.88668835256249
 21
169.83998334500939
 31
0.0
  0
ARC
  5
17604
  8
0
 10
179.20205932770901
 20
164.68378353367481
 30
0.0
 40
5.1561999999996324
 50
58.361144353460467
 51
90.0
  0
LINE
  5
17605
  8
0
 10
185.31554891262201
 20
166.9354769447819
 30
0.0
 11
181.90681329462669
 21
169.0736240753904
 31
0.0
  0
ARC
  5
17606
  8
0
 10
187.70820041375259
 20
175.29999936628059
 30
0.0
 40
8.7000000000000153
 50
254.0369495528445
 51
83.687971615501823
  0
LINE
  5
17607
  8
0
 10
188.66470410022879
 20
183.94725909922269
 30
0.0
 11
187.3279153415933
 21
184.52676153276121
 31
0.0
  0
ARC
  5
17608
  8
0
 10
187.9625578814609
 20
187.76338013020421
 30
0.0
 40
3.2982533594516972
 50
78.90608419548461
 51
258.9060841954846
  0
LINE
  5
17609
  8
0
 10
201.4750004792586
 20
191.00000104401261
 30
0.0
 11
188.59719997737551
 21
191.00000104401261
 31
0.0
  0
ARC
  5
1760A
  8
0
 10
201.4750004137494
 20
181.4749993662806
 30
0.0
 40
9.5249999999999773
 50
0.0000000000016284
 51
90.0
  0
LINE
  5
1760B
  8
0
 10
211.0000005969778
 20
154.9999988684431
 30
0.0
 11
211.0000005969778
 21
181.47499999497089
 31
0.0
  0
LINE
  5
1760C
  8
0
 10
154.99999886844299
 20
161.73659963998941
 30
0.0
 11
154.99999886844299
 21
154.9999988684431
 31
0.0
  0
LINE
  5
1760D
  8
0
 10
154.99999886844299
 20
154.9999988684431
 30
0.0
 11
211.0000005969778
 21
154.9999988684431
 31
0.0
  0
CIRCLE
  5
17610
  8
0
 10
249.66819928654081
 20
175.86134813375381
 30
0.0
 40
5.0000000000000044
  0
CIRCLE
  5
17611
  8
0
 10
249.66819928654081
 20
175.86134813375381
 30
0.0
 40
3.9999999999999569
  0
LINE
  5
17613
  8
0
 10
351.63810989353811
 20
182.91241070721301
 30
0.0
 11
351.67476675007492
 21
182.91241070721301
 31
0.0
  0
ARC
  5
17614
  8
0
 10
351.63810988819711
 20
172.9124091507791
 30
0.0
 40
10.000000000000631
 50
89.999976890673054
 51
121.3286922215497
  0
LINE
  5
17615
  8
0
 10
326.4588206121698
 20
169.29276427719739
 30
0.0
 11
346.4386477181688
 21
181.45439541433009
 31
0.0
  0
ARC
  5
17616
  8
0
 10
316.05988125462909
 20
186.3767326410148
 30
0.0
 40
19.999996767842049
 50
270.00000074887578
 51
301.32869222154972
  0
LINE
  5
17617
  8
0
 10
313.00864508841192
 20
166.3767355540767
 30
0.0
 11
316.05988136027008
 21
166.3767355540767
 31
0.0
  0
POLYLINE
  5
17618
  8
0
 66
     1
 10
0.0
 20
0.0
 30
0.0
 70
   128
  0
VERTEX
  5
17C33
  8
0
 10
259.6682100603357
 20
190.44498494360599
 30
0.0
  0
VERTEX
  5
17C34
  8
0
 10
259.6682100603357
 20
190.39694732520729
 30
0.0
  0
VERTEX
  5
17C35
  8
0
 10
259.6682100603357
 20
190.25468221399939
 30
0.0
  0
VERTEX
  5
17C36
  8
0
 10
259.6682100603357
 20
190.02365833614019
 30
0.0
  0
VERTEX
  5
17C37
  8
0
 10
259.6682100603357
 20
189.71275305841121
 30
0.0
  0
VERTEX
  5
17C38
  8
0
 10
259.6682063350454
 20
189.3339096615091
 30
0.0
  0
VERTEX
  5
17C39
  8
0
 10
259.6682063350454
 20
188.90169403050101
 30
0.0
  0
VERTEX
  5
17C3A
  8
0
 10
259.6682063350454
 20
188.6171563575044
 30
0.0
  0
SEQEND
  5
17C3B
  8
0
  0
LINE
  5
17619
  8
0
 10
259.6682100603357
 20
190.44498494360599
 30
0.0
 11
351.67476675007492
 21
190.44491416309029
 31
0.0
  0
LINE
  5
1761A
  8
0
 10
259.6682063350454
 20
190.44498494360599
 30
0.0
 11
259.6682063350454
 21
188.6171563575044
 31
0.0
  0
LINE
  5
1761B
  8
0
 10
259.6682063350454
 20
190.44498494360599
 30
0.0
 11
259.6682100603357
 21
190.44498494360599
 31
0.0
  0
LINE
  5
1761C
  8
0
 10
405.6181325623765
 20
178.45246335957199
 30
0.0
 11
410.69513699505472
 21
178.45245963428169
 31
0.0
  0
LINE
  5
1761D
  8
0
 10
415.70484778378159
 20
183.4621666977182
 30
0.0
 11
415.70484778378159
 21
191.50486728642139
 31
0.0
  0
LINE
  5
1761E
  8
0
 10
353.17476233933121
 20
180.99658703897151
 30
0.0
 11
353.60399028751999
 21
180.99658703897151
 31
0.0
  0
ARC
  5
1761F
  8
0
 10
410.69513596375123
 20
183.46216872497251
 30
0.0
 40
5.0097104486641326
 50
269.9999605538884
 51
359.9999061622288
  0
ARC
  5
17620
  8
0
 10
353.6039834930861
 20
175.4723282029021
 30
0.0
 40
5.5242600347050503
 50
57.926586381915968
 51
89.999996842408009
  0
ARC
  5
17621
  8
0
 10
361.59482960424589
 20
188.2239688450465
 30
0.0
 40
9.5242601795466229
 50
237.92658638194581
 51
296.67380449654308
  0
ARC
  5
17622
  8
0
 10
368.35026842541339
 20
174.7769614250868
 30
0.0
 40
5.5242600872138024
 50
61.284237138554182
 51
116.6738044965431
  0
ARC
  5
17623
  8
0
 10
375.58055255043752
 20
187.97472446776729
 30
0.0
 40
9.5242600346931088
 50
241.2842371385542
 51
296.74757956547228
  0
ARC
  5
17624
  8
0
 10
383.36921244490719
 20
172.5206821413758
 30
0.0
 40
7.781538045076462
 50
63.260040177605127
 51
116.74757956547229
  0
ARC
  5
17625
  8
0
 10
391.15581705455247
 20
187.97576016378471
 30
0.0
 40
9.5242600591958961
 50
243.26004017760511
 51
298.72338261214242
  0
ARC
  5
17626
  8
0
 10
398.38785626920429
 20
174.7789588159865
 30
0.0
 40
5.5242600346744268
 50
61.284237110954578
 51
118.7233826121424
  0
ARC
  5
17627
  8
0
 10
405.61814038616779
 20
187.97672182886481
 30
0.0
 40
9.5242600572225111
 50
241.28423711095451
 51
269.99995693893811
  0
LINE
  5
17628
  8
0
 10
351.67476675007492
 20
191.5049157151953
 30
0.0
 11
351.67476675007492
 21
182.4965900788084
 31
0.0
  0
LINE
  5
17629
  8
0
 10
414.2048521945253
 20
193.0048703262583
 30
0.0
 11
353.17476233933121
 21
193.0049150297418
 31
0.0
  0
ARC
  5
1762A
  8
0
 10
353.1747608167214
 20
182.4965882612602
 30
0.0
 40
1.500000000001215
 50
179.9999061622288
 51
269.999996842408
  0
ARC
  5
1762B
  8
0
 10
353.17476758699371
 20
191.50491436857229
 30
0.0
 40
1.5000000000011591
 50
89.999956938938126
 51
179.9999061609798
  0
ARC
  5
1762C
  8
0
 10
414.2048524569604
 20
191.5048685009719
 30
0.0
 40
1.500000000001102
 50
359.9999061622288
 51
89.999956938938126
  0
ARC
  5
1762D
  8
0
 10
353.60396675879298
 20
175.47232820291461
 30
0.0
 40
5.5242600347050503
 50
57.926586381915968
 51
89.999996842408009
  0
ARC
  5
1762E
  8
0
 10
353.17474408242822
 20
182.49658826127259
 30
0.0
 40
1.5000000000012721
 50
179.9999061622288
 51
269.999996842408
  0
ARC
  5
1762F
  8
0
 10
361.59481286995259
 20
188.22396884505901
 30
0.0
 40
9.5242601795466406
 50
237.92658638194581
 51
269.99995750227561
  0
ARC
  5
17630
  8
0
 10
368.35025169112009
 20
174.7769614250993
 30
0.0
 40
5.5242600872137801
 50
61.284237138554118
 51
89.999957502275535
  0
ARC
  5
17631
  8
0
 10
375.58053581614428
 20
187.97472446777971
 30
0.0
 40
9.5242600346931621
 50
241.2842371385542
 51
269.99995750227561
  0
ARC
  5
17632
  8
0
 10
383.36919571061389
 20
172.52068214138819
 30
0.0
 40
7.7815380450763652
 50
63.260040177590639
 51
89.999957502275535
  0
ARC
  5
17633
  8
0
 10
391.1558003202594
 20
187.9757601637971
 30
0.0
 40
9.5242600591956386
 50
243.26004017760511
 51
269.99995750227561
  0
ARC
  5
17634
  8
0
 10
398.38783953491111
 20
174.778958815999
 30
0.0
 40
5.524260034674457
 50
61.284237110954557
 51
89.999957502275535
  0
ARC
  5
17635
  8
0
 10
405.61812365187461
 20
187.97672182887729
 30
0.0
 40
9.5242600572225609
 50
241.28423711095451
 51
269.9999605538884
  0
LINE
  5
17638
  8
0
 10
351.67476675007492
 20
189.3991841981188
 30
0.0
 11
351.67476675007492
 21
189.50491538736969
 31
0.0
  0
LINE
  5
1763A
  8
0
 10
351.67476675007492
 20
191.00491470191631
 30
0.0
 11
351.67475184891367
 21
191.00491470191631
 31
0.0
  0
ARC
  5
1763C
  8
0
 10
353.17475085270058
 20
191.50491436858471
 30
0.0
 40
1.5000000000011591
 50
89.999956938938126
 51
179.99990616222721
  0
POLYLINE
  5
1763D
  8
0
 66
     1
 10
0.0
 20
0.0
 30
0.0
 70
   128
  0
VERTEX
  5
17C3C
  8
0
 10
180.7081284979358
 20
180.29989814851439
 30
0.0
  0
VERTEX
  5
17C3D
  8
0
 10
180.7081284979358
 20
180.29144173953679
 30
0.0
  0
VERTEX
  5
17C3E
  8
0
 10
180.7081322232261
 20
180.08984765503561
 30
0.0
  0
VERTEX
  5
17C3F
  8
0
 10
180.70813781116149
 20
179.6300276229158
 30
0.0
  0
VERTEX
  5
17C40
  8
0
 10
180.70814526174209
 20
179.17288234923041
 30
0.0
  0
SEQEND
  5
17C41
  8
0
  0
POLYLINE
  5
1763E
  8
0
 66
     1
 10
0.0
 20
0.0
 30
0.0
 70
   128
  0
VERTEX
  5
17C42
  8
0
 10
180.70825515780589
 20
171.42691603396091
 30
0.0
  0
VERTEX
  5
17C43
  8
0
 10
180.70826260838649
 20
170.9697707602754
 30
0.0
  0
VERTEX
  5
17C44
  8
0
 10
180.708268196322
 20
170.5099507281557
 30
0.0
  0
VERTEX
  5
17C45
  8
0
 10
180.70827192161229
 20
170.30835850629961
 30
0.0
  0
VERTEX
  5
17C46
  8
0
 10
180.70827192161229
 20
170.2999002346769
 30
0.0
  0
SEQEND
  5
17C47
  8
0
  0
POLYLINE
  5
1763F
  8
0
 66
     1
 10
0.0
 20
0.0
 30
0.0
 70
   128
  0
VERTEX
  5
17C48
  8
0
 10
179.7081432351842
 20
179.29988494608551
 30
0.0
  0
VERTEX
  5
17C49
  8
0
 10
179.7081450978294
 20
179.16358774993569
 30
0.0
  0
VERTEX
  5
17C4A
  8
0
 10
179.70815068576479
 20
178.7639870354906
 30
0.0
  0
VERTEX
  5
17C4B
  8
0
 10
179.7081599989906
 20
178.1283109495416
 30
0.0
  0
VERTEX
  5
17C4C
  8
0
 10
179.70817117486149
 20
177.29988461825999
 30
0.0
  0
VERTEX
  5
17C4D
  8
0
 10
179.70818607602271
 20
176.33516109082851
 30
0.0
  0
VERTEX
  5
17C4E
  8
0
 10
179.70820097718379
 20
175.29988429043439
 30
0.0
  0
VERTEX
  5
17C4F
  8
0
 10
179.70821587834499
 20
174.26460749004039
 30
0.0
  0
VERTEX
  5
17C50
  8
0
 10
179.70822891686109
 20
173.2998839626089
 30
0.0
  0
VERTEX
  5
17C51
  8
0
 10
179.70824009273201
 20
172.47145763132721
 30
0.0
  0
VERTEX
  5
17C52
  8
0
 10
179.7082494059577
 20
171.83578527066859
 30
0.0
  0
VERTEX
  5
17C53
  8
0
 10
179.70825499389321
 20
171.43618083093321
 30
0.0
  0
VERTEX
  5
17C54
  8
0
 10
179.7082568565383
 20
171.2998836347833
 30
0.0
  0
SEQEND
  5
17C55
  8
0
  0
LINE
  5
17640
  8
0
 10
236.66820815298709
 20
286.00624256767333
 30
0.0
 11
236.66820815298709
 21
275.50489229150128
 31
0.0
  0
LINE
  5
17645
  8
0
 10
284.66820111963898
 20
282.5400422513485
 30
0.0
 11
284.16820010636002
 21
283.04004326462751
 31
0.0
  0
LINE
  5
17646
  8
0
 10
277.16820082161581
 20
283.04004326462751
 30
0.0
 11
276.66819980833679
 21
282.5400422513485
 31
0.0
  0
LINE
  5
17647
  8
0
 10
276.66819980833679
 20
282.5400422513485
 30
0.0
 11
276.66819980833679
 21
281.97654739022261
 31
0.0
  0
LINE
  5
17648
  8
0
 10
284.66820111963898
 20
281.97654739022261
 30
0.0
 11
284.66820111963898
 21
282.5400422513485
 31
0.0
  0
LINE
  5
17649
  8
0
 10
179.70820097718379
 20
253.5048926435411
 30
0.0
 11
180.20820012781769
 21
253.00489267800009
 31
0.0
  0
LINE
  5
1764A
  8
0
 10
195.20820072386411
 20
253.00489267800009
 30
0.0
 11
195.7082008058205
 21
253.5048926435411
 31
0.0
  0
LINE
  5
1764C
  8
0
 10
195.70820080582061
 20
283.00489258952439
 30
0.0
 11
195.7082008058205
 21
287.5048942584545
 31
0.0
  0
LINE
  5
1764D
  8
0
 10
195.7082008058205
 20
253.5048926435411
 30
0.0
 11
195.70820080582061
 21
258.00489221699542
 31
0.0
  0
LINE
  5
1764E
  8
0
 10
195.70820080582061
 20
262.00489194132388
 30
0.0
 11
195.7082008058203
 21
265.75489302165852
 31
0.0
  0
LINE
  5
1764F
  8
0
 10
179.70820097718379
 20
265.75489674694842
 30
0.0
 11
179.70820097718379
 21
253.5048926435411
 31
0.0
  0
LINE
  5
17650
  8
0
 10
179.70820097718379
 20
287.5048942584545
 30
0.0
 11
179.70820097718379
 21
275.2548750210554
 31
0.0
  0
LINE
  5
17651
  8
0
 10
195.7082008058205
 20
287.5048942584545
 30
0.0
 11
195.20820072386411
 21
288.0048915464431
 31
0.0
  0
LINE
  5
17652
  8
0
 10
180.20820012781769
 20
288.0048915464431
 30
0.0
 11
179.70820097718379
 21
287.5048942584545
 31
0.0
  0
LINE
  5
17654
  8
0
 10
184.6643048385159
 20
262.00489194132388
 30
0.0
 11
184.6643048385159
 21
258.00489221699542
 31
0.0
  0
ARC
  5
17655
  8
0
 10
245.1682082769787
 20
286.7700468377011
 30
0.0
 40
0.5
 50
90.0
 51
180.0
  0
ARC
  5
17656
  8
0
 10
254.1682082769787
 20
286.7700468377011
 30
0.0
 40
0.5
 50
0.0
 51
90.0
  0
LINE
  5
17657
  8
0
 10
254.16821009013799
 20
287.27004730142659
 30
0.0
 11
245.16820675227791
 21
287.27004730142659
 31
0.0
  0
LINE
  5
17661
  8
0
 10
255.6682094046846
 20
277.93834527954459
 30
0.0
 11
255.6682094046846
 21
279.43834645673633
 31
0.0
  0
LINE
  5
17662
  8
0
 10
243.6682074377313
 20
279.43834645673633
 30
0.0
 11
243.6682074377313
 21
277.93834527954459
 31
0.0
  0
LINE
  5
17663
  8
0
 10
243.6682074377313
 20
277.93834527954459
 30
0.0
 11
244.16820845101029
 21
277.43834612891078
 31
0.0
  0
LINE
  5
17664
  8
0
 10
255.1682083914057
 20
277.43834612891078
 30
0.0
 11
255.6682094046846
 21
277.93834527954459
 31
0.0
  0
LINE
  5
17666
  8
0
 10
253.66820907685911
 20
286.00624256767333
 30
0.0
 11
253.66820907685911
 21
286.77004628814763
 31
0.0
  0
LINE
  5
17667
  8
0
 10
245.6682077655569
 20
286.77004628814763
 30
0.0
 11
245.6682077655569
 21
286.00624256767333
 31
0.0
  0
LINE
  5
1766A
  8
0
 10
239.6682105073705
 20
281.93834593519568
 30
0.0
 11
239.6682105073705
 21
279.43834645673633
 31
0.0
  0
LINE
  5
1766B
  8
0
 10
270.6680907914415
 20
275.05993686616421
 30
0.0
 11
270.16820153687149
 21
274.56004202365881
 31
0.0
  0
LINE
  5
1766C
  8
0
 10
270.66809079144161
 20
275.50489229150128
 30
0.0
 11
195.7082008058205
 21
275.50489229150122
 31
0.0
  0
LINE
  5
1766D
  8
0
 10
195.7082008058205
 20
265.50489251501858
 30
0.0
 11
270.6680907914415
 21
265.50489251501858
 31
0.0
  0
LINE
  5
1766E
  8
0
 10
179.97888802085069
 20
274.77558103390038
 30
0.0
 11
179.70820097718379
 21
274.50489212758839
 31
0.0
  0
LINE
  5
1766F
  8
0
 10
179.70820097718379
 20
266.50489267893141
 30
0.0
 11
179.97807031963021
 21
266.23502240516251
 31
0.0
  0
LINE
  5
17685
  8
0
 10
314.70670691225678
 20
286.00624256767333
 30
0.0
 11
236.66820815298709
 21
286.00624256767333
 31
0.0
  0
LINE
  5
17688
  8
0
 10
265.70672682020819
 20
281.97314480319631
 30
0.0
 11
265.70672682020808
 21
286.00624256767333
 31
0.0
  0
LINE
  5
1768D
  8
0
 10
313.23997071478522
 20
281.97314480319631
 30
0.0
 11
313.23997071478522
 21
286.00624256767333
 31
0.0
  0
LINE
  5
176A5
  8
0
 10
314.70670691225678
 20
281.97314480319631
 30
0.0
 11
314.70670691225678
 21
286.00624256767333
 31
0.0
  0
ARC
  5
176A7
  8
0
 10
306.20672684795522
 20
270.03799043635269
 30
0.0
 40
4.1499999999999329
 50
100.18652068346501
 51
248.0661780733424
  0
LINE
  5
176AD
  8
0
 10
284.66820111963898
 20
282.5400422513485
 30
0.0
 11
276.66819980833679
 21
282.5400422513485
 31
0.0
  0
LINE
  5
176AF
  8
0
 10
284.16820010636002
 20
283.04004326462751
 30
0.0
 11
277.16820082161581
 21
283.04004326462751
 31
0.0
  0
LINE
  5
176B0
  8
0
 10
179.70820097718379
 20
253.5048926435411
 30
0.0
 11
195.7082008058205
 21
253.5048926435411
 31
0.0
  0
LINE
  5
176B1
  8
0
 10
180.20820012781769
 20
253.00489267800009
 30
0.0
 11
195.20820072386411
 21
253.00489267800009
 31
0.0
  0
ARC
  5
176B2
  8
0
 10
169.034945269189
 20
268.79550303690291
 30
0.0
 40
12.475659206745931
 50
20.662099760780709
 51
31.18198035743811
  0
ARC
  5
176B3
  8
0
 10
169.35184522363301
 20
272.05696391645779
 30
0.0
 40
12.12312674425149
 50
328.67856508561141
 51
339.51213665727079
  0
LINE
  5
176B4
  8
0
 10
195.7082008058205
 20
287.5048942584545
 30
0.0
 11
179.70820097718379
 21
287.5048942584545
 31
0.0
  0
LINE
  5
176B5
  8
0
 10
195.20820072386411
 20
288.0048915464431
 30
0.0
 11
180.20820012781769
 21
288.0048915464431
 31
0.0
  0
LINE
  5
176B9
  8
0
 10
188.5971999773756
 20
258.00489221699542
 30
0.0
 11
188.5971999773756
 21
262.00489194132388
 31
0.0
  0
LINE
  5
176BA
  8
0
 10
184.6643048385159
 20
258.00489221699542
 30
0.0
 11
211.00000059697791
 21
258.00489221699547
 31
0.0
  0
LINE
  5
176BB
  8
0
 10
184.6643048385159
 20
262.00489194132388
 30
0.0
 11
211.00000059697791
 21
262.00489194132388
 31
0.0
  0
LINE
  5
176C6
  8
0
 10
179.70820097718379
 20
283.00489258952439
 30
0.0
 11
154.98979529831541
 21
283.00489258952439
 31
0.0
  0
LINE
  5
176C7
  8
0
 10
179.70820097718379
 20
279.0048919338733
 30
0.0
 11
154.98979529831541
 21
279.0048919338733
 31
0.0
  0
LINE
  5
176CE
  8
0
 10
154.98979529831541
 20
258.00489221699542
 30
0.0
 11
179.70820097718379
 21
258.00489221699542
 31
0.0
  0
LINE
  5
176CF
  8
0
 10
154.98979529831541
 20
262.00489194132388
 30
0.0
 11
179.70820097718379
 21
262.00489194132388
 31
0.0
  0
LINE
  5
176D8
  8
0
 10
154.98979529831561
 20
283.00489258952439
 30
0.0
 11
154.98979529831561
 21
258.00489221699542
 31
0.0
  0
LINE
  5
176E1
  8
0
 10
211.0000005969776
 20
258.00489221699547
 30
0.0
 11
211.000000596978
 21
265.50489251501858
 31
0.0
  0
ARC
  5
176E4
  8
0
 10
176.00000041374929
 20
270.50489240325987
 30
0.0
 40
4.150000000000027
 50
26.67905001114443
 51
333.32011733131321
  0
LINE
  5
176E7
  8
0
 10
211.00000059697791
 20
263.5505158174783
 30
0.0
 11
211.0000005969778
 21
258.00489221699547
 31
0.0
  0
LINE
  5
176E8
  8
0
 10
244.6682082769787
 20
286.77004686662491
 30
0.0
 11
254.66820737812671
 21
286.77004628814763
 31
0.0
  0
LINE
  5
176F1
  8
0
 10
255.6682094046846
 20
277.93834527954459
 30
0.0
 11
243.66820743773121
 21
277.93834527954459
 31
0.0
  0
LINE
  5
176F3
  8
0
 10
255.1682083914057
 20
277.43834612891078
 30
0.0
 11
244.1682084510102
 21
277.43834612891078
 31
0.0
  0
LINE
  5
176FA
  8
0
 10
259.6682100603357
 20
281.97314480319619
 30
0.0
 11
259.6682100603357
 21
275.75489209964871
 31
0.0
  0
LINE
  5
176FB
  8
0
 10
259.6682063350454
 20
275.75489209964871
 30
0.0
 11
259.6682100603357
 21
275.75489209964871
 31
0.0
  0
LINE
  5
176FC
  8
0
 10
259.66821256506648
 20
281.97314480319619
 30
0.0
 11
259.6682063350454
 21
275.75489209964871
 31
0.0
  0
ARC
  5
176FE
  8
0
 10
301.66820249191551
 20
270.50489211643497
 30
0.0
 40
5.25
 50
270.0
 51
90.0
  0
LINE
  5
176FF
  8
0
 10
259.6682100603357
 20
275.75489209964871
 30
0.0
 11
301.66820576880127
 21
275.75489209964871
 31
0.0
  0
LINE
  5
17702
  8
0
 10
236.66820815298709
 20
259.03664000332361
 30
0.0
 11
351.67476675007492
 21
259.03664000332361
 31
0.0
  0
LINE
  5
17703
  8
0
 10
236.66820815298721
 20
281.97314480319619
 30
0.0
 11
351.67473694775248
 21
281.97314480319619
 31
0.0
  0
ARC
  5
17704
  8
0
 10
301.66820061302252
 20
270.50489211643497
 30
0.0
 40
5.250000000000056
 50
270.0
 51
90.0
  0
LINE
  5
1770A
  8
0
 10
239.6682105073705
 20
279.43834645673633
 30
0.0
 11
259.66821006033581
 21
279.43834645673633
 31
0.0
  0
LINE
  5
1770E
  8
0
 10
414.20483729336411
 20
283.50659303367138
 30
0.0
 11
353.17474743817002
 21
283.5065483301878
 31
0.0
  0
LINE
  5
1770F
  8
0
 10
353.17476233933121
 20
257.5065480265767
 30
0.0
 11
414.2048521945253
 21
257.50659249722958
 31
0.0
  0
ARC
  5
17710
  8
0
 10
353.17475085270058
 20
282.00654809058142
 30
0.0
 40
1.5000000000012379
 50
90.000041687137127
 51
180.00009568091079
  0
LINE
  5
17711
  8
0
 10
351.67475184891367
 20
282.00654715299612
 30
0.0
 11
351.67476675007492
 21
259.00654710829258
 31
0.0
  0
ARC
  5
17712
  8
0
 10
353.17476758699371
 20
259.00654809058761
 30
0.0
 40
1.5000000000012379
 50
180.000095681217
 51
270.00004168715009
  0
LINE
  5
17713
  8
0
 10
415.70484778378159
 20
259.00659367442131
 30
0.0
 11
415.70483288262039
 21
282.00659371912479
 31
0.0
  0
ARC
  5
17714
  8
0
 10
414.20483572266721
 20
282.00659249472631
 30
0.0
 40
1.5000000000014091
 50
0.0000956809287624
 51
90.000041687137127
  0
ARC
  5
17715
  8
0
 10
414.2048524569604
 20
259.00659249473227
 30
0.0
 40
1.5000000000011811
 50
270.00004168713713
 51
0.0000956809108495
  0
ARC
  5
17716
  8
0
 10
353.17474408242822
 20
282.00654809058142
 30
0.0
 40
1.500000000001352
 50
90.000041687150173
 51
180.00009568086679
  0
ARC
  5
17717
  8
0
 10
353.1747608167214
 20
259.00654809058739
 30
0.0
 40
1.500000000001295
 50
180.00009568091079
 51
270.00004168715009
  0
LINE
  5
17719
  8
0
 10
351.67473694775248
 20
281.97654739022261
 30
0.0
 11
351.67473694775248
 21
282.00654715299612
 31
0.0
  0
LINE
  5
1771D
  8
0
 10
290.66809406969702
 20
275.75829468667507
 30
0.0
 11
290.66809406969702
 21
265.2582948282361
 31
0.0
  0
LINE
  5
17720
  8
0
 10
270.6680907914415
 20
265.2582948282361
 30
0.0
 11
270.6680907914415
 21
275.75829468667507
 31
0.0
  0
LINE
  5
17721
  8
0
 10
290.66830268595368
 20
265.2582948282361
 30
0.0
 11
290.66830268595368
 21
275.75829468667507
 31
0.0
  0
POLYLINE
  5
17723
  8
0
 66
     1
 10
0.0
 20
0.0
 30
0.0
 70
   128
  0
VERTEX
  5
17C56
  8
0
 10
180.70814068430059
 20
273.19761405816132
 30
0.0
  0
VERTEX
  5
17C57
  8
0
 10
180.70813408587119
 20
272.48529118485749
 30
0.0
  0
VERTEX
  5
17C58
  8
0
 10
180.7081303605809
 20
271.37313370592892
 30
0.0
  0
VERTEX
  5
17C59
  8
0
 10
180.7081284979358
 20
270.21416888572281
 30
0.0
  0
VERTEX
  5
17C5A
  8
0
 10
180.7081322232261
 20
269.07087636180222
 30
0.0
  0
VERTEX
  5
17C5B
  8
0
 10
180.70813781116149
 20
268.00489292480052
 30
0.0
  0
VERTEX
  5
17C5C
  8
0
 10
180.7081399613852
 20
267.81376089438947
 30
0.0
  0
SEQEND
  5
17C5D
  8
0
  0
POLYLINE
  5
17724
  8
0
 66
     1
 10
0.0
 20
0.0
 30
0.0
 70
   128
  0
VERTEX
  5
17C5E
  8
0
 10
179.70820097718379
 20
274.50489212758839
 30
0.0
  0
VERTEX
  5
17C5F
  8
0
 10
179.70818607602271
 20
274.36859679408371
 30
0.0
  0
VERTEX
  5
17C60
  8
0
 10
179.70817117486149
 20
273.96899421699351
 30
0.0
  0
VERTEX
  5
17C61
  8
0
 10
179.7081599989906
 20
273.33331999368971
 30
0.0
  0
VERTEX
  5
17C62
  8
0
 10
179.70815068576479
 20
272.5048917997629
 30
0.0
  0
VERTEX
  5
17C63
  8
0
 10
179.7081450978294
 20
271.54016827233141
 30
0.0
  0
VERTEX
  5
17C64
  8
0
 10
179.7081432351842
 20
270.5048933345825
 30
0.0
  0
VERTEX
  5
17C65
  8
0
 10
179.7081450978294
 20
269.46961653418839
 30
0.0
  0
VERTEX
  5
17C66
  8
0
 10
179.70815068576479
 20
268.5048930067569
 30
0.0
  0
VERTEX
  5
17C67
  8
0
 10
179.7081599989906
 20
267.67646574415272
 30
0.0
  0
VERTEX
  5
17C68
  8
0
 10
179.70817117486149
 20
267.04079152084893
 30
0.0
  0
VERTEX
  5
17C69
  8
0
 10
179.70818607602271
 20
266.64118894375861
 30
0.0
  0
VERTEX
  5
17C6A
  8
0
 10
179.70820097718379
 20
266.50489267893141
 30
0.0
  0
SEQEND
  5
17C6B
  8
0
  0
LINE
  5
17725
  8
0
 10
94.499998902902007
 20
183.30000108573589
 30
0.0
 11
60.499997287988663
 21
183.30000108573589
 31
0.0
  0
LINE
  5
17726
  8
0
 10
60.499997287988663
 20
167.29999846313149
 30
0.0
 11
64.999997909180806
 21
167.29999846313149
 31
0.0
  0
LINE
  5
17727
  8
0
 10
68.999998564831913
 20
167.29999846313149
 30
0.0
 11
85.999998557381332
 21
167.29999846313149
 31
0.0
  0
LINE
  5
17728
  8
0
 10
89.999998281709836
 20
167.29999846313149
 30
0.0
 11
94.499998902902007
 21
167.29999846313149
 31
0.0
  0
LINE
  5
17729
  8
0
 10
60.499997287988663
 20
183.30000108573589
 30
0.0
 11
60.0
 21
182.8000000724569
 31
0.0
  0
LINE
  5
1772A
  8
0
 10
60.0
 20
167.79999947641051
 30
0.0
 11
60.499997287988663
 21
167.29999846313149
 31
0.0
  0
LINE
  5
1772B
  8
0
 10
94.499998902902007
 20
167.29999846313149
 30
0.0
 11
94.999998868443072
 21
167.79999947641051
 31
0.0
  0
LINE
  5
1772C
  8
0
 10
94.999998868443072
 20
182.8000000724569
 30
0.0
 11
94.499998902902007
 21
183.30000108573589
 31
0.0
  0
LINE
  5
1772D
  8
0
 10
68.999998564831913
 20
191.06163224671039
 30
0.0
 11
64.999997909180806
 21
191.06163224671039
 31
0.0
  0
LINE
  5
1772E
  8
0
 10
89.999998281709836
 20
191.06163224671039
 30
0.0
 11
85.999998557381332
 21
191.06163224671039
 31
0.0
  0
LINE
  5
17732
  8
0
 10
64.922284162603304
 20
192.5482428679243
 30
0.0
 11
64.922241321764886
 21
192.54819816444069
 31
0.0
  0
LINE
  5
17734
  8
0
 10
61.998647416698979
 20
188.98976734373721
 30
0.0
 11
61.998647416698979
 21
183.30000108573589
 31
0.0
  0
LINE
  5
17737
  8
0
 10
93.001347745525891
 20
159.01000006590041
 30
0.0
 11
93.001347745525891
 21
167.29999846313149
 31
0.0
  0
ARC
  5
17738
  8
0
 10
88.991347738178334
 20
159.0099993662806
 30
0.0
 40
4.0100000000000193
 50
270.0
 51
0.0
  0
LINE
  5
1773A
  8
0
 10
66.008648245838117
 20
154.99999936628041
 30
0.0
 11
88.991347945052425
 21
154.9999988684431
 31
0.0
  0
ARC
  5
1773C
  8
0
 10
66.008648355036144
 20
159.0099993662804
 30
0.0
 40
4.00999999999999
 50
180.00000000000159
 51
270.0
  0
LINE
  5
1773D
  8
0
 10
61.998647416698979
 20
167.29999846313149
 30
0.0
 11
61.998647416698979
 21
159.01000006590041
 31
0.0
  0
LINE
  5
1773F
  8
0
 10
93.001347745525891
 20
183.30000108573589
 30
0.0
 11
93.001347745525891
 21
188.98977106902751
 31
0.0
  0
LINE
  5
17740
  8
0
 10
93.001347745525891
 20
188.98977106902751
 30
0.0
 11
89.999998281709836
 21
188.98977106902751
 31
0.0
  0
LINE
  5
17742
  8
0
 10
64.999997909180806
 20
188.98976734373721
 30
0.0
 11
61.998647416698979
 21
188.98976734373721
 31
0.0
  0
LINE
  5
17747
  8
0
 10
94.499998902902007
 20
167.29999846313149
 30
0.0
 11
94.499998902902007
 21
183.30000108573589
 31
0.0
  0
LINE
  5
17748
  8
0
 10
60.499997287988663
 20
183.30000108573589
 30
0.0
 11
60.499997287988663
 21
167.29999846313149
 31
0.0
  0
LINE
  5
17749
  8
0
 10
60.0
 20
182.8000000724569
 30
0.0
 11
60.0
 21
167.79999947641051
 31
0.0
  0
LINE
  5
1774B
  8
0
 10
94.999998868443072
 20
167.79999947641051
 30
0.0
 11
94.999998868442958
 21
182.8000000724569
 31
0.0
  0
LINE
  5
1774F
  8
0
 10
64.999997909180806
 20
161.73659963998941
 30
0.0
 11
68.999998564831913
 21
161.73659963998941
 31
0.0
  0
ARC
  5
17754
  8
0
 10
85.263398168774856
 20
159.73659936628059
 30
0.0
 40
4.736600000000009
 50
270.0
 51
0.0
  0
ARC
  5
17756
  8
0
 10
69.73659816877489
 20
159.73659936628059
 30
0.0
 40
4.736600000000009
 50
180.0
 51
270.0
  0
ARC
  5
17757
  8
0
 10
69.73659816877489
 20
159.73659936628059
 30
0.0
 40
0.73660000000001
 50
180.0
 51
270.0
  0
LINE
  5
17758
  8
0
 10
85.263397837989032
 20
158.99999952409419
 30
0.0
 11
69.736598352901623
 21
158.99999952409419
 31
0.0
  0
ARC
  5
17759
  8
0
 10
85.263398168774856
 20
159.73659936628059
 30
0.0
 40
0.7365999999999531
 50
270.0
 51
0.0
  0
LINE
  5
1775A
  8
0
 10
89.999998281709836
 20
169.83998334500939
 30
0.0
 11
89.999998281709836
 21
159.73659931216389
 31
0.0
  0
LINE
  5
1775B
  8
0
 10
85.999998557381332
 20
159.73659931216389
 30
0.0
 11
85.999998557381332
 21
169.83998334500939
 31
0.0
  0
LINE
  5
1775C
  8
0
 10
68.999998564831913
 20
169.83998334500939
 30
0.0
 11
68.999998564831913
 21
159.73659931216389
 31
0.0
  0
LINE
  5
1775D
  8
0
 10
64.999997909180806
 20
159.73659931216389
 30
0.0
 11
64.999997909180934
 21
169.83998334500939
 31
0.0
  0
LINE
  5
17762
  8
0
 10
68.999998564831913
 20
169.83998334500939
 30
0.0
 11
64.999997909180806
 21
169.83998334500939
 31
0.0
  0
LINE
  5
17765
  8
0
 10
89.999998281709836
 20
169.83998334500939
 30
0.0
 11
85.999998557381332
 21
169.83998334500939
 31
0.0
  0
LINE
  5
1776F
  8
0
 10
68.999998564831913
 20
191.0616322467103
 30
0.0
 11
68.999998564831913
 21
183.30000108573589
 31
0.0
  0
LINE
  5
17770
  8
0
 10
64.999997909180806
 20
183.30000108573589
 30
0.0
 11
64.999997909180806
 21
191.0616322467103
 31
0.0
  0
LINE
  5
17772
  8
0
 10
89.999998281709836
 20
191.06163224671039
 30
0.0
 11
89.999998281709836
 21
183.30000108573589
 31
0.0
  0
LINE
  5
17773
  8
0
 10
85.999998557381332
 20
183.30000108573589
 30
0.0
 11
85.999998557381332
 21
191.06163224671039
 31
0.0
  0
LINE
  5
1777F
  8
0
 10
82.749998024664805
 20
190.44498494360599
 30
0.0
 11
82.749998024664805
 21
187.94498360250151
 31
0.0
  0
LINE
  5
17780
  8
0
 10
68.999998564831799
 20
190.44498494360599
 30
0.0
 11
85.999998557381332
 21
190.44498494360599
 31
0.0
  0
LINE
  5
17784
  8
0
 10
85.999998557381332
 20
187.9448681185022
 30
0.0
 11
68.999998564831799
 21
187.9448681185022
 31
0.0
  0
LINE
  5
17789
  8
0
 10
72.249998166225851
 20
187.94498360250151
 30
0.0
 11
72.249998166225851
 21
190.44498494360599
 31
0.0
  0
LINE
  5
1778D
  8
0
 10
64.499998292885721
 20
191.5049157151953
 30
0.0
 11
64.499998292885721
 21
188.98976734373721
 31
0.0
  0
LINE
  5
1778E
  8
0
 10
90.49999859649688
 20
191.5049157151953
 30
0.0
 11
90.49999859649688
 21
188.98977106902751
 31
0.0
  0
LINE
  5
1778F
  8
0
 10
85.999998557381332
 20
191.00491470191631
 30
0.0
 11
68.999998564831799
 21
191.00491470191631
 31
0.0
  0
ARC
  5
17790
  8
0
 10
65.999998532492214
 20
191.50491436858471
 30
0.0
 40
1.5000000000012961
 50
90.0
 51
179.99991662570781
  0
LINE
  5
17791
  8
0
 10
88.999998583458364
 20
193.0049150297418
 30
0.0
 11
65.999997607432306
 21
193.0049150297418
 31
0.0
  0
LINE
  5
17792
  8
0
 10
68.999998564831799
 20
191.0048699984327
 30
0.0
 11
85.999998557381218
 21
191.0048699984327
 31
0.0
  0
ARC
  5
17793
  8
0
 10
88.999998532486075
 20
191.50491436857229
 30
0.0
 40
1.500000000001239
 50
359.99991662570778
 51
90.0
  0
LINE
  5
17794
  8
0
 10
64.499953589402125
 20
188.98976734373721
 30
0.0
 11
64.499953589402125
 21
191.50486728642139
 31
0.0
  0
ARC
  5
17795
  8
0
 10
65.999954128347326
 20
191.5048685009842
 30
0.0
 40
1.5000000000012179
 50
135.9287786693813
 51
179.99991662570781
  0
LINE
  5
1779A
  8
0
 10
501.1298484820872
 20
171.3013253221288
 30
0.0
 11
502.17309856787318
 21
171.3013253221288
 31
0.0
  0
LINE
  5
1779C
  8
0
 10
476.2048477493226
 20
183.30000108573589
 30
0.0
 11
475.70484778378147
 21
182.8000000724569
 31
0.0
  0
LINE
  5
1779D
  8
0
 10
475.70484778378147
 20
167.79999947641051
 30
0.0
 11
476.2048477493226
 21
167.29999846313149
 31
0.0
  0
LINE
  5
1779E
  8
0
 10
476.2048477493226
 20
167.29999846313149
 30
0.0
 11
477.70349641330557
 21
167.29999846313149
 31
0.0
  0
LINE
  5
1779F
  8
0
 10
484.23659319058049
 20
167.29999846313149
 30
0.0
 11
502.17309856787341
 21
167.29999846313149
 31
0.0
  0
LINE
  5
177A0
  8
0
 10
508.70619674213208
 20
167.29999846313149
 30
0.0
 11
510.20484936423588
 21
167.29999846313149
 31
0.0
  0
LINE
  5
177A1
  8
0
 10
510.20484936423588
 20
183.30000108573589
 30
0.0
 11
508.70619674213208
 21
183.30000108573589
 31
0.0
  0
LINE
  5
177A2
  8
0
 10
477.70349641330557
 20
183.30000108573589
 30
0.0
 11
476.2048477493226
 21
183.30000108573589
 31
0.0
  0
LINE
  5
177A3
  8
0
 10
510.20484936423588
 20
167.29999846313149
 30
0.0
 11
510.7048466522246
 21
167.79999947641051
 31
0.0
  0
LINE
  5
177A4
  8
0
 10
510.7048466522246
 20
182.8000000724569
 30
0.0
 11
510.20484936423588
 21
183.30000108573589
 31
0.0
  0
ARC
  5
177A6
  8
0
 10
509.50309794636308
 20
180.36134813375119
 30
0.0
 40
0.5000000000001137
 50
0.0
 51
90.0
  0
ARC
  5
177A7
  8
0
 10
509.5030979463628
 20
171.36134813375119
 30
0.0
 40
0.5000000000001137
 50
270.0
 51
0.0
  0
LINE
  5
177A8
  8
0
 10
510.00309841008851
 20
171.36134719941771
 30
0.0
 11
510.00309841008851
 21
180.36134681198749
 31
0.0
  0
ARC
  5
177A9
  8
0
 10
476.90659335485628
 20
171.36134813375381
 30
0.0
 40
0.5000000000001137
 50
180.0
 51
270.0
  0
ARC
  5
177AA
  8
0
 10
476.90659335485628
 20
180.36134813375381
 30
0.0
 40
0.5
 50
90.0
 51
180.0
  0
LINE
  5
177AB
  8
0
 10
476.40659334836522
 20
180.36134681198749
 30
0.0
 11
476.40659334836522
 21
171.36134719941771
 31
0.0
  0
LINE
  5
177AD
  8
0
 10
477.7365933475084
 20
179.8613495239988
 30
0.0
 11
476.90659334301012
 21
179.8613495239988
 31
0.0
  0
LINE
  5
177AE
  8
0
 10
476.90659334301012
 20
171.86134821269661
 30
0.0
 11
477.7365933475084
 21
171.86134821269661
 31
0.0
  0
LINE
  5
177AF
  8
0
 10
501.1298484820872
 20
169.86134788487109
 30
0.0
 11
502.17309856787318
 21
169.86134788487109
 31
0.0
  0
LINE
  5
177B1
  8
0
 10
508.73929367633531
 20
171.86134821269661
 30
0.0
 11
509.50309739680949
 21
171.86134821269661
 31
0.0
  0
LINE
  5
177B2
  8
0
 10
509.50309739680949
 20
179.8613495239988
 30
0.0
 11
508.73929367633531
 21
179.8613495239988
 31
0.0
  0
LINE
  5
177B3
  8
0
 10
505.78255911357689
 20
192.54819816444069
 30
0.0
 11
505.78251627273852
 21
192.5482428679243
 31
0.0
  0
LINE
  5
177B4
  8
0
 10
480.67387060262263
 20
178.8629195699468
 30
0.0
 11
480.67387432791293
 21
178.8629158446565
 31
0.0
  0
ARC
  5
177B8
  8
0
 10
481.7048182048174
 20
179.95046443307589
 30
0.0
 40
1.5000000000011331
 50
179.99991662570781
 51
270.00000000002598
  0
ARC
  5
177B9
  8
0
 10
504.70481820481149
 20
179.95046443308831
 30
0.0
 40
1.5000000000011331
 50
270.00000000002598
 51
0.0000833742922015
  0
LINE
  5
177BA
  8
0
 10
481.70481815002847
 20
178.45046287868169
 30
0.0
 11
504.70481772907073
 21
178.45046287868169
 31
0.0
  0
ARC
  5
177BE
  8
0
 10
481.71349642065292
 20
159.0099993662806
 30
0.0
 40
4.0100000000000309
 50
179.99999183691151
 51
270.0
  0
LINE
  5
177BF
  8
0
 10
477.70349641330529
 20
188.98977106902751
 30
0.0
 11
477.70349641330529
 21
159.01000006590041
 31
0.0
  0
LINE
  5
177C2
  8
0
 10
481.7134962137788
 20
158.99999952409419
 30
0.0
 11
504.69619554467488
 21
158.99999952409419
 31
0.0
  0
ARC
  5
177C4
  8
0
 10
504.69619580379521
 20
159.0099993662804
 30
0.0
 40
4.0099999999999731
 50
270.0
 51
358.2352255115124
  0
LINE
  5
177C5
  8
0
 10
481.7134962137788
 20
154.9999988684431
 30
0.0
 11
504.69619554467488
 21
154.9999988684431
 31
0.0
  0
LINE
  5
177C6
  8
0
 10
508.7042937919777
 20
158.8865063821618
 30
0.0
 11
508.70619674213219
 21
188.98976734373721
 31
0.0
  0
LINE
  5
177D0
  8
0
 10
508.70619674213219
 20
181.36133766267449
 30
0.0
 11
506.17001165635878
 21
181.36133766267449
 31
0.0
  0
LINE
  5
177D4
  8
0
 10
480.17001484520728
 20
181.36133766267449
 30
0.0
 11
477.70349641330529
 21
181.36133766267449
 31
0.0
  0
LINE
  5
177D6
  8
0
 10
508.70619674213219
 20
188.98976734373721
 30
0.0
 11
506.17004704661662
 21
188.98976734373721
 31
0.0
  0
LINE
  5
177D8
  8
0
 10
480.17000203952188
 20
188.98977106902751
 30
0.0
 11
477.70349641330529
 21
188.98977106902751
 31
0.0
  0
LINE
  5
177DD
  8
0
 10
504.7061960864811
 20
178.2746105501428
 30
0.0
 11
508.70619674213219
 21
178.2746105501428
 31
0.0
  0
LINE
  5
177E1
  8
0
 10
504.70619608648138
 20
159.0098450856664
 30
0.0
 11
504.7061960864811
 21
178.45090246293691
 31
0.0
  0
LINE
  5
177E3
  8
0
 10
476.20484774932243
 20
183.30000108573589
 30
0.0
 11
476.2048477493226
 21
167.29999846313149
 31
0.0
  0
LINE
  5
177E5
  8
0
 10
475.70484778378147
 20
182.8000000724569
 30
0.0
 11
475.70484778378147
 21
167.79999947641051
 31
0.0
  0
LINE
  5
177E7
  8
0
 10
510.20484936423588
 20
167.29999846313149
 30
0.0
 11
510.20484936423588
 21
183.30000108573589
 31
0.0
  0
LINE
  5
177E9
  8
0
 10
510.7048466522246
 20
167.79999947641051
 30
0.0
 11
510.7048466522246
 21
182.80000007245701
 31
0.0
  0
ARC
  5
177EA
  8
0
 10
485.44144673722002
 20
159.73659936628059
 30
0.0
 40
0.7366000000000668
 50
180.0
 51
270.0
  0
LINE
  5
177EC
  8
0
 10
484.70484634861339
 20
167.29999846313149
 30
0.0
 11
484.70484634861339
 21
159.73659931216389
 31
0.0
  0
LINE
  5
177F0
  8
0
 10
509.50309739680949
 20
180.86134782526639
 30
0.0
 11
509.50309739680949
 21
170.86134991142899
 31
0.0
  0
LINE
  5
177F1
  8
0
 10
476.90659334301012
 20
170.86134991142899
 30
0.0
 11
476.90659334301012
 21
180.86134782526639
 31
0.0
  0
LINE
  5
177F3
  8
0
 10
481.70349660329509
 20
159.00993892324601
 30
0.0
 11
481.70349660329509
 21
178.45046287868169
 31
0.0
  0
LINE
  5
177F4
  8
0
 10
484.23659319058049
 20
158.99999952409419
 30
0.0
 11
484.23659319058049
 21
178.45046287868169
 31
0.0
  0
LINE
  5
177F6
  8
0
 10
502.17309856787318
 20
178.45046287868169
 30
0.0
 11
502.17309856787318
 21
158.99999952409419
 31
0.0
  0
LINE
  5
177FB
  8
0
 10
504.67309804633248
 20
166.3767355540767
 30
0.0
 11
502.17309856787318
 21
166.3767355540767
 31
0.0
  0
LINE
  5
177FC
  8
0
 10
481.7365932464599
 20
166.3767355540767
 30
0.0
 11
484.23659319058049
 21
166.3767355540767
 31
0.0
  0
LINE
  5
17807
  8
0
 10
506.20484375340629
 20
179.95246045905961
 30
0.0
 11
506.2048468459397
 21
191.50486728642139
 31
0.0
  0
ARC
  5
17809
  8
0
 10
504.70484630699463
 20
191.5048685009842
 30
0.0
 40
1.5000000000013529
 50
0.0000833742922015
 51
90.0
  0
LINE
  5
17817
  8
0
 10
480.2048019028561
 20
191.50491218583841
 30
0.0
 11
480.20481820484719
 21
179.95045479140299
 31
0.0
  0
ARC
  5
17819
  8
0
 10
481.70480190285571
 20
191.50491436857229
 30
0.0
 40
1.500000000001247
 50
90.0
 51
180.00008337429381
  0
LINE
  5
1781B
  8
0
 10
481.70480185188347
 20
193.0049150297418
 30
0.0
 11
504.70480282790948
 21
193.0049150297418
 31
0.0
  0
LINE
  5
1781D
  8
0
 10
485.27984793297941
 20
167.87646105978641
 30
0.0
 11
485.77984754927451
 21
167.3764619091526
 31
0.0
  0
LINE
  5
17821
  8
0
 10
485.77984754927451
 20
167.3764619091526
 30
0.0
 11
500.62984746880818
 21
167.3764619091526
 31
0.0
  0
LINE
  5
17823
  8
0
 10
500.62984746880818
 20
167.3764619091526
 30
0.0
 11
501.1298484820872
 21
167.87646105978641
 31
0.0
  0
LINE
  5
17824
  8
0
 10
501.1298484820872
 20
167.87646105978641
 30
0.0
 11
485.27984793297969
 21
167.87669724272089
 31
0.0
  0
LINE
  5
17825
  8
0
 10
500.62984746880818
 20
167.3764619091526
 30
0.0
 11
500.62984746880818
 21
178.45046287868169
 31
0.0
  0
LINE
  5
17826
  8
0
 10
501.1298484820872
 20
167.87646105978641
 30
0.0
 11
501.1298484820872
 21
178.45046287868169
 31
0.0
  0
LINE
  5
17827
  8
0
 10
485.27984793297941
 20
178.45046287868169
 30
0.0
 11
485.27984793297941
 21
167.87646105978641
 31
0.0
  0
LINE
  5
17828
  8
0
 10
485.77984754927451
 20
178.45046287868169
 30
0.0
 11
485.77984754927451
 21
167.3764619091526
 31
0.0
  0
LINE
  5
1782A
  8
0
 10
500.62984746880818
 20
167.37618996296081
 30
0.0
 11
485.77984754927451
 21
167.37618996296081
 31
0.0
  0
LINE
  5
1782B
  8
0
 10
485.77984754927451
 20
167.37618996296081
 30
0.0
 11
485.77984754927451
 21
167.3764619091526
 31
0.0
  0
LINE
  5
1782C
  8
0
 10
485.77984754927451
 20
167.37618996296081
 30
0.0
 11
485.27984793297941
 21
167.8761909762398
 31
0.0
  0
LINE
  5
1782E
  8
0
 10
501.1298484820872
 20
167.8761909762398
 30
0.0
 11
500.62984746880818
 21
167.37618996296081
 31
0.0
  0
LINE
  5
1782F
  8
0
 10
501.1298484820872
 20
167.8761909762398
 30
0.0
 11
501.1298484820872
 21
167.87646105978641
 31
0.0
  0
LINE
  5
17831
  8
0
 10
179.70820097718379
 20
60.499997287988691
 30
0.0
 11
180.20820012781769
 21
60.000000000000028
 31
0.0
  0
LINE
  5
17832
  8
0
 10
195.20820072386411
 20
60.000000000000028
 30
0.0
 11
195.7082008058205
 21
60.499997287988691
 31
0.0
  0
LINE
  5
17833
  8
0
 10
179.70820097718399
 20
64.999998956918716
 30
0.0
 11
179.70820097718379
 21
60.499997287988691
 31
0.0
  0
LINE
  5
17834
  8
0
 10
179.70820097718379
 20
94.499998902902036
 30
0.0
 11
179.70820097718399
 21
89.999999329447718
 31
0.0
  0
LINE
  5
17835
  8
0
 10
195.7082008058205
 20
89.999999329447718
 30
0.0
 11
195.7082008058205
 21
94.499998902902036
 31
0.0
  0
LINE
  5
17836
  8
0
 10
195.7082008058205
 20
60.499997287988691
 30
0.0
 11
195.70820080582061
 21
64.999998956918716
 31
0.0
  0
LINE
  5
17837
  8
0
 10
195.7082008058205
 20
94.499998902902036
 30
0.0
 11
195.20820072386411
 21
94.9999988684431
 31
0.0
  0
LINE
  5
17838
  8
0
 10
180.20820012781769
 20
94.9999988684431
 30
0.0
 11
179.70820097718379
 21
94.499998902902036
 31
0.0
  0
ARC
  5
17839
  8
0
 10
254.1682082769787
 20
61.234844708742088
 30
0.0
 40
0.5
 50
270.0
 51
0.0
  0
ARC
  5
1783A
  8
0
 10
245.1682082769787
 20
61.234844708742088
 30
0.0
 40
0.5
 50
180.0
 51
270.0
  0
LINE
  5
1783B
  8
0
 10
245.16820675227791
 20
60.734844245016568
 30
0.0
 11
254.16821009013799
 21
60.734844245016568
 31
0.0
  0
ARC
  5
1783C
  8
0
 10
245.16819928654081
 20
93.765154034858909
 30
0.0
 40
0.500000000000057
 50
90.0
 51
180.0
  0
ARC
  5
1783D
  8
0
 10
254.16819928654081
 20
93.765154034858909
 30
0.0
 40
0.5
 50
0.0
 51
90.0
  0
LINE
  5
1783E
  8
0
 10
254.16819891426709
 20
94.265154041349874
 30
0.0
 11
245.16819930169731
 21
94.265154041349874
 31
0.0
  0
LINE
  5
1783F
  8
0
 10
253.6681979009883
 20
93.001349307596698
 30
0.0
 11
253.66819790098819
 21
93.765154046704993
 31
0.0
  0
LINE
  5
17840
  8
0
 10
245.6682003149763
 20
93.765154046704993
 30
0.0
 11
245.6682003149763
 21
93.001349307596698
 31
0.0
  0
LINE
  5
17841
  8
0
 10
245.6682077655569
 20
61.998648978769772
 30
0.0
 11
245.6682077655569
 21
61.234845258295529
 31
0.0
  0
LINE
  5
17842
  8
0
 10
253.66820907685911
 20
61.234845258295529
 30
0.0
 11
253.66820907685911
 21
61.998648978769772
 31
0.0
  0
LINE
  5
17843
  8
0
 10
236.70672765467319
 20
82.499999031424551
 30
0.0
 11
211.0000005969778
 21
82.499999031424551
 31
0.0
  0
LINE
  5
17845
  8
0
 10
211.0000005969778
 20
72.499999254941969
 30
0.0
 11
236.70672765467319
 21
72.499999254941969
 31
0.0
  0
LINE
  5
17847
  8
0
 10
236.70672765467319
 20
61.998648978769772
 30
0.0
 11
314.70670691225678
 21
61.998648978769772
 31
0.0
  0
LINE
  5
17849
  8
0
 10
314.70670691225678
 20
61.998648978769772
 30
0.0
 11
314.70670691225672
 21
93.001349307596684
 31
0.0
  0
CIRCLE
  5
1784A
  8
0
 10
306.20672684795522
 20
77.499999143183231
 30
0.0
 40
4.1499999999999204
  0
CIRCLE
  5
1784B
  8
0
 10
246.2067268479552
 20
77.499999143183231
 30
0.0
 40
4.1499999999999773
  0
LINE
  5
1784E
  8
0
 10
314.70670691225678
 20
93.001349307596684
 30
0.0
 11
236.70672765467319
 21
93.001349307596684
 31
0.0
  0
LINE
  5
1784F
  8
0
 10
236.70672765467319
 20
61.998648978769772
 30
0.0
 11
236.70672765467319
 21
93.001349307596684
 31
0.0
  0
LINE
  5
17853
  8
0
 10
195.7082008058205
 20
60.499997287988691
 30
0.0
 11
179.70820097718379
 21
60.499997287988691
 31
0.0
  0
LINE
  5
17854
  8
0
 10
180.20820012781769
 20
60.000000000000028
 30
0.0
 11
195.20820072386411
 21
60.000000000000028
 31
0.0
  0
LINE
  5
17855
  8
0
 10
195.7082008058205
 20
94.499998902902036
 30
0.0
 11
179.70820097718379
 21
94.499998902902036
 31
0.0
  0
LINE
  5
17856
  8
0
 10
195.20820072386411
 20
94.9999988684431
 30
0.0
 11
180.20820012781769
 21
94.9999988684431
 31
0.0
  0
LINE
  5
17857
  8
0
 10
154.99999886844299
 20
64.999998956918716
 30
0.0
 11
211.0000005969778
 21
64.999998956918716
 31
0.0
  0
CIRCLE
  5
1785A
  8
0
 10
176.00000041374929
 20
77.49999914318326
 30
0.0
 40
4.1499999999999773
  0
CIRCLE
  5
1785B
  8
0
 10
201.0000004137494
 20
77.499999143183231
 30
0.0
 40
4.1500000000000048
  0
LINE
  5
1785E
  8
0
 10
211.0000005969778
 20
89.999999329447746
 30
0.0
 11
154.99999886844299
 21
89.999999329447746
 31
0.0
  0
LINE
  5
1785F
  8
0
 10
154.99999886844299
 20
64.999998956918716
 30
0.0
 11
154.99999886844299
 21
89.999999329447746
 31
0.0
  0
LINE
  5
17860
  8
0
 10
211.0000005969778
 20
64.999998956918716
 30
0.0
 11
211.0000005969778
 21
89.999999329447746
 31
0.0
  0
LINE
  5
17867
  8
0
 10
254.66820737812671
 20
61.234845258295529
 30
0.0
 11
244.6682094642893
 21
61.234845258295529
 31
0.0
  0
LINE
  5
17868
  8
0
 10
244.66819828841841
 20
93.765154046704993
 30
0.0
 11
254.66819992754611
 21
93.765154046704993
 31
0.0
  0
LINE
  5
17869
  8
0
 10
314.70670691225678
 20
88.966550249606371
 30
0.0
 11
351.67476670667293
 21
88.966550249606371
 31
0.0
  0
LINE
  5
1786A
  8
0
 10
314.70670691225678
 20
86.466550305485725
 30
0.0
 11
351.67476346729018
 21
86.466550305485725
 31
0.0
  0
LINE
  5
1786B
  8
0
 10
351.67473698662479
 20
66.030045449733734
 30
0.0
 11
314.70670691225678
 21
66.030045449733734
 31
0.0
  0
LINE
  5
1786C
  8
0
 10
351.67474022600697
 20
68.530044928193092
 30
0.0
 11
314.70670691225678
 21
68.530044928193092
 31
0.0
  0
ARC
  5
1787D
  8
0
 10
301.66820061302252
 20
77.033097463100887
 30
0.0
 40
5.2500000000023368
 50
316.44247920664282
 51
55.304822036550078
  0
ARC
  5
17887
  8
0
 10
414.20482967811631
 20
66.000000345230035
 30
0.0
 40
1.5000000000011811
 50
269.9999583128498
 51
359.99990431909242
  0
ARC
  5
17889
  8
0
 10
414.20484641240949
 20
89.000000345223953
 30
0.0
 40
1.500000000001295
 50
359.99990431909077
 51
89.999958312849813
  0
LINE
  5
1788C
  8
0
 10
415.70483288262039
 20
65.999999120831475
 30
0.0
 11
415.70484778378159
 21
88.999999165534973
 31
0.0
  0
LINE
  5
1789B
  8
0
 10
414.21292431486648
 20
90.499978594231493
 30
0.0
 11
353.17476233933121
 21
90.500044813379645
 31
0.0
  0
LINE
  5
1789C
  8
0
 10
353.17474743817002
 20
64.500044509768486
 30
0.0
 11
414.21634018064168
 21
64.500044509768486
 31
0.0
  0
LINE
  5
1789D
  8
0
 10
351.67476675007492
 20
89.000045731663704
 30
0.0
 11
351.67473694775248
 21
66.00004568696022
 31
0.0
  0
ARC
  5
1789E
  8
0
 10
353.1747608167214
 20
89.000044749368826
 30
0.0
 40
1.500000000001295
 50
89.999958312849813
 51
179.9999043190891
  0
ARC
  5
1789F
  8
0
 10
353.17474408242822
 20
66.000044749374922
 30
0.0
 40
1.500000000001352
 50
179.99990431913471
 51
269.9999583128498
  0
ARC
  5
178A0
  8
0
 10
414.20483572266721
 20
66.000000345229978
 30
0.0
 40
1.5000000000014091
 50
269.9999583128498
 51
359.99990431907293
  0
ARC
  5
178A1
  8
0
 10
414.2048524569604
 20
89.000000345223896
 30
0.0
 40
1.5000000000011811
 50
359.99990431909077
 51
89.999958312849813
  0
POLYLINE
  5
178A2
  8
0
 66
     1
 10
0.0
 20
0.0
 30
0.0
 70
   128
  0
VERTEX
  5
17C6C
  8
0
 10
179.70814339890649
 20
79.154602033221906
 30
0.0
  0
VERTEX
  5
17C6D
  8
0
 10
179.70814153626131
 20
78.119327095472997
 30
0.0
  0
VERTEX
  5
17C6E
  8
0
 10
179.70813594832589
 20
77.154603568041495
 30
0.0
  0
VERTEX
  5
17C6F
  8
0
 10
179.70812663510009
 20
76.326175374114683
 30
0.0
  0
VERTEX
  5
17C70
  8
0
 10
179.70811545922919
 20
75.690501150810903
 30
0.0
  0
VERTEX
  5
17C71
  8
0
 10
179.7081135965841
 20
75.637017157995885
 30
0.0
  0
SEQEND
  5
17C72
  8
0
  0
POLYLINE
  5
178A3
  8
0
 66
     1
 10
0.0
 20
0.0
 30
0.0
 70
   128
  0
VERTEX
  5
17C73
  8
0
 10
179.70805957987471
 20
75.636909124577215
 30
0.0
  0
VERTEX
  5
17C74
  8
0
 10
179.70805771722959
 20
75.690501150810903
 30
0.0
  0
VERTEX
  5
17C75
  8
0
 10
179.7080465413587
 20
76.326175374114683
 30
0.0
  0
VERTEX
  5
17C76
  8
0
 10
179.70803722813289
 20
77.154603568041495
 30
0.0
  0
VERTEX
  5
17C77
  8
0
 10
179.7080316401975
 20
78.119327095472997
 30
0.0
  0
VERTEX
  5
17C78
  8
0
 10
179.70802977755241
 20
79.154602033221906
 30
0.0
  0
VERTEX
  5
17C79
  8
0
 10
179.70802977755241
 20
79.363603857481664
 30
0.0
  0
SEQEND
  5
17C7A
  8
0
  0
LINE
  5
178AD
  8
1
 10
176.7082009752167
 20
175.29999936627991
 30
0.0
 11
288.668200294234
 21
175.29999936627991
 31
0.0
  0
LINE
  5
178B7
  8
1
 10
420.70484033430409
 20
270.50489240325987
 30
0.0
 11
149.98979529831561
 21
270.50489240325987
 31
0.0
  0
LINE
  5
178CA
  8
0
 10
236.66820815298709
 20
255.00354223884639
 30
0.0
 11
236.66820815298721
 21
265.50489251501858
 31
0.0
  0
LINE
  5
178CB
  8
0
 10
284.66820111963898
 20
258.46974255517131
 30
0.0
 11
284.16820010636002
 21
257.96974154189229
 31
0.0
  0
LINE
  5
178CC
  8
0
 10
277.16820082161581
 20
257.96974154189229
 30
0.0
 11
276.66819980833679
 21
258.46974255517131
 31
0.0
  0
LINE
  5
178CD
  8
0
 10
276.66819980833679
 20
258.46974255517131
 30
0.0
 11
276.66819980833679
 21
259.0332374162972
 31
0.0
  0
LINE
  5
178CE
  8
0
 10
284.66820111963898
 20
259.0332374162972
 30
0.0
 11
284.66820111963898
 21
258.46974255517131
 31
0.0
  0
ARC
  5
178CF
  8
0
 10
245.1682082769787
 20
254.2397379688187
 30
0.0
 40
0.5
 50
180.0
 51
270.0
  0
ARC
  5
178D0
  8
0
 10
254.1682082769787
 20
254.2397379688187
 30
0.0
 40
0.5
 50
270.0
 51
0.0
  0
LINE
  5
178D1
  8
0
 10
254.16821009013799
 20
253.73973750509319
 30
0.0
 11
245.16820675227791
 21
253.73973750509319
 31
0.0
  0
LINE
  5
178D2
  8
0
 10
255.6682094046846
 20
263.07143952697521
 30
0.0
 11
255.6682094046846
 21
261.57143834978342
 31
0.0
  0
LINE
  5
178D3
  8
0
 10
243.6682074377313
 20
261.57143834978342
 30
0.0
 11
243.6682074377313
 21
263.07143952697521
 31
0.0
  0
LINE
  5
178D4
  8
0
 10
243.6682074377313
 20
263.07143952697521
 30
0.0
 11
244.16820845101029
 21
263.57143867760902
 31
0.0
  0
LINE
  5
178D5
  8
0
 10
255.1682083914057
 20
263.57143867760902
 30
0.0
 11
255.6682094046846
 21
263.07143952697521
 31
0.0
  0
LINE
  5
178D6
  8
0
 10
253.66820907685911
 20
255.00354223884639
 30
0.0
 11
253.66820907685911
 21
254.23973851837221
 31
0.0
  0
LINE
  5
178D7
  8
0
 10
245.6682077655569
 20
254.23973851837221
 30
0.0
 11
245.6682077655569
 21
255.00354223884639
 31
0.0
  0
LINE
  5
178D8
  8
0
 10
239.6682105073705
 20
259.07143887132412
 30
0.0
 11
239.6682105073705
 21
261.57143834978342
 31
0.0
  0
LINE
  5
178D9
  8
0
 10
270.6680907914415
 20
265.9498479403556
 30
0.0
 11
270.16820153687149
 21
266.44974278286099
 31
0.0
  0
LINE
  5
178DA
  8
0
 10
314.70670691225678
 20
255.00354223884639
 30
0.0
 11
236.66820815298709
 21
255.00354223884639
 31
0.0
  0
LINE
  5
178DB
  8
0
 10
265.70672682020819
 20
259.03664000332361
 30
0.0
 11
265.70672682020808
 21
255.00354223884639
 31
0.0
  0
LINE
  5
178DC
  8
0
 10
313.23997071478522
 20
259.03664000332361
 30
0.0
 11
313.23997071478522
 21
255.00354223884639
 31
0.0
  0
LINE
  5
178DD
  8
0
 10
314.70670691225678
 20
259.03664000332361
 30
0.0
 11
314.70670691225678
 21
255.00354223884639
 31
0.0
  0
LINE
  5
178DE
  8
0
 10
284.66820111963898
 20
258.46974255517131
 30
0.0
 11
276.66819980833679
 21
258.46974255517131
 31
0.0
  0
LINE
  5
178DF
  8
0
 10
284.16820010636002
 20
257.96974154189229
 30
0.0
 11
277.16820082161581
 21
257.96974154189229
 31
0.0
  0
LINE
  5
178E0
  8
0
 10
244.6682082769787
 20
254.23973793989481
 30
0.0
 11
254.66820737812671
 21
254.23973851837221
 31
0.0
  0
LINE
  5
178E1
  8
0
 10
255.6682094046846
 20
263.07143952697521
 30
0.0
 11
243.66820743773121
 21
263.07143952697521
 31
0.0
  0
LINE
  5
178E2
  8
0
 10
255.1682083914057
 20
263.57143867760902
 30
0.0
 11
244.1682084510102
 21
263.57143867760902
 31
0.0
  0
LINE
  5
178E3
  8
0
 10
259.6682100603357
 20
259.03664000332361
 30
0.0
 11
259.6682100603357
 21
265.25489270687109
 31
0.0
  0
LINE
  5
178E4
  8
0
 10
259.6682063350454
 20
265.25489270687109
 30
0.0
 11
259.6682100603357
 21
265.25489270687109
 31
0.0
  0
LINE
  5
178E5
  8
0
 10
259.66821256506648
 20
259.03664000332361
 30
0.0
 11
259.6682063350454
 21
265.25489270687109
 31
0.0
  0
LINE
  5
178E6
  8
0
 10
259.6682100603357
 20
265.25489270687109
 30
0.0
 11
301.66820576880127
 21
265.25489270687109
 31
0.0
  0
LINE
  5
178E7
  8
0
 10
239.6682105073705
 20
261.57143834978342
 30
0.0
 11
259.66821006033581
 21
261.57143834978342
 31
0.0
  0
LINE
  5
178EB
  8
0
 10
270.16820153687149
 20
274.56004202365881
 30
0.0
 11
270.16820153687149
 21
266.44974278286099
 31
0.0
  0
LINE
  5
178EE
  8
0
 10
195.70820080582061
 20
279.00489286519593
 30
0.0
 11
195.70819149259449
 21
275.254875021055
 31
0.0
  0
LINE
  5
178EF
  8
0
 10
184.6643048385159
 20
279.00489286519593
 30
0.0
 11
184.6643048385159
 21
283.00489258952439
 31
0.0
  0
LINE
  5
178F0
  8
0
 10
188.5971999773756
 20
283.00489258952439
 30
0.0
 11
188.5971999773756
 21
279.00489286519593
 31
0.0
  0
LINE
  5
178F1
  8
0
 10
184.6643048385159
 20
283.00489258952439
 30
0.0
 11
211.00000059697791
 21
283.00489258952439
 31
0.0
  0
LINE
  5
178F2
  8
0
 10
184.6643048385159
 20
279.00489286519593
 30
0.0
 11
211.00000059697791
 21
279.00489286519593
 31
0.0
  0
LINE
  5
178F3
  8
0
 10
211.0000005969776
 20
283.00489258952439
 30
0.0
 11
211.000000596978
 21
275.50489229150122
 31
0.0
  0
LINE
  5
178F4
  8
0
 10
211.00000059697791
 20
277.4592689890415
 30
0.0
 11
211.0000005969778
 21
283.00489258952439
 31
0.0
  0
LINE
  5
178FC
  8
1
 10
176.00000041374929
 20
152.9999988684431
 30
0.0
 11
176.00000041374929
 21
160.99999952409419
 31
0.0
  0
LINE
  5
178FD
  8
1
 10
201.0000004137494
 20
152.9999988684431
 30
0.0
 11
201.0000004137494
 21
160.99999952409419
 31
0.0
  0
LINE
  5
178FE
  8
1
 10
246.2067268479552
 20
152.9999988684431
 30
0.0
 11
246.2067268479552
 21
160.99999952409419
 31
0.0
  0
LINE
  5
178FF
  8
1
 10
306.20672684795522
 20
152.9999988684431
 30
0.0
 11
306.20672684795522
 21
160.99999952409419
 31
0.0
  0
LINE
  5
17902
  8
1
 10
176.00000041374929
 20
264.3548924032599
 30
0.0
 11
176.00000041374929
 21
276.65489240325991
 31
0.0
  0
LINE
  5
17919
  8
3
 10
179.8962523995917
 20
179.48799936627981
 30
0.0
 11
180.89199501778469
 21
179.48799936627981
 31
0.0
  0
LINE
  5
1791A
  8
3
 10
179.89614707448979
 20
171.11199936627989
 30
0.0
 11
180.89199501778469
 21
171.11199936627989
 31
0.0
  0
LINE
  5
1791B
  8
3
 10
194.52440580971731
 20
179.48799936627981
 30
0.0
 11
195.33385815587599
 21
179.48799936627981
 31
0.0
  0
LINE
  5
1791C
  8
3
 10
194.52440580971731
 20
171.11199936627989
 30
0.0
 11
195.33385815587519
 21
171.11199936627989
 31
0.0
  0
LINE
  5
1791D
  8
3
 10
211.0000005969778
 20
179.48799936627981
 30
0.0
 11
237.22284066443231
 21
179.48799936627981
 31
0.0
  0
LINE
  5
1791E
  8
3
 10
211.0000005969778
 20
171.11199936627989
 30
0.0
 11
236.70672765467319
 21
171.11199936627989
 31
0.0
  0
ARC
  5
1791F
  8
0
 10
206.38145651381529
 20
268.79550303690291
 30
0.0
 40
12.475659206745931
 50
148.81801964256221
 51
159.3379002392191
  0
ARC
  5
17920
  8
0
 10
206.06455655937131
 20
272.05696391645779
 30
0.0
 40
12.12312674425149
 50
200.48786334272771
 51
211.32143491438791
  0
POLYLINE
  5
17921
  8
0
 66
     1
 10
0.0
 20
0.0
 30
0.0
 70
   128
  0
VERTEX
  5
17C7B
  8
0
 10
194.70826109870379
 20
273.19761405816132
 30
0.0
  0
VERTEX
  5
17C7C
  8
0
 10
194.7082676971331
 20
272.48529118485749
 30
0.0
  0
VERTEX
  5
17C7D
  8
0
 10
194.70827142242339
 20
271.37313370592892
 30
0.0
  0
VERTEX
  5
17C7E
  8
0
 10
194.70827328506849
 20
270.21416888572281
 30
0.0
  0
VERTEX
  5
17C7F
  8
0
 10
194.70826955977819
 20
269.07087636180222
 30
0.0
  0
VERTEX
  5
17C80
  8
0
 10
194.7082639718428
 20
268.00489292480052
 30
0.0
  0
VERTEX
  5
17C81
  8
0
 10
194.7082618216192
 20
267.81376089438947
 30
0.0
  0
SEQEND
  5
17C82
  8
0
  0
LINE
  5
17923
  8
3
 10
179.8962523995917
 20
274.6928924032598
 30
0.0
 11
180.0287103796706
 21
274.6928924032598
 31
0.0
  0
LINE
  5
17924
  8
3
 10
195.38769140333369
 20
274.6928924032598
 30
0.0
 11
270.30105043144158
 21
274.6928924032598
 31
0.0
  0
LINE
  5
17925
  8
3
 10
179.89614707448979
 20
266.31689240325989
 30
0.0
 11
180.0299434194992
 21
266.31689240325989
 31
0.0
  0
LINE
  5
17926
  8
3
 10
195.3864583635052
 20
266.31689240326
 30
0.0
 11
270.30105043144152
 21
266.31689240325989
 31
0.0
  0
LINE
  5
17981
  8
1
 10
420.71504390443158
 20
77.499999143183231
 30
0.0
 11
149.9999988684431
 21
77.499999143183231
 31
0.0
  0
LINE
  5
179A8
  8
1
 10
176.01020398387681
 20
71.349999143183197
 30
0.0
 11
176.01020398387681
 21
83.649999143183265
 31
0.0
  0
LINE
  5
179BE
  8
3
 10
211.00000059697791
 20
81.68799914318322
 30
0.0
 11
236.70672765467299
 21
81.68799914318322
 31
0.0
  0
LINE
  5
179BF
  8
3
 10
211.0000005969778
 20
73.311999143183272
 30
0.0
 11
236.70672765467319
 21
73.311999143183243
 31
0.0
  0
LINE
  5
179C1
  8
1
 10
201.0000004137494
 20
71.349999143183197
 30
0.0
 11
201.0000004137494
 21
83.649999143183265
 31
0.0
  0
LINE
  5
179C2
  8
1
 10
246.2067268479552
 20
71.349999143183197
 30
0.0
 11
246.2067268479552
 21
83.649999143183265
 31
0.0
  0
LINE
  5
179C3
  8
1
 10
306.20672684795522
 20
71.349999143183197
 30
0.0
 11
306.20672684795522
 21
83.649999143183265
 31
0.0
  0
CIRCLE
  5
179DE
  8
0
 10
77.499998095445335
 20
175.29999936627991
 30
0.0
 40
5.0
  0
CIRCLE
  5
179DF
  8
3
 10
77.499998095445335
 20
175.29999936627991
 30
0.0
 40
4.1879999999999882
  0
LINE
  5
179E0
  8
0
 10
89.999998281709836
 20
161.73659963998941
 30
0.0
 11
85.999997626058743
 21
161.73659963998941
 31
0.0
  0
LINE
  5
17A35
  8
1
 10
77.499998095445335
 20
198.0049150297418
 30
0.0
 11
77.499998095445221
 21
149.99999911736171
 31
0.0
  0
LINE
  5
17A5C
  8
1
 10
85.499998095445335
 20
175.29999936627991
 30
0.0
 11
69.499998095445335
 21
175.29999936627991
 31
0.0
  0
LINE
  5
17AB6
  8
1
 10
493.20484587922692
 20
198.0049147808231
 30
0.0
 11
493.20484587922692
 21
149.9999988684431
 31
0.0
  0
LINE
  5
17ACE
  8
0
 10
485.27984327636648
 20
171.3013253221288
 30
0.0
 11
484.23659319058049
 21
171.3013253221288
 31
0.0
  0
LINE
  5
17ACF
  8
0
 10
485.27984327636648
 20
169.86134788487109
 30
0.0
 11
484.23659319058049
 21
169.86134788487109
 31
0.0
  0
ARC
  5
17AD0
  8
0
 10
500.96824502123371
 20
159.73659936628059
 30
0.0
 40
0.7366000000000668
 50
270.0
 51
0.0
  0
LINE
  5
17AD1
  8
0
 10
501.70484540984029
 20
167.29999846313149
 30
0.0
 11
501.70484540984029
 21
159.73659931216389
 31
0.0
  0
ENDSEC
  0
EOF
