  0
SECTION
  2
HEADER
  9
$ACADVER
  1
AC1009
  9
$INSBASE
 10
0.0
 20
0.0
 30
0.0
  9
$EXTMIN
 10
0.0
 20
-2.960436562073669
 30
0.0
  9
$EXTMAX
 10
510.7048466522246
 20
305.4939727336814
 30
0.0
  9
$LIMMIN
 10
0.0
 20
0.0
  9
$LIMMAX
 10
420.0
 20
297.0
  9
$ORTHOMODE
 70
     1
  9
$REGENMODE
 70
     1
  9
$FILLMODE
 70
     1
  9
$QTEXTMODE
 70
     0
  9
$MIRRTEXT
 70
     0
  9
$DRAGMODE
 70
     2
  9
$LTSCALE
 40
10.0
  9
$OSMODE
 70
    37
  9
$ATTMODE
 70
     1
  9
$TEXTSIZE
 40
2.5
  9
$TRACEWID
 40
1.0
  9
$TEXTSTYLE
  7
STANDARD
  9
$CLAYER
  8
0
  9
$CELTYPE
  6
BYLAYER
  9
$CECOLOR
 62
   256
  9
$DIMSCALE
 40
1.0
  9
$DIMASZ
 40
2.5
  9
$DIMEXO
 40
0.625
  9
$DIMDLI
 40
3.75
  9
$DIMRND
 40
0.0
  9
$DIMDLE
 40
0.0
  9
$DIMEXE
 40
1.25
  9
$DIMTP
 40
0.0
  9
$DIMTM
 40
0.0
  9
$DIMTXT
 40
2.5
  9
$DIMCEN
 40
2.5
  9
$DIMTSZ
 40
0.0
  9
$DIMTOL
 70
     0
  9
$DIMLIM
 70
     0
  9
$DIMTIH
 70
     0
  9
$DIMTOH
 70
     0
  9
$DIMSE1
 70
     0
  9
$DIMSE2
 70
     0
  9
$DIMTAD
 70
     1
  9
$DIMZIN
 70
     8
  9
$DIMBLK
  1

  9
$DIMASO
 70
     1
  9
$DIMSHO
 70
     1
  9
$DIMPOST
  1

  9
$DIMAPOST
  1

  9
$DIMALT
 70
     0
  9
$DIMALTD
 70
     3
  9
$DIMALTF
 40
0.03937007874016
  9
$DIMLFAC
 40
1.0
  9
$DIMTOFL
 70
     1
  9
$DIMTVP
 40
0.0
  9
$DIMTIX
 70
     0
  9
$DIMSOXD
 70
     0
  9
$DIMSAH
 70
     0
  9
$DIMBLK1
  1

  9
$DIMBLK2
  1

  9
$DIMSTYLE
  2
ISO-25
  9
$DIMCLRD
 70
     0
  9
$DIMCLRE
 70
     0
  9
$DIMCLRT
 70
     0
  9
$DIMTFAC
 40
1.0
  9
$DIMGAP
 40
0.625
  9
$LUNITS
 70
     2
  9
$LUPREC
 70
     1
  9
$SKETCHINC
 40
1.0
  9
$FILLETRAD
 40
0.0
  9
$AUNITS
 70
     0
  9
$AUPREC
 70
     1
  9
$MENU
  1
.
  9
$ELEVATION
 40
0.0
  9
$PELEVATION
 40
0.0
  9
$THICKNESS
 40
0.0
  9
$LIMCHECK
 70
     0
  9
$BLIPMODE
 70
     0
  9
$CHAMFERA
 40
0.0
  9
$CHAMFERB
 40
0.0
  9
$SKPOLY
 70
     0
  9
$TDCREATE
 40
2454083.4444627082
  9
$TDUPDATE
 40
2458838.5595047921
  9
$TDINDWG
 40
2.7910343519
  9
$TDUSRTIMER
 40
2.7910343519
  9
$USRTIMER
 70
     1
  9
$ANGBASE
 50
0.0
  9
$ANGDIR
 70
     0
  9
$PDMODE
 70
     0
  9
$PDSIZE
 40
0.0
  9
$PLINEWID
 40
0.0
  9
$COORDS
 70
     1
  9
$SPLFRAME
 70
     0
  9
$SPLINETYPE
 70
     6
  9
$SPLINESEGS
 70
     8
  9
$ATTDIA
 70
     0
  9
$ATTREQ
 70
     1
  9
$HANDLING
 70
     1
  9
$HANDSEED
  5
18E28
  9
$SURFTAB1
 70
     6
  9
$SURFTAB2
 70
     6
  9
$SURFTYPE
 70
     6
  9
$SURFU
 70
     6
  9
$SURFV
 70
     6
  9
$UCSNAME
  2

  9
$UCSORG
 10
0.0
 20
0.0
 30
0.0
  9
$UCSXDIR
 10
1.0
 20
0.0
 30
0.0
  9
$UCSYDIR
 10
0.0
 20
1.0
 30
0.0
  9
$PUCSNAME
  2

  9
$PUCSORG
 10
0.0
 20
0.0
 30
0.0
  9
$PUCSXDIR
 10
1.0
 20
0.0
 30
0.0
  9
$PUCSYDIR
 10
0.0
 20
1.0
 30
0.0
  9
$USERI1
 70
     0
  9
$USERI2
 70
     0
  9
$USERI3
 70
     0
  9
$USERI4
 70
     0
  9
$USERI5
 70
     0
  9
$USERR1
 40
0.0
  9
$USERR2
 40
0.0
  9
$USERR3
 40
0.0
  9
$USERR4
 40
0.0
  9
$USERR5
 40
0.0
  9
$WORLDVIEW
 70
     1
  9
$SHADEDGE
 70
     3
  9
$SHADEDIF
 70
    70
  9
$TILEMODE
 70
     1
  9
$MAXACTVP
 70
    64
  9
$PLIMCHECK
 70
     0
  9
$PEXTMIN
 10
0.0
 20
0.0
 30
0.0
  9
$PEXTMAX
 10
0.0
 20
0.0
 30
0.0
  9
$PLIMMIN
 10
0.0
 20
0.0
  9
$PLIMMAX
 10
12.0
 20
9.0
  9
$UNITMODE
 70
     0
  9
$VISRETAIN
 70
     1
  9
$PLINEGEN
 70
     0
  9
$PSLTSCALE
 70
     1
  0
ENDSEC
  0
SECTION
  2
TABLES
  0
TABLE
  2
VPORT
 70
     1
  0
VPORT
  2
*ACTIVE
 70
     0
 10
0.0
 20
0.0
 11
1.0
 21
1.0
 12
483.12883435582819
 22
200.0
 13
0.0
 23
0.0
 14
10.0
 24
10.0
 15
10.0
 25
10.0
 16
0.0
 26
0.0
 36
1.0
 17
0.0
 27
0.0
 37
0.0
 40
400.0
 41
2.415644171779141
 42
50.0
 43
0.0
 44
0.0
 50
0.0
 51
0.0
 71
     0
 72
  1000
 73
     1
 74
     3
 75
     0
 76
     0
 77
     0
 78
     0
  0
ENDTAB
  0
TABLE
  2
LTYPE
 70
     2
  0
LTYPE
  2
CONTINUOUS
 70
     0
  3
Solid line
 72
    65
 73
     0
 40
0.0
  0
LTYPE
  2
CENTER
 70
     0
  3
____ _ ____ _ ____ _ ____ _ ____ _ ____ _ ____
 72
    65
 73
     4
 40
2.0
 49
1.25
 49
-0.25
 49
0.25
 49
-0.25
  0
ENDTAB
  0
TABLE
  2
LAYER
 70
     4
  0
LAYER
  2
0
 70
     0
 62
     7
  6
CONTINUOUS
  0
LAYER
  2
DEFPOINTS
 70
     0
 62
     7
  6
CONTINUOUS
  0
LAYER
  2
1
 70
     0
 62
     1
  6
CENTER
  0
LAYER
  2
3
 70
     0
 62
     3
  6
CONTINUOUS
  0
ENDTAB
  0
TABLE
  2
STYLE
 70
     2
  0
STYLE
  2
STANDARD
 70
     0
 40
0.0
 41
1.0
 50
0.0
 71
     0
 42
2.5
  3
txt
  4

  0
STYLE
  2
STANDARD1
 70
     0
 40
0.0
 41
1.0
 50
0.0
 71
     0
 42
3.0
  3
txt
  4

  0
ENDTAB
  0
TABLE
  2
VIEW
 70
     4
  0
VIEW
  2
OLE1
 70
     0
 40
17.336203194614189
 10
1078.262703908531
 20
377.67444865954309
 41
31.074911629702001
 11
0.0
 21
0.0
 31
1.0
 12
0.0
 22
0.0
 32
0.0
 42
50.0
 43
0.0
 44
0.0
 50
0.0
 71
     0
  0
VIEW
  2
OLE2
 70
     0
 40
50.523198253338478
 10
1031.767738941523
 20
579.92835671582054
 41
90.562155008667546
 11
0.0
 21
0.0
 31
1.0
 12
0.0
 22
0.0
 32
0.0
 42
50.0
 43
0.0
 44
0.0
 50
0.0
 71
     0
  0
VIEW
  2
OLE3
 70
     0
 40
95.502301876216066
 10
202.0430959360805
 20
425.55992261598641
 41
146.70534324358491
 11
0.0
 21
0.0
 31
1.0
 12
0.0
 22
0.0
 32
0.0
 42
50.0
 43
0.0
 44
0.0
 50
0.0
 71
     0
  0
VIEW
  2
OLE4
 70
     0
 40
10.01275349423395
 10
937.04056650973382
 20
276.15005419720887
 41
14.972048328368629
 11
0.0
 21
0.0
 31
1.0
 12
0.0
 22
0.0
 32
0.0
 42
50.0
 43
0.0
 44
0.0
 50
0.0
 71
     0
  0
ENDTAB
  0
TABLE
  2
UCS
 70
     0
  0
ENDTAB
  0
TABLE
  2
APPID
 70
    42
  0
APPID
  2
ACAD
 70
     0
  0
APPID
  2
_FTCNV
 70
     0
  0
APPID
  2
DCO15
 70
     0
  0
APPID
  2
GENIUS_GENOREF_13
 70
     0
  0
APPID
  2
GENIUS_GENOENT_13
 70
     0
  0
APPID
  2
GENIUS_GENBH_13
 70
     0
  0
APPID
  2
GENIUS_GENOBJ_13
 70
     0
  0
APPID
  2
GENIUS_GENODEF_13
 70
     0
  0
APPID
  2
GENIUS_GENOLIS_13
 70
     0
  0
APPID
  2
GENIUS_GENOBJ-NBEHI-BHF_13
 70
     0
  0
APPID
  2
GENIUS_GENOBJ-NBEHI-BHB_13
 70
     0
  0
APPID
  2
GENIUS_GENOBJ-F-PART_13
 70
     0
  0
APPID
  2
GENIUS_GEFSTDP_13
 70
     0
  0
APPID
  2
GENIUS_GENOBJ-N-RSSYM_13
 70
     0
  0
APPID
  2
GENIUS_GENSYMENT_13
 70
     0
  0
APPID
  2
GENIUS_GENOBJ-N-TIT_13
 70
     0
  0
APPID
  2
GENIUS_GENTITLE_13
 70
     0
  0
APPID
  2
GENIUS_GENZVEED_13
 70
     0
  0
APPID
  2
GENIUS_GENOBJ-N-LEADER_13
 70
     0
  0
APPID
  2
GENIUS_GENOBJ-N-FIL_13
 70
     0
  0
APPID
  2
GENIUS_GENOBJ-N-SEC_13
 70
     0
  0
APPID
  2
GENIUS_GENOBJ-N-CRS_13
 70
     0
  0
APPID
  2
GENIUS_GENOBJ-N-ZOO_13
 70
     0
  0
APPID
  2
GENIUS_GENZOO_13
 70
     0
  0
APPID
  2
GENIUS_GENOBJ-F-TOL_13
 70
     0
  0
APPID
  2
GENIUS_GENFIL_13
 70
     0
  0
APPID
  2
GENIUS_GENOBJ-N-CHA_13
 70
     0
  0
APPID
  2
_CALL_MAC$
 70
     0
  0
APPID
  2
ASM_BASE
 70
     0
  0
APPID
  2
ASM_EXPLO_VER_2_00
 70
     0
  0
APPID
  2
ASM_CADM_VER_12_00
 70
     0
  0
APPID
  2
ASM_BASEFORO
 70
     0
  0
APPID
  2
ASM_BASETRAVI
 70
     0
  0
APPID
  2
ASM_BASETRAVI1
 70
     0
  0
APPID
  2
ASM_GRUPPI
 70
     0
  0
APPID
  2
ASM_CADM_ALBERO
 70
     0
  0
APPID
  2
ASM_GOLE
 70
     0
  0
APPID
  2
ACAD_MLEADERVER
 70
     0
  0
APPID
  2
ACAD_EXEMPT_FROM_CAD_STANDARDS
 70
     0
  0
APPID
  2
ACAD_DSTYLE_DIMJAG
 70
     0
  0
APPID
  2
ACAD_DSTYLE_DIMTALN
 70
     0
  0
APPID
  2
ACAD_NAV_VCDISPLAY
 70
     0
  0
ENDTAB
  0
TABLE
  2
DIMSTYLE
 70
     2
  0
DIMSTYLE
  2
ISO-25
 70
     0
  3

  4

  5

  6

  7

 40
1.0
 41
2.5
 42
0.625
 43
3.75
 44
1.25
 45
0.0
 46
0.0
 47
0.0
 48
0.0
140
2.5
141
2.5
142
0.0
143
0.03937007874016
144
1.0
145
0.0
146
1.0
147
0.625
 71
     0
 72
     0
 73
     0
 74
     0
 75
     0
 76
     0
 77
     1
 78
     8
170
     0
171
     3
172
     1
173
     0
174
     0
175
     0
176
     0
177
     0
178
     0
  0
DIMSTYLE
  2
STANDARD
 70
     0
  3

  4

  5

  6

  7

 40
1.0
 41
0.18
 42
0.0625
 43
0.38
 44
0.18
 45
0.0
 46
0.0
 47
0.0
 48
0.0
140
0.18
141
0.09
142
0.0
143
25.399999999999999
144
1.0
145
0.0
146
1.0
147
0.09
 71
     0
 72
     0
 73
     1
 74
     1
 75
     0
 76
     0
 77
     0
 78
     0
170
     0
171
     2
172
     0
173
     0
174
     0
175
     0
176
     0
177
     0
178
     0
  0
ENDTAB
  0
ENDSEC
  0
SECTION
  2
BLOCKS
  0
BLOCK
  8
0
  2
$MODEL_SPACE
 70
     0
 10
0.0
 20
0.0
 30
0.0
  3
$MODEL_SPACE
  1

  0
ENDBLK
  5
21
  8
0
  0
BLOCK
 67
     1
  8
0
  2
$PAPER_SPACE
 70
     0
 10
0.0
 20
0.0
 30
0.0
  3
$PAPER_SPACE
  1

  0
ENDBLK
  5
53
 67
     1
  8
0
  0
ENDSEC
  0
SECTION
  2
ENTITIES
  0
TEXT
  5
C317
  8
0
 62
     3
 10
0.0
 20
0.0
 30
0.0
 40
10.0
  1
ST-PAH444000L
  7
STANDARD1
  0
LINE
  5
175D7
  8
0
 10
237.48821346554911
 20
180.3007102617994
 30
0.0
 11
211.0000005969778
 21
180.30033028218901
 31
0.0
  0
LINE
  5
175D8
  8
0
 10
194.82781971339131
 20
180.3000993141905
 30
0.0
 11
193.9531271392479
 21
180.30008813831961
 31
0.0
  0
LINE
  5
175D9
  8
0
 10
181.4631312200799
 20
180.2999093243852
 30
0.0
 11
180.7081284979358
 21
180.29989814851439
 31
0.0
  0
LINE
  5
175DA
  8
0
 10
180.70827192161229
 20
170.2999002346769
 30
0.0
 11
181.46327464375639
 21
170.2999095479027
 31
0.0
  0
LINE
  5
175DB
  8
0
 10
193.95326963160181
 20
170.300088361837
 30
0.0
 11
194.8279631370678
 21
170.30010140035299
 31
0.0
  0
LINE
  5
175DC
  8
0
 10
211.0000005969778
 20
170.30033236835149
 30
0.0
 11
236.70672765467319
 21
170.30069930944589
 31
0.0
  0
LINE
  5
175DD
  8
0
 10
180.7081284979358
 20
180.29989814851439
 30
0.0
 11
179.7081432351842
 21
179.29988494608551
 31
0.0
  0
LINE
  5
175DE
  8
0
 10
179.7082568565383
 20
171.2998836347833
 30
0.0
 11
180.70827192161229
 21
170.2999002346769
 31
0.0
  0
LINE
  5
175DF
  8
0
 10
236.70672765467319
 20
154.9999988684431
 30
0.0
 11
314.70670691225678
 21
154.9999988684431
 31
0.0
  0
ARC
  5
175E2
  8
0
 10
249.7067268479552
 20
175.86134998195189
 30
0.0
 40
13.00000000000006
 50
90.0
 51
180.00000315289719
  0
LINE
  5
175E3
  8
0
 10
249.70672792289409
 20
188.86134913656861
 30
0.0
 11
257.70671060774481
 21
188.86134913656861
 31
0.0
  0
ARC
  5
175E4
  8
0
 10
257.7067111905244
 20
180.8613485343495
 30
0.0
 40
8.0000014476024717
 50
359.99996743336408
 51
90.0
  0
LINE
  5
175E5
  8
0
 10
265.706711919047
 20
180.86134409997609
 30
0.0
 11
265.706711919047
 21
173.86134854052219
 31
0.0
  0
ARC
  5
175E6
  8
0
 10
275.70671137146911
 20
173.8613452772374
 30
0.0
 40
9.9999999999999911
 50
179.99998963228819
 51
269.9999896322833
  0
LINE
  5
175E7
  8
0
 10
275.70670983288443
 20
163.86134503874931
 30
0.0
 11
285.7067077467218
 21
163.8613431761041
 31
0.0
  0
ARC
  5
175E8
  8
0
 10
285.70671137146911
 20
173.86134346773031
 30
0.0
 40
9.9999999999999911
 50
269.9999896322833
 51
359.99998963228819
  0
LINE
  5
175E9
  8
0
 10
295.70671311113989
 20
173.86134108994159
 30
0.0
 11
295.70671311113989
 21
183.9897721121088
 31
0.0
  0
ARC
  5
175EA
  8
0
 10
300.70671320421519
 20
183.98977006984541
 30
0.0
 40
4.999999999999968
 50
90.0
 51
179.9999896322866
  0
LINE
  5
175EB
  8
0
 10
300.70671579334891
 20
188.98977106902751
 30
0.0
 11
301.05482181999832
 21
188.98977106902751
 31
0.0
  0
ARC
  5
175EC
  8
0
 10
301.05481919735621
 20
172.9897699438649
 30
0.0
 40
16.000000062990178
 50
59.998198673632217
 51
90.0
  0
LINE
  5
175F2
  8
0
 10
309.3199520418421
 20
178.36124031338841
 30
0.0
 11
309.3199520418421
 21
178.2746105501428
 31
0.0
  0
ARC
  5
175F3
  8
0
 10
319.31995169680272
 20
178.2746096071775
 30
0.0
 40
10.00000000000005
 50
179.99998963228819
 51
199.9999935886961
  0
LINE
  5
175F4
  8
0
 10
309.92302438709891
 20
174.8544103512541
 30
0.0
 11
314.10363456699997
 21
163.36826747749001
 31
0.0
  0
ARC
  5
175F5
  8
0
 10
304.70671070159682
 20
159.94806726420879
 30
0.0
 40
10.00000000000002
 50
359.99998963228819
 51
19.999993588690948
  0
LINE
  5
175F6
  8
0
 10
314.70671436283737
 20
159.94806541595611
 30
0.0
 11
314.70667506283701
 21
154.9999988684431
 31
0.0
  0
LINE
  5
175F7
  8
0
 10
236.70672765467319
 20
154.9999988684431
 30
0.0
 11
236.70672765467319
 21
175.8613488683477
 31
0.0
  0
CIRCLE
  5
175FB
  8
0
 10
280.6682004042807
 20
175.30132629774229
 30
0.0
 40
5.9999999999999707
  0
CIRCLE
  5
175FD
  8
0
 10
187.708200413751
 20
175.29999936627991
 30
0.0
 40
7.999999999999992
  0
ARC
  5
17600
  8
0
 10
157.16584671814709
 20
161.0524516024434
 30
0.0
 40
2.271333406910113
 50
139.45198303478941
 51
162.46971485864151
  0
LINE
  5
17601
  8
0
 10
161.2407057592645
 20
168.3297674218193
 30
0.0
 11
155.4399482021108
 21
162.52901172731069
 31
0.0
  0
ARC
  5
17602
  8
0
 10
164.88668801509399
 20
164.68378353367481
 30
0.0
 40
5.1561999999996564
 50
90.0
 51
135.00000000000739
  0
LINE
  5
17603
  8
0
 10
179.2020588228479
 20
169.83998334500939
 30
0.0
 11
164.88668835256249
 21
169.83998334500939
 31
0.0
  0
ARC
  5
17604
  8
0
 10
179.20205932770901
 20
164.68378353367481
 30
0.0
 40
5.1561999999996324
 50
58.361144353460467
 51
90.0
  0
LINE
  5
17605
  8
0
 10
185.31554891262201
 20
166.9354769447819
 30
0.0
 11
181.90681329462669
 21
169.0736240753904
 31
0.0
  0
ARC
  5
17606
  8
0
 10
187.70820041375259
 20
175.29999936628059
 30
0.0
 40
8.7000000000000153
 50
254.0369495528445
 51
83.687971615501823
  0
LINE
  5
17607
  8
0
 10
188.66470410022879
 20
183.94725909922269
 30
0.0
 11
187.3279153415933
 21
184.52676153276121
 31
0.0
  0
ARC
  5
17608
  8
0
 10
187.9625578814609
 20
187.76338013020421
 30
0.0
 40
3.2982533594516972
 50
78.90608419548461
 51
258.9060841954846
  0
LINE
  5
17609
  8
0
 10
201.4750004792586
 20
191.00000104401261
 30
0.0
 11
188.59719997737551
 21
191.00000104401261
 31
0.0
  0
ARC
  5
1760A
  8
0
 10
201.4750004137494
 20
181.4749993662806
 30
0.0
 40
9.5249999999999773
 50
0.0000000000016284
 51
90.0
  0
LINE
  5
1760B
  8
0
 10
211.0000005969778
 20
154.9999988684431
 30
0.0
 11
211.0000005969778
 21
181.47499999497089
 31
0.0
  0
LINE
  5
1760C
  8
0
 10
154.99999886844299
 20
161.73659963998941
 30
0.0
 11
154.99999886844299
 21
154.9999988684431
 31
0.0
  0
LINE
  5
1760D
  8
0
 10
154.99999886844299
 20
154.9999988684431
 30
0.0
 11
211.0000005969778
 21
154.9999988684431
 31
0.0
  0
CIRCLE
  5
17610
  8
0
 10
249.66819928654081
 20
175.86134813375381
 30
0.0
 40
5.0000000000000044
  0
CIRCLE
  5
17611
  8
0
 10
249.66819928654081
 20
175.86134813375381
 30
0.0
 40
3.9999999999999569
  0
LINE
  5
17613
  8
0
 10
351.63810989353811
 20
182.91241070721301
 30
0.0
 11
351.67476675007492
 21
182.91241070721301
 31
0.0
  0
ARC
  5
17614
  8
0
 10
351.63810988819711
 20
172.9124091507791
 30
0.0
 40
10.000000000000631
 50
88.668897811368353
 51
121.3286922215497
  0
LINE
  5
17615
  8
0
 10
326.4588206121698
 20
169.29276427719739
 30
0.0
 11
346.4386477181688
 21
181.45439541433009
 31
0.0
  0
ARC
  5
17616
  8
0
 10
316.05988125462909
 20
186.3767326410148
 30
0.0
 40
19.999996767842049
 50
270.00000074887578
 51
301.32869222154972
  0
LINE
  5
17617
  8
0
 10
313.00864508841192
 20
166.3767355540767
 30
0.0
 11
316.05988136027008
 21
166.3767355540767
 31
0.0
  0
POLYLINE
  5
1763D
  8
0
 66
     1
 10
0.0
 20
0.0
 30
0.0
 70
   128
  0
VERTEX
  5
18D91
  8
0
 10
180.7081284979358
 20
180.29989814851439
 30
0.0
  0
VERTEX
  5
18D92
  8
0
 10
180.7081284979358
 20
180.29144173953679
 30
0.0
  0
VERTEX
  5
18D93
  8
0
 10
180.7081322232261
 20
180.08984765503561
 30
0.0
  0
VERTEX
  5
18D94
  8
0
 10
180.70813781116149
 20
179.6300276229158
 30
0.0
  0
VERTEX
  5
18D95
  8
0
 10
180.70814526174209
 20
179.17288234923041
 30
0.0
  0
SEQEND
  5
18D96
  8
0
  0
POLYLINE
  5
1763E
  8
0
 66
     1
 10
0.0
 20
0.0
 30
0.0
 70
   128
  0
VERTEX
  5
18D97
  8
0
 10
180.70825515780589
 20
171.42691603396091
 30
0.0
  0
VERTEX
  5
18D98
  8
0
 10
180.70826260838649
 20
170.9697707602754
 30
0.0
  0
VERTEX
  5
18D99
  8
0
 10
180.708268196322
 20
170.5099507281557
 30
0.0
  0
VERTEX
  5
18D9A
  8
0
 10
180.70827192161229
 20
170.30835850629961
 30
0.0
  0
VERTEX
  5
18D9B
  8
0
 10
180.70827192161229
 20
170.2999002346769
 30
0.0
  0
SEQEND
  5
18D9C
  8
0
  0
POLYLINE
  5
1763F
  8
0
 66
     1
 10
0.0
 20
0.0
 30
0.0
 70
   128
  0
VERTEX
  5
18D9D
  8
0
 10
179.7081432351842
 20
179.29988494608551
 30
0.0
  0
VERTEX
  5
18D9E
  8
0
 10
179.7081450978294
 20
179.16358774993569
 30
0.0
  0
VERTEX
  5
18D9F
  8
0
 10
179.70815068576479
 20
178.7639870354906
 30
0.0
  0
VERTEX
  5
18DA0
  8
0
 10
179.7081599989906
 20
178.1283109495416
 30
0.0
  0
VERTEX
  5
18DA1
  8
0
 10
179.70817117486149
 20
177.29988461825999
 30
0.0
  0
VERTEX
  5
18DA2
  8
0
 10
179.70818607602271
 20
176.33516109082851
 30
0.0
  0
VERTEX
  5
18DA3
  8
0
 10
179.70820097718379
 20
175.29988429043439
 30
0.0
  0
VERTEX
  5
18DA4
  8
0
 10
179.70821587834499
 20
174.26460749004039
 30
0.0
  0
VERTEX
  5
18DA5
  8
0
 10
179.70822891686109
 20
173.2998839626089
 30
0.0
  0
VERTEX
  5
18DA6
  8
0
 10
179.70824009273201
 20
172.47145763132721
 30
0.0
  0
VERTEX
  5
18DA7
  8
0
 10
179.7082494059577
 20
171.83578527066859
 30
0.0
  0
VERTEX
  5
18DA8
  8
0
 10
179.70825499389321
 20
171.43618083093321
 30
0.0
  0
VERTEX
  5
18DA9
  8
0
 10
179.7082568565383
 20
171.2998836347833
 30
0.0
  0
SEQEND
  5
18DAA
  8
0
  0
LINE
  5
17649
  8
0
 10
179.70820097718379
 20
270.9939738307794
 30
0.0
 11
180.20820012781769
 21
270.49397386523827
 31
0.0
  0
LINE
  5
1764A
  8
0
 10
195.20820072386411
 20
270.49397386523827
 30
0.0
 11
195.7082008058205
 21
270.9939738307794
 31
0.0
  0
LINE
  5
1764C
  8
0
 10
195.70820080582061
 20
300.49397377676269
 30
0.0
 11
195.7082008058205
 21
304.99397544569268
 31
0.0
  0
LINE
  5
1764D
  8
0
 10
195.7082008058205
 20
270.9939738307794
 30
0.0
 11
195.70820080582061
 21
275.4939734042336
 31
0.0
  0
LINE
  5
1764E
  8
0
 10
195.70820080582061
 20
279.49397312856217
 30
0.0
 11
195.7082008058203
 21
283.24397420889682
 31
0.0
  0
LINE
  5
1764F
  8
0
 10
179.70820097718379
 20
283.2439779341866
 30
0.0
 11
179.70820097718379
 21
270.9939738307794
 31
0.0
  0
LINE
  5
17650
  8
0
 10
179.70820097718379
 20
304.99397544569268
 30
0.0
 11
179.70820097718379
 21
292.74395620829358
 31
0.0
  0
LINE
  5
17651
  8
0
 10
195.7082008058205
 20
304.99397544569268
 30
0.0
 11
195.20820072386411
 21
305.4939727336814
 31
0.0
  0
LINE
  5
17652
  8
0
 10
180.20820012781769
 20
305.4939727336814
 30
0.0
 11
179.70820097718379
 21
304.99397544569268
 31
0.0
  0
LINE
  5
17654
  8
0
 10
184.6643048385159
 20
279.49397312856217
 30
0.0
 11
184.6643048385159
 21
275.4939734042336
 31
0.0
  0
LINE
  5
1766C
  8
0
 10
259.66821006033558
 20
292.99397347873952
 30
0.0
 11
195.7082008058205
 21
292.99397347873941
 31
0.0
  0
LINE
  5
1766D
  8
0
 10
195.7082008058205
 20
282.99397370225688
 30
0.0
 11
259.66821006033558
 21
282.99397370225688
 31
0.0
  0
LINE
  5
1766E
  8
0
 10
179.97888802085069
 20
292.26466222113868
 30
0.0
 11
179.70820097718379
 21
291.99397331482669
 31
0.0
  0
LINE
  5
1766F
  8
0
 10
179.70820097718379
 20
283.9939738661696
 30
0.0
 11
179.97807031963021
 21
283.7241035924007
 31
0.0
  0
LINE
  5
176B0
  8
0
 10
179.70820097718379
 20
270.9939738307794
 30
0.0
 11
195.7082008058205
 21
270.9939738307794
 31
0.0
  0
LINE
  5
176B1
  8
0
 10
180.20820012781769
 20
270.49397386523827
 30
0.0
 11
195.20820072386411
 21
270.49397386523827
 31
0.0
  0
ARC
  5
176B2
  8
0
 10
169.034945269189
 20
286.28458422414121
 30
0.0
 40
12.475659206745931
 50
20.662099760780858
 51
31.181980357438078
  0
ARC
  5
176B3
  8
0
 10
169.35184522363301
 20
289.54604510369609
 30
0.0
 40
12.12312674425149
 50
328.6785650856113
 51
339.51213665727079
  0
LINE
  5
176B4
  8
0
 10
195.7082008058205
 20
304.99397544569268
 30
0.0
 11
179.70820097718379
 21
304.99397544569268
 31
0.0
  0
LINE
  5
176B5
  8
0
 10
195.20820072386411
 20
305.4939727336814
 30
0.0
 11
180.20820012781769
 21
305.4939727336814
 31
0.0
  0
LINE
  5
176B9
  8
0
 10
188.5971999773756
 20
275.4939734042336
 30
0.0
 11
188.5971999773756
 21
279.49397312856217
 31
0.0
  0
LINE
  5
176BA
  8
0
 10
184.6643048385159
 20
275.4939734042336
 30
0.0
 11
211.00000059697791
 21
275.49397340423383
 31
0.0
  0
LINE
  5
176BB
  8
0
 10
184.6643048385159
 20
279.49397312856217
 30
0.0
 11
211.00000059697791
 21
279.49397312856217
 31
0.0
  0
LINE
  5
176C6
  8
0
 10
179.70820097718379
 20
300.49397377676269
 30
0.0
 11
154.9999988684429
 21
300.49397377676269
 31
0.0
  0
LINE
  5
176C7
  8
0
 10
179.70820097718379
 20
296.49397312111159
 30
0.0
 11
154.9999988684429
 21
296.49397312111159
 31
0.0
  0
LINE
  5
176CE
  8
0
 10
154.9999988684429
 20
275.4939734042336
 30
0.0
 11
179.70820097718379
 21
275.4939734042336
 31
0.0
  0
LINE
  5
176CF
  8
0
 10
154.9999988684429
 20
279.49397312856217
 30
0.0
 11
179.70820097718379
 21
279.49397312856217
 31
0.0
  0
LINE
  5
176D8
  8
0
 10
154.99999886844299
 20
300.49397377676269
 30
0.0
 11
154.99999886844299
 21
275.4939734042336
 31
0.0
  0
LINE
  5
176E1
  8
0
 10
211.0000005969776
 20
275.49397340423383
 30
0.0
 11
211.000000596978
 21
282.99397370225688
 31
0.0
  0
ARC
  5
176E4
  8
0
 10
176.00000041374929
 20
287.99397359049817
 30
0.0
 40
4.150000000000027
 50
26.67905001114443
 51
333.32011733131333
  0
LINE
  5
176E7
  8
0
 10
211.00000059697791
 20
281.0395970047166
 30
0.0
 11
211.0000005969778
 21
275.49397340423383
 31
0.0
  0
LINE
  5
1770E
  8
0
 10
414.20049965737059
 20
300.99567422090968
 30
0.0
 11
353.37039828658931
 21
300.9956295174261
 31
0.0
  0
LINE
  5
1770F
  8
0
 10
353.3704131877505
 20
274.99562921381488
 30
0.0
 11
414.20051455853178
 21
274.99567368446787
 31
0.0
  0
ARC
  5
17710
  8
0
 10
353.37040170111987
 20
299.49562927781972
 30
0.0
 40
1.5000000000012379
 50
90.000041687137099
 51
180.00009568091079
  0
LINE
  5
17711
  8
0
 10
351.87040269733302
 20
299.4956283402343
 30
0.0
 11
351.87041759849421
 21
276.49562829553088
 31
0.0
  0
ARC
  5
17712
  8
0
 10
353.37041843541311
 20
276.49562927782591
 30
0.0
 40
1.5000000000012379
 50
180.000095681217
 51
270.00004168715009
  0
LINE
  5
17713
  8
0
 10
415.70051014778812
 20
276.49567486165961
 30
0.0
 11
415.70049524662687
 21
299.49567490636309
 31
0.0
  0
ARC
  5
17714
  8
0
 10
414.20049808667369
 20
299.4956736819646
 30
0.0
 40
1.5000000000014091
 50
0.0000956809287624
 51
90.000041687137099
  0
ARC
  5
17715
  8
0
 10
414.20051482096687
 20
276.49567368197057
 30
0.0
 40
1.5000000000011811
 50
270.00004168713713
 51
0.0000956809108495
  0
ARC
  5
17716
  8
0
 10
353.37039493084751
 20
299.49562927781972
 30
0.0
 40
1.500000000001352
 50
90.000041687150144
 51
180.00009568086679
  0
ARC
  5
17717
  8
0
 10
353.37041166514058
 20
276.49562927782569
 30
0.0
 40
1.500000000001295
 50
180.00009568091079
 51
270.00004168715009
  0
LINE
  5
17719
  8
0
 10
351.87038779617183
 20
299.46562857746079
 30
0.0
 11
351.87038779617183
 21
299.4956283402343
 31
0.0
  0
POLYLINE
  5
17723
  8
0
 66
     1
 10
0.0
 20
0.0
 30
0.0
 70
   128
  0
VERTEX
  5
18DAB
  8
0
 10
180.70814068430059
 20
290.68669524539962
 30
0.0
  0
VERTEX
  5
18DAC
  8
0
 10
180.70813408587119
 20
289.97437237209579
 30
0.0
  0
VERTEX
  5
18DAD
  8
0
 10
180.7081303605809
 20
288.86221489316722
 30
0.0
  0
VERTEX
  5
18DAE
  8
0
 10
180.7081284979358
 20
287.703250072961
 30
0.0
  0
VERTEX
  5
18DAF
  8
0
 10
180.7081322232261
 20
286.55995754904052
 30
0.0
  0
VERTEX
  5
18DB0
  8
0
 10
180.70813781116149
 20
285.49397411203881
 30
0.0
  0
VERTEX
  5
18DB1
  8
0
 10
180.7081399613852
 20
285.30284208162777
 30
0.0
  0
SEQEND
  5
18DB2
  8
0
  0
POLYLINE
  5
17724
  8
0
 66
     1
 10
0.0
 20
0.0
 30
0.0
 70
   128
  0
VERTEX
  5
18DB3
  8
0
 10
179.70820097718379
 20
291.99397331482669
 30
0.0
  0
VERTEX
  5
18DB4
  8
0
 10
179.70818607602271
 20
291.85767798132201
 30
0.0
  0
VERTEX
  5
18DB5
  8
0
 10
179.70817117486149
 20
291.45807540423169
 30
0.0
  0
VERTEX
  5
18DB6
  8
0
 10
179.7081599989906
 20
290.8224011809279
 30
0.0
  0
VERTEX
  5
18DB7
  8
0
 10
179.70815068576479
 20
289.99397298700109
 30
0.0
  0
VERTEX
  5
18DB8
  8
0
 10
179.7081450978294
 20
289.0292494595696
 30
0.0
  0
VERTEX
  5
18DB9
  8
0
 10
179.7081432351842
 20
287.99397452182069
 30
0.0
  0
VERTEX
  5
18DBA
  8
0
 10
179.7081450978294
 20
286.95869772142669
 30
0.0
  0
VERTEX
  5
18DBB
  8
0
 10
179.70815068576479
 20
285.9939741939952
 30
0.0
  0
VERTEX
  5
18DBC
  8
0
 10
179.7081599989906
 20
285.16554693139091
 30
0.0
  0
VERTEX
  5
18DBD
  8
0
 10
179.70817117486149
 20
284.52987270808711
 30
0.0
  0
VERTEX
  5
18DBE
  8
0
 10
179.70818607602271
 20
284.13027013099691
 30
0.0
  0
VERTEX
  5
18DBF
  8
0
 10
179.70820097718379
 20
283.9939738661696
 30
0.0
  0
SEQEND
  5
18DC0
  8
0
  0
LINE
  5
17725
  8
0
 10
94.499998902902007
 20
183.30000108573589
 30
0.0
 11
60.499997287988663
 21
183.30000108573589
 31
0.0
  0
LINE
  5
17726
  8
0
 10
60.499997287988663
 20
167.29999846313149
 30
0.0
 11
64.999997909180806
 21
167.29999846313149
 31
0.0
  0
LINE
  5
17727
  8
0
 10
68.999998564831913
 20
167.29999846313149
 30
0.0
 11
85.999998557381332
 21
167.29999846313149
 31
0.0
  0
LINE
  5
17728
  8
0
 10
89.999998281709836
 20
167.29999846313149
 30
0.0
 11
94.499998902902007
 21
167.29999846313149
 31
0.0
  0
LINE
  5
17729
  8
0
 10
60.499997287988663
 20
183.30000108573589
 30
0.0
 11
60.0
 21
182.8000000724569
 31
0.0
  0
LINE
  5
1772A
  8
0
 10
60.0
 20
167.79999947641051
 30
0.0
 11
60.499997287988663
 21
167.29999846313149
 31
0.0
  0
LINE
  5
1772B
  8
0
 10
94.499998902902007
 20
167.29999846313149
 30
0.0
 11
94.999998868443072
 21
167.79999947641051
 31
0.0
  0
LINE
  5
1772C
  8
0
 10
94.999998868443072
 20
182.8000000724569
 30
0.0
 11
94.499998902902007
 21
183.30000108573589
 31
0.0
  0
LINE
  5
1772D
  8
0
 10
68.999998564831913
 20
191.06163224671039
 30
0.0
 11
64.999997909180806
 21
191.06163224671039
 31
0.0
  0
LINE
  5
1772E
  8
0
 10
89.999998281709836
 20
191.06163224671039
 30
0.0
 11
85.999998557381332
 21
191.06163224671039
 31
0.0
  0
LINE
  5
17732
  8
0
 10
64.922284162603304
 20
192.5482428679243
 30
0.0
 11
64.922241321764886
 21
192.54819816444069
 31
0.0
  0
LINE
  5
17734
  8
0
 10
61.998647416698979
 20
188.98976734373721
 30
0.0
 11
61.998647416698979
 21
183.30000108573589
 31
0.0
  0
LINE
  5
17737
  8
0
 10
93.001347745525891
 20
159.01000006590041
 30
0.0
 11
93.001347745525891
 21
167.29999846313149
 31
0.0
  0
ARC
  5
17738
  8
0
 10
88.991347738178334
 20
159.0099993662806
 30
0.0
 40
4.0100000000000193
 50
270.0
 51
0.0
  0
LINE
  5
1773A
  8
0
 10
66.008648245838117
 20
154.99999936628041
 30
0.0
 11
88.991347945052425
 21
154.9999988684431
 31
0.0
  0
ARC
  5
1773C
  8
0
 10
66.008648355036144
 20
159.0099993662804
 30
0.0
 40
4.00999999999999
 50
180.00000000000159
 51
270.0
  0
LINE
  5
1773D
  8
0
 10
61.998647416698979
 20
167.29999846313149
 30
0.0
 11
61.998647416698979
 21
159.01000006590041
 31
0.0
  0
LINE
  5
1773F
  8
0
 10
93.001347745525891
 20
183.30000108573589
 30
0.0
 11
93.001347745525891
 21
188.98977106902751
 31
0.0
  0
LINE
  5
17740
  8
0
 10
93.001347745525891
 20
188.98977106902751
 30
0.0
 11
89.999998281709836
 21
188.98977106902751
 31
0.0
  0
LINE
  5
17742
  8
0
 10
64.999997909180806
 20
188.98976734373721
 30
0.0
 11
61.998647416698979
 21
188.98976734373721
 31
0.0
  0
LINE
  5
17747
  8
0
 10
94.499998902902007
 20
167.29999846313149
 30
0.0
 11
94.499998902902007
 21
183.30000108573589
 31
0.0
  0
LINE
  5
17748
  8
0
 10
60.499997287988663
 20
183.30000108573589
 30
0.0
 11
60.499997287988663
 21
167.29999846313149
 31
0.0
  0
LINE
  5
17749
  8
0
 10
60.0
 20
182.8000000724569
 30
0.0
 11
60.0
 21
167.79999947641051
 31
0.0
  0
LINE
  5
1774B
  8
0
 10
94.999998868443072
 20
167.79999947641051
 30
0.0
 11
94.999998868442958
 21
182.8000000724569
 31
0.0
  0
LINE
  5
1774F
  8
0
 10
64.999997909180806
 20
161.73659963998941
 30
0.0
 11
68.999998564831913
 21
161.73659963998941
 31
0.0
  0
ARC
  5
17754
  8
0
 10
85.263398168774856
 20
159.73659936628059
 30
0.0
 40
4.736600000000009
 50
270.0
 51
0.0
  0
ARC
  5
17756
  8
0
 10
69.73659816877489
 20
159.73659936628059
 30
0.0
 40
4.736600000000009
 50
180.0
 51
270.0
  0
ARC
  5
17757
  8
0
 10
69.73659816877489
 20
159.73659936628059
 30
0.0
 40
0.73660000000001
 50
180.0
 51
270.0
  0
LINE
  5
17758
  8
0
 10
85.263397837989032
 20
158.99999952409419
 30
0.0
 11
69.736598352901623
 21
158.99999952409419
 31
0.0
  0
ARC
  5
17759
  8
0
 10
85.263398168774856
 20
159.73659936628059
 30
0.0
 40
0.7365999999999531
 50
270.0
 51
0.0
  0
LINE
  5
1775A
  8
0
 10
89.999998281709836
 20
169.83998334500939
 30
0.0
 11
89.999998281709836
 21
159.73659931216389
 31
0.0
  0
LINE
  5
1775B
  8
0
 10
85.999998557381332
 20
159.73659931216389
 30
0.0
 11
85.999998557381332
 21
169.83998334500939
 31
0.0
  0
LINE
  5
1775C
  8
0
 10
68.999998564831913
 20
169.83998334500939
 30
0.0
 11
68.999998564831913
 21
159.73659931216389
 31
0.0
  0
LINE
  5
1775D
  8
0
 10
64.999997909180806
 20
159.73659931216389
 30
0.0
 11
64.999997909180934
 21
169.83998334500939
 31
0.0
  0
LINE
  5
17762
  8
0
 10
68.999998564831913
 20
169.83998334500939
 30
0.0
 11
64.999997909180806
 21
169.83998334500939
 31
0.0
  0
LINE
  5
17765
  8
0
 10
89.999998281709836
 20
169.83998334500939
 30
0.0
 11
85.999998557381332
 21
169.83998334500939
 31
0.0
  0
LINE
  5
1776F
  8
0
 10
68.999998564831913
 20
191.0616322467103
 30
0.0
 11
68.999998564831913
 21
183.30000108573589
 31
0.0
  0
LINE
  5
17770
  8
0
 10
64.999997909180806
 20
183.30000108573589
 30
0.0
 11
64.999997909180806
 21
191.0616322467103
 31
0.0
  0
LINE
  5
17772
  8
0
 10
89.999998281709836
 20
191.06163224671039
 30
0.0
 11
89.999998281709836
 21
183.30000108573589
 31
0.0
  0
LINE
  5
17773
  8
0
 10
85.999998557381332
 20
183.30000108573589
 30
0.0
 11
85.999998557381332
 21
191.06163224671039
 31
0.0
  0
LINE
  5
1778D
  8
0
 10
64.499998292885721
 20
191.5049157151953
 30
0.0
 11
64.499998292885721
 21
188.98976734373721
 31
0.0
  0
LINE
  5
1778E
  8
0
 10
90.49999859649688
 20
191.5049157151953
 30
0.0
 11
90.49999859649688
 21
188.98977106902751
 31
0.0
  0
LINE
  5
1778F
  8
0
 10
85.999998557381332
 20
191.00491470191631
 30
0.0
 11
80.116513706184534
 21
191.00491470191631
 31
0.0
  0
ARC
  5
17790
  8
0
 10
65.999998532492214
 20
191.50491436858471
 30
0.0
 40
1.5000000000012961
 50
90.0
 51
179.99991662570781
  0
LINE
  5
17791
  8
0
 10
88.999998583458364
 20
193.0049150297418
 30
0.0
 11
65.999997607432306
 21
193.0049150297418
 31
0.0
  0
LINE
  5
17792
  8
0
 10
68.999998564831799
 20
191.0048699984327
 30
0.0
 11
74.883426075437825
 21
191.0048699984327
 31
0.0
  0
ARC
  5
17793
  8
0
 10
88.999998532486075
 20
191.50491436857229
 30
0.0
 40
1.500000000001239
 50
359.99991662570778
 51
90.0
  0
LINE
  5
17794
  8
0
 10
64.499953589402125
 20
188.98976734373721
 30
0.0
 11
64.499953589402125
 21
191.50486728642139
 31
0.0
  0
ARC
  5
17795
  8
0
 10
65.999954128347326
 20
191.5048685009842
 30
0.0
 40
1.5000000000012179
 50
135.9287786693813
 51
179.99991662570781
  0
LINE
  5
1779C
  8
0
 10
476.2048477493226
 20
183.30000108573589
 30
0.0
 11
475.70484778378147
 21
182.8000000724569
 31
0.0
  0
LINE
  5
1779D
  8
0
 10
475.70484778378147
 20
167.79999947641051
 30
0.0
 11
476.2048477493226
 21
167.29999846313149
 31
0.0
  0
LINE
  5
1779E
  8
0
 10
476.2048477493226
 20
167.29999846313149
 30
0.0
 11
477.70349641330557
 21
167.29999846313149
 31
0.0
  0
LINE
  5
177A0
  8
0
 10
508.70619674213208
 20
167.29999846313149
 30
0.0
 11
510.20484936423588
 21
167.29999846313149
 31
0.0
  0
LINE
  5
177A1
  8
0
 10
510.20484936423588
 20
183.30000108573589
 30
0.0
 11
508.70619674213208
 21
183.30000108573589
 31
0.0
  0
LINE
  5
177A2
  8
0
 10
477.70349641330557
 20
183.30000108573589
 30
0.0
 11
476.2048477493226
 21
183.30000108573589
 31
0.0
  0
LINE
  5
177A3
  8
0
 10
510.20484936423588
 20
167.29999846313149
 30
0.0
 11
510.7048466522246
 21
167.79999947641051
 31
0.0
  0
LINE
  5
177A4
  8
0
 10
510.7048466522246
 20
182.8000000724569
 30
0.0
 11
510.20484936423588
 21
183.30000108573589
 31
0.0
  0
ARC
  5
177A6
  8
0
 10
509.50309794636308
 20
180.36134813375119
 30
0.0
 40
0.5000000000001137
 50
0.0
 51
90.0
  0
ARC
  5
177A7
  8
0
 10
509.5030979463628
 20
171.36134813375119
 30
0.0
 40
0.5000000000001137
 50
270.0
 51
0.0
  0
LINE
  5
177A8
  8
0
 10
510.00309841008851
 20
171.36134719941771
 30
0.0
 11
510.00309841008851
 21
180.36134681198749
 31
0.0
  0
ARC
  5
177A9
  8
0
 10
476.90659335485628
 20
171.36134813375381
 30
0.0
 40
0.5000000000001137
 50
180.0
 51
270.0
  0
LINE
  5
177AB
  8
0
 10
476.40659334836522
 20
178.38211628918921
 30
0.0
 11
476.40659334836522
 21
171.36134719941771
 31
0.0
  0
LINE
  5
177AE
  8
0
 10
476.90659334301012
 20
171.86134821269661
 30
0.0
 11
477.7365933475084
 21
171.86134821269661
 31
0.0
  0
LINE
  5
177B1
  8
0
 10
508.73929367633531
 20
171.86134821269661
 30
0.0
 11
509.50309739680949
 21
171.86134821269661
 31
0.0
  0
LINE
  5
177B2
  8
0
 10
509.50309739680949
 20
179.8613495239988
 30
0.0
 11
508.73929367633531
 21
179.8613495239988
 31
0.0
  0
LINE
  5
177B3
  8
0
 10
505.78255911357689
 20
192.54819816444069
 30
0.0
 11
505.78251627273852
 21
192.5482428679243
 31
0.0
  0
LINE
  5
177B4
  8
0
 10
480.67387060262263
 20
178.8629195699468
 30
0.0
 11
480.67387432791293
 21
178.8629158446565
 31
0.0
  0
ARC
  5
177B8
  8
0
 10
481.7048182048174
 20
179.95046443307589
 30
0.0
 40
1.5000000000011331
 50
179.99991662570781
 51
270.00000000002598
  0
ARC
  5
177B9
  8
0
 10
504.70481820481149
 20
179.95046443308831
 30
0.0
 40
1.5000000000011331
 50
270.00000000002598
 51
0.0000833742922015
  0
LINE
  5
177BA
  8
0
 10
481.70481815002847
 20
178.45046287868169
 30
0.0
 11
504.70481772907073
 21
178.45046287868169
 31
0.0
  0
ARC
  5
177BE
  8
0
 10
481.71349642065292
 20
159.0099993662806
 30
0.0
 40
4.0100000000000309
 50
179.99999183691151
 51
270.0
  0
LINE
  5
177BF
  8
0
 10
477.70349641330529
 20
188.98977106902751
 30
0.0
 11
477.70349641330529
 21
181.36115869817391
 31
0.0
  0
LINE
  5
177C2
  8
0
 10
481.7134962137788
 20
158.99999952409419
 30
0.0
 11
504.69619554467488
 21
158.99999952409419
 31
0.0
  0
ARC
  5
177C4
  8
0
 10
504.69461435974699
 20
159.0099993662804
 30
0.0
 40
4.0099999999999731
 50
270.0
 51
358.2352255115124
  0
LINE
  5
177C5
  8
0
 10
481.7134962137788
 20
154.9999988684431
 30
0.0
 11
504.69461444661522
 21
154.99999936628041
 31
0.0
  0
LINE
  5
177C6
  8
0
 10
508.70271234792961
 20
158.8865063821618
 30
0.0
 11
508.70461529808409
 21
188.98976734373721
 31
0.0
  0
LINE
  5
177D0
  8
0
 10
508.70619674213219
 20
181.36133766267449
 30
0.0
 11
506.20484413055721
 21
181.36133766267449
 31
0.0
  0
LINE
  5
177D6
  8
0
 10
508.70461529808409
 20
188.98976734373721
 30
0.0
 11
506.20484617265748
 21
188.98976734373721
 31
0.0
  0
LINE
  5
177D8
  8
0
 10
480.17000203952188
 20
188.98977106902751
 30
0.0
 11
477.70349641330529
 21
188.98977106902751
 31
0.0
  0
LINE
  5
177DD
  8
0
 10
504.7061960864811
 20
178.2746105501428
 30
0.0
 11
508.70619674213219
 21
178.2746105501428
 31
0.0
  0
LINE
  5
177E1
  8
0
 10
504.70619608648138
 20
159.0098450856664
 30
0.0
 11
504.7061960864811
 21
178.45090246293691
 31
0.0
  0
LINE
  5
177E3
  8
0
 10
476.20484774932243
 20
183.30000108573589
 30
0.0
 11
476.20484774932243
 21
181.70299247680271
 31
0.0
  0
LINE
  5
177E5
  8
0
 10
475.70484778378147
 20
182.8000000724569
 30
0.0
 11
475.70484778378147
 21
182.5312416038897
 31
0.0
  0
LINE
  5
177E7
  8
0
 10
510.20484936423588
 20
167.29999846313149
 30
0.0
 11
510.20484936423588
 21
183.30000108573589
 31
0.0
  0
LINE
  5
177E9
  8
0
 10
510.7048466522246
 20
167.79999947641051
 30
0.0
 11
510.7048466522246
 21
182.80000007245701
 31
0.0
  0
LINE
  5
177F0
  8
0
 10
509.50309739680949
 20
180.86134782526639
 30
0.0
 11
509.50309739680949
 21
170.86134991142899
 31
0.0
  0
LINE
  5
177F1
  8
0
 10
476.90659334301012
 20
170.86134991142899
 30
0.0
 11
476.90659334301012
 21
178.36115634379041
 31
0.0
  0
LINE
  5
177F3
  8
0
 10
481.70349660329509
 20
159.00993892324601
 30
0.0
 11
481.70349660329509
 21
178.45046287868169
 31
0.0
  0
LINE
  5
17807
  8
0
 10
506.20484375340629
 20
179.95246045905961
 30
0.0
 11
506.2048468459397
 21
191.50486728642139
 31
0.0
  0
ARC
  5
17809
  8
0
 10
504.70484630699463
 20
191.5048685009842
 30
0.0
 40
1.5000000000013529
 50
0.0000833742922015
 51
90.0
  0
LINE
  5
17817
  8
0
 10
480.2048019028561
 20
191.50491218583841
 30
0.0
 11
480.20481820484719
 21
179.95045479140299
 31
0.0
  0
ARC
  5
17819
  8
0
 10
481.70480190285571
 20
191.50491436857229
 30
0.0
 40
1.500000000001247
 50
90.0
 51
180.00008337429381
  0
LINE
  5
1781B
  8
0
 10
481.70480185188347
 20
193.0049150297418
 30
0.0
 11
504.70480282790948
 21
193.0049150297418
 31
0.0
  0
LINE
  5
1781D
  8
0
 10
485.27984793297941
 20
167.87646105978641
 30
0.0
 11
485.77984754927451
 21
167.3764619091526
 31
0.0
  0
LINE
  5
17821
  8
0
 10
485.77984754927451
 20
167.3764619091526
 30
0.0
 11
500.62984746880818
 21
167.3764619091526
 31
0.0
  0
LINE
  5
17823
  8
0
 10
500.62984746880818
 20
167.3764619091526
 30
0.0
 11
501.1298484820872
 21
167.87646105978641
 31
0.0
  0
LINE
  5
17824
  8
0
 10
501.1298484820872
 20
167.87646105978641
 30
0.0
 11
485.27984793297969
 21
167.87669724272089
 31
0.0
  0
LINE
  5
17825
  8
0
 10
500.62984746880818
 20
167.3764619091526
 30
0.0
 11
500.62984746880818
 21
178.45046287868169
 31
0.0
  0
LINE
  5
17826
  8
0
 10
501.1298484820872
 20
167.87646105978641
 30
0.0
 11
501.1298484820872
 21
178.45046287868169
 31
0.0
  0
LINE
  5
17827
  8
0
 10
485.27984793297941
 20
178.45046287868169
 30
0.0
 11
485.27984793297941
 21
167.87646105978641
 31
0.0
  0
LINE
  5
17828
  8
0
 10
485.77984754927451
 20
178.45046287868169
 30
0.0
 11
485.77984754927451
 21
167.3764619091526
 31
0.0
  0
LINE
  5
1782A
  8
0
 10
500.62984746880818
 20
167.37618996296081
 30
0.0
 11
485.77984754927451
 21
167.37618996296081
 31
0.0
  0
LINE
  5
1782B
  8
0
 10
485.77984754927451
 20
167.37618996296081
 30
0.0
 11
485.77984754927451
 21
167.3764619091526
 31
0.0
  0
LINE
  5
1782C
  8
0
 10
485.77984754927451
 20
167.37618996296081
 30
0.0
 11
485.27984793297941
 21
167.8761909762398
 31
0.0
  0
LINE
  5
1782E
  8
0
 10
501.1298484820872
 20
167.8761909762398
 30
0.0
 11
500.62984746880818
 21
167.37618996296081
 31
0.0
  0
LINE
  5
1782F
  8
0
 10
501.1298484820872
 20
167.8761909762398
 30
0.0
 11
501.1298484820872
 21
167.87646105978641
 31
0.0
  0
LINE
  5
17831
  8
0
 10
179.70820097718379
 20
60.499997287988691
 30
0.0
 11
180.20820012781769
 21
60.000000000000028
 31
0.0
  0
LINE
  5
17832
  8
0
 10
195.20820072386411
 20
60.000000000000028
 30
0.0
 11
195.7082008058205
 21
60.499997287988691
 31
0.0
  0
LINE
  5
17833
  8
0
 10
179.70820097718399
 20
64.999998956918716
 30
0.0
 11
179.70820097718379
 21
60.499997287988691
 31
0.0
  0
LINE
  5
17834
  8
0
 10
179.70820097718379
 20
94.499998902902036
 30
0.0
 11
179.70820097718399
 21
89.999999329447718
 31
0.0
  0
LINE
  5
17835
  8
0
 10
195.7082008058205
 20
89.999999329447718
 30
0.0
 11
195.7082008058205
 21
94.499998902902036
 31
0.0
  0
LINE
  5
17836
  8
0
 10
195.7082008058205
 20
60.499997287988691
 30
0.0
 11
195.70820080582061
 21
64.999998956918716
 31
0.0
  0
LINE
  5
17837
  8
0
 10
195.7082008058205
 20
94.499998902902036
 30
0.0
 11
195.20820072386411
 21
94.9999988684431
 31
0.0
  0
LINE
  5
17838
  8
0
 10
180.20820012781769
 20
94.9999988684431
 30
0.0
 11
179.70820097718379
 21
94.499998902902036
 31
0.0
  0
ARC
  5
17839
  8
0
 10
254.1682082769787
 20
61.234844708742088
 30
0.0
 40
0.5
 50
270.0
 51
0.0
  0
ARC
  5
1783A
  8
0
 10
245.1682082769787
 20
61.234844708742088
 30
0.0
 40
0.5
 50
180.0
 51
270.0
  0
LINE
  5
1783B
  8
0
 10
245.16820675227791
 20
60.734844245016568
 30
0.0
 11
254.16821009013799
 21
60.734844245016568
 31
0.0
  0
ARC
  5
1783C
  8
0
 10
245.16819928654081
 20
93.765154034858909
 30
0.0
 40
0.500000000000057
 50
90.0
 51
180.0
  0
ARC
  5
1783D
  8
0
 10
254.16819928654081
 20
93.765154034858909
 30
0.0
 40
0.5
 50
0.0
 51
90.0
  0
LINE
  5
1783E
  8
0
 10
254.16819891426709
 20
94.265154041349874
 30
0.0
 11
245.16819930169731
 21
94.265154041349874
 31
0.0
  0
LINE
  5
1783F
  8
0
 10
253.6681979009883
 20
93.001349307596698
 30
0.0
 11
253.66819790098819
 21
93.765154046704993
 31
0.0
  0
LINE
  5
17840
  8
0
 10
245.6682003149763
 20
93.765154046704993
 30
0.0
 11
245.6682003149763
 21
93.001349307596698
 31
0.0
  0
LINE
  5
17841
  8
0
 10
245.6682077655569
 20
61.998648978769772
 30
0.0
 11
245.6682077655569
 21
61.234845258295529
 31
0.0
  0
LINE
  5
17842
  8
0
 10
253.66820907685911
 20
61.234845258295529
 30
0.0
 11
253.66820907685911
 21
61.998648978769772
 31
0.0
  0
LINE
  5
17843
  8
0
 10
236.70672765467319
 20
82.499999031424551
 30
0.0
 11
211.0000005969778
 21
82.499999031424551
 31
0.0
  0
LINE
  5
17845
  8
0
 10
211.0000005969778
 20
72.499999254941969
 30
0.0
 11
236.70672765467319
 21
72.499999254941969
 31
0.0
  0
LINE
  5
17847
  8
0
 10
236.70672765467319
 20
61.998648978769772
 30
0.0
 11
314.70670691225678
 21
61.998648978769772
 31
0.0
  0
LINE
  5
17849
  8
0
 10
314.70670691225678
 20
61.998648978769772
 30
0.0
 11
314.70670691225672
 21
93.001349307596684
 31
0.0
  0
CIRCLE
  5
1784A
  8
0
 10
306.20672684795522
 20
77.499999143183231
 30
0.0
 40
4.1499999999999204
  0
CIRCLE
  5
1784B
  8
0
 10
246.2067268479552
 20
77.499999143183231
 30
0.0
 40
4.1499999999999773
  0
LINE
  5
1784E
  8
0
 10
314.70670691225678
 20
93.001349307596684
 30
0.0
 11
236.70672765467319
 21
93.001349307596684
 31
0.0
  0
LINE
  5
1784F
  8
0
 10
236.70672765467319
 20
61.998648978769772
 30
0.0
 11
236.70672765467319
 21
93.001349307596684
 31
0.0
  0
LINE
  5
17853
  8
0
 10
195.7082008058205
 20
60.499997287988691
 30
0.0
 11
179.70820097718379
 21
60.499997287988691
 31
0.0
  0
LINE
  5
17854
  8
0
 10
180.20820012781769
 20
60.000000000000028
 30
0.0
 11
195.20820072386411
 21
60.000000000000028
 31
0.0
  0
LINE
  5
17855
  8
0
 10
195.7082008058205
 20
94.499998902902036
 30
0.0
 11
179.70820097718379
 21
94.499998902902036
 31
0.0
  0
LINE
  5
17856
  8
0
 10
195.20820072386411
 20
94.9999988684431
 30
0.0
 11
180.20820012781769
 21
94.9999988684431
 31
0.0
  0
LINE
  5
17857
  8
0
 10
154.99999886844299
 20
64.999998956918716
 30
0.0
 11
211.0000005969778
 21
64.999998956918716
 31
0.0
  0
CIRCLE
  5
1785A
  8
0
 10
176.00000041374929
 20
77.49999914318326
 30
0.0
 40
4.1499999999999773
  0
CIRCLE
  5
1785B
  8
0
 10
201.0000004137494
 20
77.499999143183231
 30
0.0
 40
4.1500000000000048
  0
LINE
  5
1785E
  8
0
 10
211.0000005969778
 20
89.999999329447746
 30
0.0
 11
154.99999886844299
 21
89.999999329447746
 31
0.0
  0
LINE
  5
1785F
  8
0
 10
154.99999886844299
 20
64.999998956918716
 30
0.0
 11
154.99999886844299
 21
89.999999329447746
 31
0.0
  0
LINE
  5
17860
  8
0
 10
211.0000005969778
 20
64.999998956918716
 30
0.0
 11
211.0000005969778
 21
89.999999329447746
 31
0.0
  0
LINE
  5
17867
  8
0
 10
254.66820737812671
 20
61.234845258295529
 30
0.0
 11
244.6682094642893
 21
61.234845258295529
 31
0.0
  0
LINE
  5
17868
  8
0
 10
244.66819828841841
 20
93.765154046704993
 30
0.0
 11
254.66819992754611
 21
93.765154046704993
 31
0.0
  0
POLYLINE
  5
178A2
  8
0
 66
     1
 10
0.0
 20
0.0
 30
0.0
 70
   128
  0
VERTEX
  5
18DC1
  8
0
 10
179.70814339890649
 20
79.154602033221906
 30
0.0
  0
VERTEX
  5
18DC2
  8
0
 10
179.70814153626131
 20
78.119327095472997
 30
0.0
  0
VERTEX
  5
18DC3
  8
0
 10
179.70813594832589
 20
77.154603568041495
 30
0.0
  0
VERTEX
  5
18DC4
  8
0
 10
179.70812663510009
 20
76.326175374114683
 30
0.0
  0
VERTEX
  5
18DC5
  8
0
 10
179.70811545922919
 20
75.690501150810903
 30
0.0
  0
VERTEX
  5
18DC6
  8
0
 10
179.7081135965841
 20
75.637017157995885
 30
0.0
  0
SEQEND
  5
18DC7
  8
0
  0
POLYLINE
  5
178A3
  8
0
 66
     1
 10
0.0
 20
0.0
 30
0.0
 70
   128
  0
VERTEX
  5
18DC8
  8
0
 10
179.70805957987471
 20
75.636909124577215
 30
0.0
  0
VERTEX
  5
18DC9
  8
0
 10
179.70805771722959
 20
75.690501150810903
 30
0.0
  0
VERTEX
  5
18DCA
  8
0
 10
179.7080465413587
 20
76.326175374114683
 30
0.0
  0
VERTEX
  5
18DCB
  8
0
 10
179.70803722813289
 20
77.154603568041495
 30
0.0
  0
VERTEX
  5
18DCC
  8
0
 10
179.7080316401975
 20
78.119327095472997
 30
0.0
  0
VERTEX
  5
18DCD
  8
0
 10
179.70802977755241
 20
79.154602033221906
 30
0.0
  0
VERTEX
  5
18DCE
  8
0
 10
179.70802977755241
 20
79.363603857481664
 30
0.0
  0
SEQEND
  5
18DCF
  8
0
  0
LINE
  5
178AD
  8
1
 10
176.7082009752167
 20
175.29999936627991
 30
0.0
 11
288.668200294234
 21
175.29999936627991
 31
0.0
  0
LINE
  5
178B7
  8
1
 10
420.70050269831057
 20
287.99397359049817
 30
0.0
 11
149.9999988684431
 21
287.99397359049817
 31
0.0
  0
LINE
  5
178EE
  8
0
 10
195.70820080582061
 20
296.49397405243411
 30
0.0
 11
195.70819149259449
 21
292.7439562082933
 31
0.0
  0
LINE
  5
178EF
  8
0
 10
184.6643048385159
 20
296.49397405243411
 30
0.0
 11
184.6643048385159
 21
300.49397377676269
 31
0.0
  0
LINE
  5
178F0
  8
0
 10
188.5971999773756
 20
300.49397377676269
 30
0.0
 11
188.5971999773756
 21
296.49397405243411
 31
0.0
  0
LINE
  5
178F1
  8
0
 10
184.6643048385159
 20
300.49397377676269
 30
0.0
 11
211.00000059697791
 21
300.49397377676269
 31
0.0
  0
LINE
  5
178F2
  8
0
 10
184.6643048385159
 20
296.49397405243411
 30
0.0
 11
211.00000059697791
 21
296.49397405243411
 31
0.0
  0
LINE
  5
178F3
  8
0
 10
211.0000005969776
 20
300.49397377676269
 30
0.0
 11
211.000000596978
 21
292.99397347873941
 31
0.0
  0
LINE
  5
178F4
  8
0
 10
211.00000059697791
 20
294.94835017627969
 30
0.0
 11
211.0000005969778
 21
300.49397377676269
 31
0.0
  0
LINE
  5
178FC
  8
1
 10
176.00000041374929
 20
152.9999988684431
 30
0.0
 11
176.00000041374929
 21
160.99999952409419
 31
0.0
  0
LINE
  5
178FD
  8
1
 10
201.0000004137494
 20
152.9999988684431
 30
0.0
 11
201.0000004137494
 21
160.99999952409419
 31
0.0
  0
LINE
  5
178FE
  8
1
 10
246.2067268479552
 20
152.9999988684431
 30
0.0
 11
246.2067268479552
 21
160.99999952409419
 31
0.0
  0
LINE
  5
178FF
  8
1
 10
306.20672684795522
 20
152.9999988684431
 30
0.0
 11
306.20672684795522
 21
160.99999952409419
 31
0.0
  0
LINE
  5
17902
  8
1
 10
176.00000041374929
 20
281.84397359049819
 30
0.0
 11
176.00000041374929
 21
294.14397359049832
 31
0.0
  0
LINE
  5
17919
  8
3
 10
179.8962523995917
 20
179.48799936627981
 30
0.0
 11
180.89199501778469
 21
179.48799936627981
 31
0.0
  0
LINE
  5
1791A
  8
3
 10
179.89614707448979
 20
171.11199936627989
 30
0.0
 11
180.89199501778469
 21
171.11199936627989
 31
0.0
  0
LINE
  5
1791B
  8
3
 10
194.52440580971731
 20
179.48799936627981
 30
0.0
 11
195.33385815587599
 21
179.48799936627981
 31
0.0
  0
LINE
  5
1791C
  8
3
 10
194.52440580971731
 20
171.11199936627989
 30
0.0
 11
195.33385815587519
 21
171.11199936627989
 31
0.0
  0
LINE
  5
1791D
  8
3
 10
211.0000005969778
 20
179.48799936627981
 30
0.0
 11
237.22284066443231
 21
179.48799936627981
 31
0.0
  0
LINE
  5
1791E
  8
3
 10
211.0000005969778
 20
171.11199936627989
 30
0.0
 11
236.70672765467319
 21
171.11199936627989
 31
0.0
  0
ARC
  5
1791F
  8
0
 10
206.38145651381529
 20
286.28458422414121
 30
0.0
 40
12.475659206745931
 50
148.8180196425624
 51
159.3379002392191
  0
ARC
  5
17920
  8
0
 10
206.06455655937131
 20
289.54604510369609
 30
0.0
 40
12.12312674425149
 50
200.48786334272791
 51
211.32143491438779
  0
POLYLINE
  5
17921
  8
0
 66
     1
 10
0.0
 20
0.0
 30
0.0
 70
   128
  0
VERTEX
  5
18DD0
  8
0
 10
194.70826109870379
 20
290.68669524539962
 30
0.0
  0
VERTEX
  5
18DD1
  8
0
 10
194.7082676971331
 20
289.97437237209579
 30
0.0
  0
VERTEX
  5
18DD2
  8
0
 10
194.70827142242339
 20
288.86221489316722
 30
0.0
  0
VERTEX
  5
18DD3
  8
0
 10
194.70827328506849
 20
287.703250072961
 30
0.0
  0
VERTEX
  5
18DD4
  8
0
 10
194.70826955977819
 20
286.55995754904052
 30
0.0
  0
VERTEX
  5
18DD5
  8
0
 10
194.7082639718428
 20
285.49397411203881
 30
0.0
  0
VERTEX
  5
18DD6
  8
0
 10
194.7082618216192
 20
285.30284208162777
 30
0.0
  0
SEQEND
  5
18DD7
  8
0
  0
LINE
  5
17923
  8
3
 10
179.8962523995917
 20
292.18197359049822
 30
0.0
 11
180.0287103796706
 21
292.18197359049822
 31
0.0
  0
LINE
  5
17924
  8
3
 10
195.38769140333369
 20
292.18197359049822
 30
0.0
 11
259.66821006033558
 21
292.1819735904981
 31
0.0
  0
LINE
  5
17925
  8
3
 10
179.89614707448979
 20
283.80597359049818
 30
0.0
 11
180.0299434194992
 21
283.80597359049818
 31
0.0
  0
LINE
  5
17926
  8
3
 10
195.3864583635052
 20
283.8059735904983
 30
0.0
 11
259.66821006033558
 21
283.80597359049818
 31
0.0
  0
LINE
  5
17981
  8
1
 10
420.71070626843812
 20
77.499999143183231
 30
0.0
 11
149.9999988684431
 21
77.499999143183231
 31
0.0
  0
LINE
  5
179A8
  8
1
 10
176.01020398387681
 20
71.349999143183197
 30
0.0
 11
176.01020398387681
 21
83.649999143183265
 31
0.0
  0
LINE
  5
179BE
  8
3
 10
211.00000059697791
 20
81.68799914318322
 30
0.0
 11
236.70672765467299
 21
81.68799914318322
 31
0.0
  0
LINE
  5
179BF
  8
3
 10
211.0000005969778
 20
73.311999143183272
 30
0.0
 11
236.70672765467319
 21
73.311999143183243
 31
0.0
  0
LINE
  5
179C1
  8
1
 10
201.0000004137494
 20
71.349999143183197
 30
0.0
 11
201.0000004137494
 21
83.649999143183265
 31
0.0
  0
LINE
  5
179C2
  8
1
 10
246.2067268479552
 20
71.349999143183197
 30
0.0
 11
246.2067268479552
 21
83.649999143183265
 31
0.0
  0
LINE
  5
179C3
  8
1
 10
306.20672684795522
 20
71.349999143183197
 30
0.0
 11
306.20672684795522
 21
83.649999143183265
 31
0.0
  0
CIRCLE
  5
179DE
  8
0
 10
77.499998095445335
 20
175.29999936627991
 30
0.0
 40
5.0
  0
CIRCLE
  5
179DF
  8
3
 10
77.499998095445335
 20
175.29999936627991
 30
0.0
 40
4.1879999999999882
  0
LINE
  5
179E0
  8
0
 10
89.999998281709836
 20
161.73659963998941
 30
0.0
 11
85.999997626058743
 21
161.73659963998941
 31
0.0
  0
LINE
  5
17A35
  8
1
 10
77.499998095445335
 20
198.0049150297418
 30
0.0
 11
77.499998095445221
 21
149.99999911736171
 31
0.0
  0
LINE
  5
17A5C
  8
1
 10
85.499998095445335
 20
175.29999936627991
 30
0.0
 11
69.499998095445335
 21
175.29999936627991
 31
0.0
  0
LINE
  5
17AB6
  8
1
 10
493.20484587922692
 20
198.0049147808231
 30
0.0
 11
493.20484587922692
 21
149.9999988684431
 31
0.0
  0
ARC
  5
185C8
  8
0
 10
316.76428263369053
 20
187.19901280752569
 30
0.0
 40
4.8560849704617493
 50
94.719597201451776
 51
130.4345651164237
  0
ARC
  5
185C9
  8
0
 10
315.96517122133582
 20
187.19901280752569
 30
0.0
 40
4.8560849704617404
 50
49.565434883576238
 51
85.280402798548224
  0
LINE
  5
185CE
  8
0
 10
324.125416581519
 20
186.11124111805111
 30
0.0
 11
324.125416581519
 21
189.11123974714431
 31
0.0
  0
LINE
  5
185E7
  8
0
 10
309.313744311221
 20
178.36124031338841
 30
0.0
 11
309.313744311221
 21
178.274612412788
 31
0.0
  0
LINE
  5
185EE
  8
0
 10
309.31375921238208
 20
178.2746086874977
 30
0.0
 11
309.31375921238208
 21
178.36124031338841
 31
0.0
  0
LINE
  5
185F1
  8
0
 10
324.0579515742138
 20
181.46124063525349
 30
0.0
 11
328.99875939358031
 21
181.46124063525349
 31
0.0
  0
LINE
  5
185F2
  8
0
 10
328.99875939358031
 20
178.26124234590679
 30
0.0
 11
309.3137517618016
 21
178.26124234590679
 31
0.0
  0
ARC
  5
185F3
  8
0
 10
328.99875897608291
 20
179.86124082768811
 30
0.0
 40
1.6000000000000221
 50
270.0
 51
90.0
  0
LINE
  5
185F9
  8
0
 10
351.87041014898568
 20
190.89520676527169
 30
0.0
 11
259.7005143808201
 21
190.89520676527169
 31
0.0
  0
LINE
  5
185FA
  8
0
 10
259.7005143808201
 20
190.89520676527169
 30
0.0
 11
259.7005143808201
 21
188.6073160031811
 31
0.0
  0
LINE
  5
185FB
  8
0
 10
259.7005106555298
 20
190.89520676527169
 30
0.0
 11
259.7005143808201
 21
190.89520676527169
 31
0.0
  0
LINE
  5
185FE
  8
0
 10
324.12508130539209
 20
189.11123974714431
 30
0.0
 11
309.0895488904788
 21
189.11123974714431
 31
0.0
  0
LINE
  5
185FF
  8
0
 10
309.08954889047891
 20
186.1112411180512
 30
0.0
 11
324.12508130539209
 21
186.11124111805111
 31
0.0
  0
ARC
  5
18603
  8
0
 10
353.80020357151233
 20
187.31509149852829
 30
0.0
 40
44.746718209692453
 50
177.6995101713851
 51
182.01181928061129
  0
ARC
  5
18604
  8
0
 10
319.02473242681663
 20
185.6980270891645
 30
0.0
 40
9.9437728118850721
 50
177.61838494158829
 51
180.5000708632582
  0
LINE
  5
18605
  8
0
 10
309.05260146129882
 20
180.36124064121401
 30
0.0
 11
309.0813383506611
 21
185.61124010477221
 31
0.0
  0
ARC
  5
18606
  8
0
 10
269.19856798697271
 20
180.0152686302122
 30
0.0
 40
39.855535133844313
 50
357.621508131334
 51
0.4973709411937637
  0
LINE
  5
18607
  8
0
 10
309.01131779421121
 20
178.36124031338841
 30
0.0
 11
309.01976675260812
 21
178.36124031338841
 31
0.0
  0
ARC
  5
1860A
  8
0
 10
334.0389710607692
 20
185.697782152168
 30
0.0
 40
9.9586861538177462
 50
177.620543088152
 51
180.4979127166946
  0
LINE
  5
1860B
  8
0
 10
324.08066094387323
 20
185.61124010477221
 30
0.0
 11
324.05193150509149
 21
180.36124064121401
 31
0.0
  0
LINE
  5
1860C
  8
0
 10
324.0190893458203
 20
178.36124031338841
 30
0.0
 11
309.01976675260812
 21
178.36124031338841
 31
0.0
  0
ARC
  5
1860D
  8
0
 10
284.21313063821691
 20
180.01516683988041
 30
0.0
 40
39.840303984614017
 50
357.62074481356302
 51
0.4977074872656787
  0
LINE
  5
18623
  8
0
 10
405.63986450899392
 20
178.47681744489819
 30
0.0
 11
410.70049256552011
 21
178.47681744489819
 31
0.0
  0
LINE
  5
18624
  8
0
 10
415.70050269830972
 20
183.4768238523975
 30
0.0
 11
415.70050269830972
 21
191.4952094713226
 31
0.0
  0
LINE
  5
18625
  8
0
 10
353.37042063940322
 20
181.01270450744781
 30
0.0
 11
353.79341990221292
 21
181.01270450744781
 31
0.0
  0
ARC
  5
18626
  8
0
 10
410.70049174995228
 20
183.47682524501869
 30
0.0
 40
5.000006414043705
 50
270.00000361495017
 51
0.0
  0
ARC
  5
18627
  8
0
 10
361.75849308961028
 20
188.2232353867872
 30
0.0
 40
9.5000001444045772
 50
237.92662944298249
 51
296.67384755761032
  0
ARC
  5
18628
  8
0
 10
353.79342095220159
 20
175.51270313282731
 30
0.0
 40
5.5000000000309184
 50
57.926629442966401
 51
90.000039903456795
  0
ARC
  5
18629
  8
0
 10
391.22416895071927
 20
187.9758491355033
 30
0.0
 40
9.5000000244422331
 50
243.2600832386446
 51
298.72342567320072
  0
ARC
  5
1862A
  8
0
 10
398.43290020749077
 20
174.82160288568221
 30
0.0
 40
5.5000000000005649
 50
61.284280171991632
 51
118.72342567320069
  0
ARC
  5
1862B
  8
0
 10
405.63986225236772
 20
187.9768185341608
 30
0.0
 40
9.5000000224752625
 50
241.2842801719913
 51
270.0
  0
ARC
  5
1862C
  8
0
 10
375.6991228682175
 20
187.97480511085999
 30
0.0
 40
9.5000000000184617
 50
241.284280199591
 51
296.74762262653991
  0
ARC
  5
1862D
  8
0
 10
368.49216081530631
 20
174.81958943267529
 30
0.0
 40
5.5000000523706163
 50
61.284280199591016
 51
116.6738475576099
  0
ARC
  5
1862E
  8
0
 10
383.4626818160495
 20
172.5705961904321
 30
0.0
 40
7.7500000000004752
 50
63.260083238644413
 51
116.74762262653969
  0
LINE
  5
1862F
  8
0
 10
351.87041014898568
 20
191.4952094713226
 30
0.0
 11
351.87041014898568
 21
182.51270382199439
 31
0.0
  0
LINE
  5
18630
  8
0
 10
414.20049220789218
 20
192.99520878586921
 30
0.0
 11
353.37042063940322
 21
192.99520878586921
 31
0.0
  0
ARC
  5
18631
  8
0
 10
353.3704132943642
 20
182.51270283825701
 30
0.0
 40
1.500000000000022
 50
180.0
 51
270.00003990345681
  0
ARC
  5
18632
  8
0
 10
414.20049816399592
 20
191.49520816140381
 30
0.0
 40
1.5
 50
0.0
 51
90.0
  0
ARC
  5
18633
  8
0
 10
353.3704132943642
 20
191.49520816140381
 30
0.0
 40
1.5
 50
90.0
 51
179.9999999985946
  0
LINE
  5
18739
  8
0
 10
275.8751041302458
 20
300.77262304636588
 30
0.0
 11
275.8751041302458
 21
299.97262254270657
 31
0.0
  0
LINE
  5
1873A
  8
0
 10
285.45009857509291
 20
299.97262254270657
 30
0.0
 11
285.45009857509291
 21
300.77262304636588
 31
0.0
  0
LINE
  5
1873B
  8
0
 10
243.6682074377313
 20
281.47550649388631
 30
0.0
 11
243.6682074377313
 21
279.9755062480171
 31
0.0
  0
LINE
  5
1873C
  8
0
 10
255.6682094046846
 20
279.9755062480171
 30
0.0
 11
255.6682094046846
 21
281.47550649388631
 31
0.0
  0
LINE
  5
1873D
  8
0
 10
255.6682094046846
 20
281.47550649388631
 30
0.0
 11
255.1682083914057
 21
281.9755065758427
 31
0.0
  0
LINE
  5
1873E
  8
0
 10
244.16820845101029
 20
281.9755065758427
 30
0.0
 11
243.6682074377313
 21
281.47550649388631
 31
0.0
  0
LINE
  5
1873F
  8
0
 10
245.6682077655569
 20
277.47550630389651
 30
0.0
 11
245.6682077655569
 21
276.4955062922736
 31
0.0
  0
LINE
  5
18740
  8
0
 10
245.6682077655569
 20
272.49550633511438
 30
0.0
 11
245.6682077655569
 21
271.69550629711648
 31
0.0
  0
LINE
  5
18741
  8
0
 10
253.66820907685911
 20
271.69550629711648
 30
0.0
 11
253.66820907685911
 21
272.49550633511438
 31
0.0
  0
LINE
  5
18742
  8
0
 10
253.66820907685911
 20
276.4955062922736
 30
0.0
 11
253.66820907685911
 21
277.47550630389651
 31
0.0
  0
LINE
  5
18743
  8
0
 10
243.6682074377313
 20
294.51244022144868
 30
0.0
 11
244.16820845101029
 21
294.01243920816978
 31
0.0
  0
LINE
  5
18744
  8
0
 10
255.1682083914057
 20
294.01243920816978
 30
0.0
 11
255.6682094046846
 21
294.51244022144868
 31
0.0
  0
LINE
  5
18745
  8
0
 10
255.6682094046846
 20
294.51244022144868
 30
0.0
 11
255.6682094046846
 21
296.01243953599533
 31
0.0
  0
LINE
  5
18746
  8
0
 10
243.6682074377313
 20
296.01243953599533
 30
0.0
 11
243.6682074377313
 21
294.51244022144868
 31
0.0
  0
LINE
  5
18747
  8
0
 10
253.66820907685911
 20
298.51244087709978
 30
0.0
 11
253.66820907685911
 21
299.49820484413698
 31
0.0
  0
LINE
  5
18748
  8
0
 10
253.66820907685911
 20
303.49820736243328
 30
0.0
 11
253.66820907685911
 21
304.2924392540653
 31
0.0
  0
LINE
  5
18749
  8
0
 10
245.6682077655569
 20
304.2924392540653
 30
0.0
 11
245.6682077655569
 21
303.49820736243328
 31
0.0
  0
LINE
  5
1874A
  8
0
 10
245.6682077655569
 20
299.49820484413698
 30
0.0
 11
245.6682077655569
 21
298.51244087709978
 31
0.0
  0
ARC
  5
1874B
  8
0
 10
254.1682083855693
 20
271.69550625511579
 30
0.0
 40
0.5
 50
270.0
 51
0.0
  0
ARC
  5
1874C
  8
0
 10
245.1682083855693
 20
271.69550625511579
 30
0.0
 40
0.5
 50
180.0
 51
270.0
  0
LINE
  5
1874D
  8
0
 10
245.16820675227791
 20
271.1955062733677
 30
0.0
 11
254.16821009013799
 21
271.1955062733677
 31
0.0
  0
ARC
  5
1874E
  8
0
 10
245.1682083855693
 20
304.29244005029477
 30
0.0
 40
0.5
 50
90.0
 51
180.0
  0
ARC
  5
1874F
  8
0
 10
254.1682083855693
 20
304.29244005029477
 30
0.0
 40
0.5
 50
0.0
 51
90.0
  0
LINE
  5
18750
  8
0
 10
254.16821009013799
 20
304.79244026734432
 30
0.0
 11
245.16820675227791
 21
304.79244026734432
 31
0.0
  0
LINE
  5
18752
  8
0
 10
239.6682105073705
 20
279.9755062480171
 30
0.0
 11
239.6682105073705
 21
277.47550630389651
 31
0.0
  0
LINE
  5
18753
  8
0
 10
239.6682105073705
 20
298.51244087709978
 30
0.0
 11
239.6682105073705
 21
296.01243953599533
 31
0.0
  0
LINE
  5
1875E
  8
0
 10
274.6682069310919
 20
277.47262304562082
 30
0.0
 11
274.6682069310919
 21
274.97262310150018
 31
0.0
  0
LINE
  5
1875F
  8
0
 10
286.66820889804512
 20
274.97262310150018
 30
0.0
 11
286.66820889804512
 21
277.47262304562082
 31
0.0
  0
LINE
  5
18760
  8
0
 10
274.6682069310919
 20
274.97262310150018
 30
0.0
 11
275.16820794437081
 21
274.47262301954379
 31
0.0
  0
LINE
  5
18761
  8
0
 10
286.16820788476622
 20
274.47262301954379
 30
0.0
 11
286.66820889804512
 21
274.97262310150018
 31
0.0
  0
LINE
  5
18762
  8
0
 10
284.66821229550987
 20
300.9726227066194
 30
0.0
 11
284.16821128223091
 21
301.47262371989842
 31
0.0
  0
LINE
  5
18763
  8
0
 10
277.16821199748671
 20
301.47262371989842
 30
0.0
 11
276.66821098420769
 21
300.9726227066194
 31
0.0
  0
LINE
  5
18764
  8
0
 10
276.66821098420769
 20
300.9726227066194
 30
0.0
 11
276.66821098420769
 21
300.77262304636588
 31
0.0
  0
LINE
  5
18765
  8
0
 10
284.66821229550987
 20
300.77262304636588
 30
0.0
 11
284.66821229550987
 21
300.9726227066194
 31
0.0
  0
LINE
  5
18766
  8
0
 10
276.66821098420769
 20
298.9726223787938
 30
0.0
 11
276.66821098420769
 21
298.50955761882409
 31
0.0
  0
LINE
  5
18767
  8
0
 10
284.66821229550987
 20
298.50955761882409
 30
0.0
 11
284.66821229550987
 21
298.9726223787938
 31
0.0
  0
LINE
  5
18768
  8
0
 10
276.86820691917092
 20
299.97262254270657
 30
0.0
 11
276.86820691917092
 21
298.9726223787938
 31
0.0
  0
LINE
  5
18769
  8
0
 10
284.46820890996611
 20
298.9726223787938
 30
0.0
 11
284.46820890996611
 21
299.97262254270657
 31
0.0
  0
LINE
  5
18774
  8
0
 10
280.36176925990731
 20
300.77262304636588
 30
0.0
 11
280.36176925990731
 21
299.97262254270657
 31
0.0
  0
LINE
  5
18776
  8
0
 10
280.36176925990731
 20
300.77262304636588
 30
0.0
 11
275.8751041302458
 21
300.77262304636588
 31
0.0
  0
LINE
  5
18777
  8
0
 10
281.16169339511549
 20
300.77262304636588
 30
0.0
 11
281.16169339511549
 21
299.97262254270657
 31
0.0
  0
LINE
  5
1877B
  8
0
 10
285.45009857509291
 20
300.77262304636588
 30
0.0
 11
281.16169339511549
 21
300.77262304636588
 31
0.0
  0
LINE
  5
18785
  8
0
 10
275.8751041302458
 20
299.97262254270657
 30
0.0
 11
285.45009857509291
 21
299.97262254270657
 31
0.0
  0
LINE
  5
18789
  8
0
 10
255.6682094046846
 20
281.47550649388631
 30
0.0
 11
243.6682074377313
 21
281.47550649388631
 31
0.0
  0
LINE
  5
1878B
  8
0
 10
255.1682083914057
 20
281.9755065758427
 30
0.0
 11
244.16820845101029
 21
281.9755065758427
 31
0.0
  0
LINE
  5
1878D
  8
0
 10
243.6682074377313
 20
294.51244022144868
 30
0.0
 11
255.6682094046846
 21
294.51244022144868
 31
0.0
  0
LINE
  5
1878E
  8
0
 10
244.16820845101029
 20
294.01243920816978
 30
0.0
 11
255.1682083914057
 21
294.01243920816978
 31
0.0
  0
LINE
  5
18790
  8
0
 10
254.66820737812671
 20
271.69550629711648
 30
0.0
 11
244.6682083855693
 21
271.69550629711648
 31
0.0
  0
LINE
  5
18791
  8
0
 10
244.6682094642893
 20
304.2924392540653
 30
0.0
 11
254.66820737812671
 21
304.2924392540653
 31
0.0
  0
LINE
  5
187A0
  8
0
 10
236.70672765467319
 20
272.49262307683881
 30
0.0
 11
313.20144003722822
 21
272.49262307683881
 31
0.0
  0
LINE
  5
187A3
  8
0
 10
265.6681924173609
 20
276.49262303399792
 30
0.0
 11
265.6681924173609
 21
272.4926230768387
 31
0.0
  0
LINE
  5
187A9
  8
0
 10
314.70670691225678
 20
303.49532410415759
 30
0.0
 11
236.70672765467319
 21
303.49532410415759
 31
0.0
  0
LINE
  5
187AA
  8
0
 10
265.66821104381228
 20
299.49532158586129
 30
0.0
 11
265.66821104381228
 21
303.49532410415759
 31
0.0
  0
LINE
  5
187AE
  8
0
 10
313.20144003722822
 20
272.4926230768387
 30
0.0
 11
313.20144003722822
 21
276.49262303399792
 31
0.0
  0
LINE
  5
187B1
  8
0
 10
313.20145493838942
 20
299.49532158586129
 30
0.0
 11
313.20145493838942
 21
303.49532410415759
 31
0.0
  0
LINE
  5
187B4
  8
0
 10
236.70672765467319
 20
276.49262303399797
 30
0.0
 11
274.6682069310919
 21
276.49262303399792
 31
0.0
  0
LINE
  5
187B6
  8
0
 10
265.66820731852198
 20
299.49532158586129
 30
0.0
 11
265.66820731852198
 21
303.49532410415759
 31
0.0
  0
LINE
  5
187B9
  8
0
 10
286.66820889804512
 20
276.49262303399792
 30
0.0
 11
313.20144003722822
 21
276.49262303399792
 31
0.0
  0
LINE
  5
187C0
  8
0
 10
314.70670691225678
 20
299.49532158586129
 30
0.0
 11
284.46820890996611
 21
299.49532158586129
 31
0.0
  0
LINE
  5
187C1
  8
0
 10
276.86820691917092
 20
299.49532158586129
 30
0.0
 11
236.70672765467319
 21
299.49532158586129
 31
0.0
  0
LINE
  5
187D1
  8
0
 10
351.87041014898568
 20
277.47550630389651
 30
0.0
 11
239.6682105073705
 21
277.47550630389651
 31
0.0
  0
LINE
  5
187D2
  8
0
 10
351.87041014898568
 20
298.51244087709978
 30
0.0
 11
239.6682105073705
 21
298.51244087709978
 31
0.0
  0
LINE
  5
187D5
  8
0
 10
259.6682100603357
 20
296.01243953599533
 30
0.0
 11
239.6682105073705
 21
296.01243953599533
 31
0.0
  0
LINE
  5
187D7
  8
0
 10
239.6682105073705
 20
279.9755062480171
 30
0.0
 11
259.6682100603357
 21
279.9755062480171
 31
0.0
  0
LINE
  5
187D8
  8
0
 10
259.66821006033558
 20
298.51244087709978
 30
0.0
 11
259.6682100603357
 21
277.47550630389651
 31
0.0
  0
CIRCLE
  5
187E7
  8
0
 10
316.33241888173848
 20
287.99397315270397
 30
0.0
 40
2.75
  0
LINE
  5
187E8
  8
0
 10
323.93246102304857
 20
277.47550630389651
 30
0.0
 11
324.09277325961739
 21
260.566305140098
 31
0.0
  0
ARC
  5
187E9
  8
0
 10
316.59310700435122
 20
260.49520878586918
 30
0.0
 40
7.5000000000000062
 50
180.5431473783967
 51
0.5431473783950711
  0
LINE
  5
187EA
  8
0
 10
309.09344321582472
 20
260.42411174072828
 30
0.0
 11
308.97904797214369
 21
272.49262307683881
 31
0.0
  0
LINE
  5
187F1
  8
0
 10
311.73249846789992
 20
298.51244087709989
 30
0.0
 11
311.72834849450737
 21
298.9508200009069
 31
0.0
  0
LINE
  5
187F2
  8
0
 10
311.72834849450737
 20
298.9508200009069
 30
0.0
 11
323.72780656907707
 21
299.06457546546068
 31
0.0
  0
LINE
  5
187F3
  8
0
 10
323.72780656907707
 20
299.06457546546068
 30
0.0
 11
323.73304432723671
 21
298.51244087709989
 31
0.0
  0
LINE
  5
187F7
  8
0
 10
274.6682069310919
 20
274.97262310150018
 30
0.0
 11
286.66820889804512
 21
274.97262310150018
 31
0.0
  0
LINE
  5
187F8
  8
0
 10
275.16820794437081
 20
274.47262301954379
 30
0.0
 11
286.16820788476622
 21
274.47262301954379
 31
0.0
  0
LINE
  5
187F9
  8
0
 10
284.66821229550987
 20
300.9726227066194
 30
0.0
 11
276.66821098420769
 21
300.9726227066194
 31
0.0
  0
LINE
  5
187FB
  8
0
 10
284.16821128223091
 20
301.47262371989842
 30
0.0
 11
277.16821199748671
 21
301.47262371989842
 31
0.0
  0
LINE
  5
187FD
  8
0
 10
284.66821229550987
 20
298.9726223787938
 30
0.0
 11
276.66821098420769
 21
298.9726223787938
 31
0.0
  0
LINE
  5
1883A
  8
0
 10
308.94113269352471
 20
276.49262303399792
 30
0.0
 11
308.93181612016792
 21
277.47550630389651
 31
0.0
  0
LINE
  5
1883B
  8
0
 10
236.70672765467319
 20
272.4926230768387
 30
0.0
 11
236.7067276546731
 21
282.99397370225688
 31
0.0
  0
LINE
  5
1883C
  8
0
 10
236.70672765467319
 20
292.99397347873958
 30
0.0
 11
236.70672765467319
 21
303.49532410415759
 31
0.0
  0
LINE
  5
1883D
  8
0
 10
314.70670691225678
 20
303.49532410415759
 30
0.0
 11
314.70670691225678
 21
298.9790549881298
 31
0.0
  0
LINE
  5
1885F
  8
0
 10
314.93125251028692
 20
75.332078561186819
 30
0.0
 11
314.70818212721503
 21
75.325801447033911
 31
0.0
  0
LINE
  5
18860
  8
0
 10
314.70818212721503
 20
74.57550562918189
 30
0.0
 11
314.95234510395682
 21
74.582375064492254
 31
0.0
  0
ARC
  5
18861
  8
0
 10
309.5826022065221
 20
74.806445702471791
 30
0.0
 40
0.3750000000000196
 50
91.611589170101027
 51
203.10856085309831
  0
POLYLINE
  5
18862
  8
0
 66
     1
 10
0.0
 20
0.0
 30
0.0
 70
   128
  0
VERTEX
  5
18DD8
  8
0
 10
309.6545501658693
 20
75.183618292212515
 30
0.0
  0
VERTEX
  5
18DD9
  8
0
 10
309.63801732752472
 20
75.183152630925207
 30
0.0
  0
VERTEX
  5
18DDA
  8
0
 10
309.60145732853562
 20
75.182124450802831
 30
0.0
  0
VERTEX
  5
18DDB
  8
0
 10
309.57941851112992
 20
75.181504189968138
 30
0.0
  0
VERTEX
  5
18DDC
  8
0
 10
309.57205733750021
 20
75.181297436356573
 30
0.0
  0
SEQEND
  5
18DDD
  8
0
  0
LINE
  5
18863
  8
0
 10
314.95234510395682
 20
74.582375064492254
 30
0.0
 11
316.45326456520712
 21
74.624603092670469
 31
0.0
  0
LINE
  5
18864
  8
0
 10
315.69295516703278
 20
75.353508293628721
 30
0.0
 11
314.93125251028692
 21
75.332078561186819
 31
0.0
  0
ARC
  5
18865
  8
0
 10
316.38552400163189
 20
77.493107611036237
 30
0.0
 40
2.8693042633778472
 50
271.3528049583183
 51
125.773422633088
  0
LINE
  5
18866
  8
0
 10
331.15156135056168
 20
70.2909114211798
 30
0.0
 11
327.94500282499939
 21
70.200696066021948
 31
0.0
  0
LINE
  5
18867
  8
0
 10
328.99706950876862
 20
69.479999542236357
 30
0.0
 11
331.17265394423163
 21
69.541209787130384
 31
0.0
  0
ARC
  5
18868
  8
0
 10
327.89930151377462
 20
71.82505313338288
 30
0.0
 40
2.3750000000000231
 50
240.25732174695909
 51
260.740659808945
  0
ARC
  5
18869
  8
0
 10
327.89930151377462
 20
71.82505313338288
 30
0.0
 40
1.6250000000000271
 50
240.25732174695909
 51
271.61158917011409
  0
LINE
  5
1886A
  8
0
 10
327.09313324186951
 20
70.414127260446577
 30
0.0
 11
323.82329693529761
 21
72.282434850931196
 31
0.0
  0
LINE
  5
1886B
  8
0
 10
323.81515345070511
 20
71.423295363783865
 30
0.0
 11
326.72105124685908
 21
69.762929752469091
 31
0.0
  0
LINE
  5
18882
  8
0
 10
314.70818212721503
 20
85.518465787172303
 30
0.0
 11
351.87040495400902
 21
85.518465787172289
 31
0.0
  0
LINE
  5
18883
  8
0
 10
351.87041534396241
 20
69.481532499194145
 30
0.0
 11
314.70818212721503
 21
69.481532499194145
 31
0.0
  0
ARC
  5
18899
  8
0
 10
316.37240987309241
 20
77.498465925527711
 30
0.0
 40
2.25
 50
222.29773832872229
 51
0.0
  0
ARC
  5
1889A
  8
0
 10
316.37240987309241
 20
77.498465925527711
 30
0.0
 40
2.25
 50
0.0
 51
137.70224093585779
  0
POLYLINE
  5
1889B
  8
0
 66
     1
 10
0.0
 20
0.0
 30
0.0
 70
   128
  0
VERTEX
  5
18DDE
  8
0
 10
315.04181912634522
 20
74.960041269660024
 30
0.0
  0
VERTEX
  5
18DDF
  8
0
 10
315.03824284765869
 20
74.81637731194499
 30
0.0
  0
VERTEX
  5
18DE0
  8
0
 10
315.01998147461558
 20
74.694156125187902
 30
0.0
  0
VERTEX
  5
18DE1
  8
0
 10
314.98982152435929
 20
74.611985534429579
 30
0.0
  0
VERTEX
  5
18DE2
  8
0
 10
314.95234510395682
 20
74.582375064492254
 30
0.0
  0
VERTEX
  5
18DE3
  8
0
 10
314.91326680872589
 20
74.609832316637068
 30
0.0
  0
VERTEX
  5
18DE4
  8
0
 10
314.87853220198298
 20
74.690175652503996
 30
0.0
  0
VERTEX
  5
18DE5
  8
0
 10
314.8534237453714
 20
74.811176806688337
 30
0.0
  0
VERTEX
  5
18DE6
  8
0
 10
314.84177848789841
 20
74.954412356019049
 30
0.0
  0
VERTEX
  5
18DE7
  8
0
 10
314.84535476658488
 20
75.098076313734083
 30
0.0
  0
VERTEX
  5
18DE8
  8
0
 10
314.86361613962799
 20
75.220297500491171
 30
0.0
  0
VERTEX
  5
18DE9
  8
0
 10
314.8937760898844
 20
75.302468091249494
 30
0.0
  0
VERTEX
  5
18DEA
  8
0
 10
314.93125251028692
 20
75.332078561186819
 30
0.0
  0
VERTEX
  5
18DEB
  8
0
 10
314.97033080551768
 20
75.304621309042005
 30
0.0
  0
VERTEX
  5
18DEC
  8
0
 10
315.00506541226059
 20
75.224276110529928
 30
0.0
  0
VERTEX
  5
18DED
  8
0
 10
315.03017386887223
 20
75.103276818990736
 30
0.0
  0
VERTEX
  5
18DEE
  8
0
 10
315.04181912634522
 20
74.960041269660024
 30
0.0
  0
SEQEND
  5
18DEF
  8
0
  0
POLYLINE
  5
1889E
  8
0
 66
     1
 10
0.0
 20
0.0
 30
0.0
 70
   128
  0
VERTEX
  5
18DF0
  8
0
 10
331.17265394423163
 20
69.541209787130384
 30
0.0
  0
VERTEX
  5
18DF1
  8
0
 10
331.1718492815271
 20
69.569743648171453
 30
0.0
  0
VERTEX
  5
18DF2
  8
0
 10
331.1695694038645
 20
69.650999680161505
 30
0.0
  0
VERTEX
  5
18DF3
  8
0
 10
331.16614213678992
 20
69.772611781954794
 30
0.0
  0
VERTEX
  5
18DF4
  8
0
 10
331.16211137268692
 20
69.916061535477667
 30
0.0
  0
VERTEX
  5
18DF5
  8
0
 10
331.15807315800339
 20
70.05950942635539
 30
0.0
  0
VERTEX
  5
18DF6
  8
0
 10
331.1546533415094
 20
70.18112152814868
 30
0.0
  0
VERTEX
  5
18DF7
  8
0
 10
331.1523660132662
 20
70.262377560138731
 30
0.0
  0
VERTEX
  5
18DF8
  8
0
 10
331.15156135056168
 20
70.2909114211798
 30
0.0
  0
VERTEX
  5
18DF9
  8
0
 10
331.15156135056168
 20
70.2909114211798
 30
0.0
  0
SEQEND
  5
18DFA
  8
0
  0
LINE
  5
1889F
  8
0
 10
309.14840987417853
 20
74.566814526915579
 30
0.0
 11
308.84430697653443
 21
74.569697901606588
 31
0.0
  0
LINE
  5
188A0
  8
0
 10
308.84430697653443
 20
74.569697901606588
 30
0.0
 11
308.90197447035462
 21
80.652492530643968
 31
0.0
  0
LINE
  5
188A3
  8
0
 10
323.9487647125498
 20
85.516932830214529
 30
0.0
 11
323.79672816488892
 21
69.479999542236357
 31
0.0
  0
LINE
  5
188A4
  8
0
 10
323.7730353185907
 20
66.979998201131849
 30
0.0
 11
323.76779756043112
 21
66.427863612771063
 31
0.0
  0
LINE
  5
188A5
  8
0
 10
323.76779756043112
 20
66.427863612771063
 30
0.0
 11
314.70817467663443
 21
66.513748317956953
 31
0.0
  0
ARC
  5
188AC
  8
0
 10
316.63309799570521
 20
104.9972302923626
 30
0.0
 40
7.5000000000000062
 50
359.45685262160492
 51
179.4568526216049
  0
LINE
  5
188AD
  8
0
 10
309.01905349743072
 20
93.001349307596684
 30
0.0
 11
309.13343420717871
 21
105.0683273375034
 31
0.0
  0
LINE
  5
188AE
  8
0
 10
324.13276425097138
 20
104.9261339381337
 30
0.0
 11
323.9724665546363
 21
88.018466429784894
 31
0.0
  0
LINE
  5
188E5
  8
0
 10
414.20049965737059
 20
90.501699773594737
 30
0.0
 11
353.37039828658931
 21
90.501655070111156
 31
0.0
  0
LINE
  5
188E6
  8
0
 10
353.3704131877505
 20
64.501654766499996
 30
0.0
 11
414.20051455853178
 21
64.501699237152934
 31
0.0
  0
ARC
  5
188E7
  8
0
 10
353.37040170111987
 20
89.001654830504776
 30
0.0
 40
1.5000000000012379
 50
90.000041687137099
 51
180.00009568091079
  0
LINE
  5
188E8
  8
0
 10
351.87040269733302
 20
89.001653892919421
 30
0.0
 11
351.87041759849421
 21
66.001653848215923
 31
0.0
  0
ARC
  5
188E9
  8
0
 10
353.37041843541311
 20
66.001654830510915
 30
0.0
 40
1.5000000000012379
 50
180.000095681217
 51
270.00004168715009
  0
LINE
  5
188EA
  8
0
 10
415.70051014778812
 20
66.001700414344654
 30
0.0
 11
415.70049524662687
 21
89.001700459048152
 31
0.0
  0
ARC
  5
188EB
  8
0
 10
414.20049808667369
 20
89.001699234649664
 30
0.0
 40
1.5000000000014091
 50
0.0000956809287624
 51
90.000041687137099
  0
ARC
  5
188EC
  8
0
 10
414.20051482096687
 20
66.001699234655689
 30
0.0
 40
1.5000000000011811
 50
270.00004168713713
 51
0.0000956809108495
  0
ARC
  5
188ED
  8
0
 10
353.37039493084751
 20
89.001654830504776
 30
0.0
 40
1.500000000001352
 50
90.000041687150102
 51
180.00009568086679
  0
ARC
  5
188EE
  8
0
 10
353.37041166514058
 20
66.001654830510802
 30
0.0
 40
1.500000000001295
 50
180.00009568091079
 51
270.00004168715009
  0
LINE
  5
188EF
  8
0
 10
351.87038779617183
 20
88.971654130145893
 30
0.0
 11
351.87038779617183
 21
89.001653892919421
 31
0.0
  0
LINE
  5
188F0
  8
0
 10
351.87041696365429
 20
66.981531856581555
 30
0.0
 11
314.70670691225672
 21
66.981531856581555
 31
0.0
  0
LINE
  5
188F1
  8
0
 10
351.87040333431719
 20
88.018466429784894
 30
0.0
 11
314.70670691225672
 21
88.018466429784894
 31
0.0
  0
LINE
  5
188F4
  8
0
 10
341.43136451354673
 20
85.518465787172303
 30
0.0
 11
341.43136451354673
 21
69.481532499194145
 31
0.0
  0
ARC
  5
1898B
  8
0
 10
77.899553801626496
 20
187.1990146701707
 30
0.0
 40
4.8560849704617404
 50
94.719597201451776
 51
130.43456511642381
  0
ARC
  5
1898C
  8
0
 10
77.100442389271905
 20
187.1990146701707
 30
0.0
 40
4.8560849704617368
 50
49.565434883576131
 51
85.280402798548224
  0
LINE
  5
1898D
  8
0
 10
75.499998582268333
 20
188.39521101210269
 30
0.0
 11
75.499998582268333
 21
183.30000108573589
 31
0.0
  0
LINE
  5
1898E
  8
0
 10
79.499997375274276
 20
183.30000108573589
 30
0.0
 11
79.499997375274276
 21
188.39521101210269
 31
0.0
  0
LINE
  5
1898F
  8
0
 10
112.49842590921121
 20
186.11124298069629
 30
0.0
 11
112.49842590921121
 21
189.11124160978949
 31
0.0
  0
LINE
  5
189A1
  8
0
 10
68.999998564831898
 20
185.86135050747549
 30
0.0
 11
69.481531334782204
 21
185.86135050747549
 31
0.0
  0
LINE
  5
189A4
  8
0
 10
85.999998557381332
 20
185.86135050747549
 30
0.0
 11
85.518464622760391
 21
185.86135050747549
 31
0.0
  0
ARC
  5
189AA
  8
0
 10
69.482530820483632
 20
188.3942100240487
 30
0.0
 40
0.0010000010221093
 50
89.999999998371564
 51
179.99999996743111
  0
POLYLINE
  5
189AB
  8
0
 66
     1
 10
0.0
 20
0.0
 30
0.0
 70
   128
  0
VERTEX
  5
18DFB
  8
0
 10
68.999998564831913
 20
190.84768311864821
 30
0.0
  0
VERTEX
  5
18DFC
  8
0
 10
69.482531691901372
 20
190.8952086279167
 30
0.0
  0
SEQEND
  5
18DFD
  8
0
  0
LINE
  5
189AD
  8
0
 10
69.482531575227355
 20
188.39521101210269
 30
0.0
 11
85.517464615663258
 21
188.3952100250709
 31
0.0
  0
LINE
  5
189AE
  8
0
 10
69.481531334782204
 20
183.30000108573589
 30
0.0
 11
69.481531334782204
 21
188.39420890901241
 31
0.0
  0
LINE
  5
189B0
  8
0
 10
69.482531691901372
 20
190.8952086279167
 30
0.0
 11
85.517464498989256
 21
190.8952086279167
 31
0.0
  0
ARC
  5
189B2
  8
0
 10
85.517464615663286
 20
188.3942100240489
 30
0.0
 40
0.0010000010220525
 50
359.91808205217609
 51
90.000000001628436
  0
LINE
  5
189B3
  8
0
 10
85.518464622760391
 20
188.39420890901241
 30
0.0
 11
85.518464622760391
 21
183.30000108573589
 31
0.0
  0
LINE
  5
189C1
  8
0
 10
101.2502317623098
 20
186.11124298069629
 30
0.0
 11
112.49842590921121
 21
186.11124298069629
 31
0.0
  0
ARC
  5
189C2
  8
0
 10
101.25024335701031
 20
185.11129117150639
 30
0.0
 40
0.9999518092570832
 50
90.000664359424064
 51
150.0016612455415
  0
LINE
  5
189C3
  8
0
 10
97.353292426918927
 20
180.3612425038591
 30
0.0
 11
100.38424519159391
 21
185.6112419674173
 31
0.0
  0
ARC
  5
189C4
  8
0
 10
93.889275592039951
 20
182.36107116910699
 30
0.0
 40
3.9998409121703982
 50
286.14032442247623
 51
330.00151825700272
  0
LINE
  5
189C5
  8
0
 10
95.001194467544849
 20
182.5334033975378
 30
0.0
 11
97.644092080076518
 21
187.11124128196391
 31
0.0
  0
ARC
  5
189C6
  8
0
 10
101.10806918611161
 20
185.11145759004029
 30
0.0
 40
3.999784019871492
 50
90.000448203715194
 51
150.00179164606979
  0
LINE
  5
189C7
  8
0
 10
112.49842590921121
 20
189.11124160978949
 30
0.0
 11
101.10803789727881
 21
189.11124160978949
 31
0.0
  0
POLYLINE
  5
18A92
  8
0
 66
     1
 10
0.0
 20
0.0
 30
0.0
 70
   128
  0
VERTEX
  5
18DFE
  8
0
 10
85.9999976260587
 20
190.84768311864821
 30
0.0
  0
VERTEX
  5
18DFF
  8
0
 10
85.517464498989241
 20
190.8952086279167
 30
0.0
  0
SEQEND
  5
18E00
  8
0
  0
LINE
  5
18A93
  8
0
 10
80.116570115460576
 20
191.0048699984327
 30
0.0
 11
85.999998557381218
 21
191.0048699984327
 31
0.0
  0
LINE
  5
18A94
  8
0
 10
74.883482484713852
 20
191.00491470191631
 30
0.0
 11
68.999998564831799
 21
191.00491470191631
 31
0.0
  0
LINE
  5
18BAC
  8
0
 10
458.20641806546098
 20
189.11115577754629
 30
0.0
 11
458.20641806546098
 21
186.11115714845309
 31
0.0
  0
LINE
  5
18C10
  8
0
 10
476.81549748137058
 20
178.36115634379041
 30
0.0
 11
481.70349660329509
 21
178.36115634379041
 31
0.0
  0
ARC
  5
18C16
  8
0
 10
469.59677478856048
 20
185.1113717577972
 30
0.0
 40
3.9997840198714658
 50
29.998208353930131
 51
89.999551796284777
  0
LINE
  5
18C17
  8
0
 10
476.09170454285538
 20
181.86115598616249
 30
0.0
 11
473.06075189459568
 21
187.11115544972071
 31
0.0
  0
ARC
  5
18C18
  8
0
 10
476.95769100412627
 20
182.36109396094611
 30
0.0
 40
0.9999352627723092
 50
209.99803782734
 51
269.9999996005883
  0
LINE
  5
18C19
  8
0
 10
480.20481621450858
 20
181.36115869817391
 30
0.0
 11
476.95769099715602
 21
181.36115869817391
 31
0.0
  0
LINE
  5
18C1B
  8
0
 10
458.20641806546098
 20
186.11115714845309
 30
0.0
 11
469.45461221236241
 21
186.11115714845309
 31
0.0
  0
LINE
  5
18C1C
  8
0
 10
469.59680607739341
 20
189.11115577754629
 30
0.0
 11
458.20641806546098
 21
189.11115577754629
 31
0.0
  0
ARC
  5
18C1D
  8
0
 10
469.45460061766192
 20
185.11120533926331
 30
0.0
 40
0.9999518092570598
 50
29.998338754458501
 51
89.99933564057595
  0
LINE
  5
18C1E
  8
0
 10
473.35155154775327
 20
180.3611566716159
 30
0.0
 11
470.32059878307831
 21
185.6111561351741
 31
0.0
  0
ARC
  5
18C20
  8
0
 10
476.81553282306311
 20
182.3609475846111
 30
0.0
 40
3.9997912409768781
 50
209.99826807672761
 51
269.99949374112288
  0
LINE
  5
18C4A
  8
0
 10
477.70349641330529
 20
178.36115634379041
 30
0.0
 11
477.70349641330529
 21
159.01000006590041
 31
0.0
  0
LINE
  5
18C4B
  8
0
 10
476.20484774932248
 20
178.40805070863451
 30
0.0
 11
476.2048477493226
 21
167.29999846313149
 31
0.0
  0
LINE
  5
18C4C
  8
0
 10
475.70484778378147
 20
178.51846027625061
 30
0.0
 11
475.70484778378147
 21
167.79999947641051
 31
0.0
  0
LINE
  5
18CC0
  8
0
 10
485.1834965590387
 20
167.29994817171249
 30
0.0
 11
501.22042984701687
 21
167.29994817171249
 31
0.0
  0
LINE
  5
18CC1
  8
0
 10
490.95638102851808
 20
177.15118930949961
 30
0.0
 11
490.95638102851802
 21
176.8398652831093
 31
0.0
  0
LINE
  5
18CC2
  8
0
 10
491.2063815351575
 20
178.16853683938379
 30
0.0
 11
491.2063815351575
 21
177.84895329270509
 31
0.0
  0
LINE
  5
18CC3
  8
0
 10
495.20638032816339
 20
177.5447200099006
 30
0.0
 11
495.20638032816339
 21
177.7829056664097
 31
0.0
  0
ARC
  5
18CC4
  8
0
 10
491.90631255023862
 20
183.61126734084931
 30
0.0
 40
5.8084816370516794
 50
257.25468208475371
 51
267.69002569528379
  0
POLYLINE
  5
18CC5
  8
0
 66
     1
 10
0.0
 20
0.0
 30
0.0
 70
   128
  0
VERTEX
  5
18E01
  8
0
 10
496.04841141961509
 20
177.2349509457126
 30
0.0
  0
VERTEX
  5
18E02
  8
0
 10
495.90105942450458
 20
177.3836645344272
 30
0.0
  0
VERTEX
  5
18E03
  8
0
 10
495.68380421958858
 20
177.46362044010311
 30
0.0
  0
VERTEX
  5
18E04
  8
0
 10
495.11635682545602
 20
177.56001232657579
 30
0.0
  0
VERTEX
  5
18E05
  8
0
 10
494.50274935923511
 20
177.6156793395057
 30
0.0
  0
VERTEX
  5
18E06
  8
0
 10
493.88592510484148
 20
177.65971599612391
 30
0.0
  0
VERTEX
  5
18E07
  8
0
 10
493.11364634893829
 20
177.7084427932277
 30
0.0
  0
VERTEX
  5
18E08
  8
0
 10
492.17843643389642
 20
177.76954127941281
 30
0.0
  0
VERTEX
  5
18E09
  8
0
 10
491.7004928644746
 20
177.80512152705339
 30
0.0
  0
VERTEX
  5
18E0A
  8
0
 10
491.67219742201257
 20
177.8075057128444
 30
0.0
  0
SEQEND
  5
18E0B
  8
0
  0
ARC
  5
18CC7
  8
0
 10
495.16067045415929
 20
179.51928387566281
 30
0.0
 40
1.9125141332966891
 50
271.36952309064242
 51
289.208558614011
  0
ARC
  5
18CC8
  8
0
 10
495.61559349245039
 20
214.57585410626021
 30
0.0
 40
37.713575751099853
 50
262.41908169698269
 51
269.58579740500358
  0
ARC
  5
18CC9
  8
0
 10
495.70750662429828
 20
178.0781911870229
 30
0.0
 40
0.3741323288946683
 50
282.72263072034337
 51
84.283423527926288
  0
ARC
  5
18CCA
  8
0
 10
483.47453331304808
 20
77.031136228949094
 30
0.0
 40
101.432515886994
 50
83.026260794944918
 51
85.976187687147331
  0
ARC
  5
18CCB
  8
0
 10
490.7357023490257
 20
177.57101210195111
 30
0.0
 40
0.3909482025766457
 50
106.7773382424258
 51
255.8577786664805
  0
POLYLINE
  5
18CCC
  8
0
 66
     1
 10
0.0
 20
0.0
 30
0.0
 70
   128
  0
VERTEX
  5
18E0C
  8
0
 10
491.2063815351575
 20
178.0480253556743
 30
0.0
  0
VERTEX
  5
18E0D
  8
0
 10
491.10840453766281
 20
178.0379223683849
 30
0.0
  0
VERTEX
  5
18E0E
  8
0
 10
490.75043859891588
 20
177.9825869062916
 30
0.0
  0
VERTEX
  5
18E0F
  8
0
 10
490.62285392545169
 20
177.94531910214579
 30
0.0
  0
VERTEX
  5
18E10
  8
0
 10
490.62285392545169
 20
177.94531910214579
 30
0.0
  0
SEQEND
  5
18E11
  8
0
  0
ARC
  5
18CCD
  8
0
 10
490.68491163657518
 20
178.52047105525381
 30
0.0
 40
0.320564281888697
 50
192.61451373419661
 51
253.18169501238981
  0
LINE
  5
18CCE
  8
0
 10
496.18874683044839
 20
176.91728426609191
 30
0.0
 11
496.04841141961509
 21
177.2349509457126
 31
0.0
  0
LINE
  5
18CCF
  8
0
 10
495.40331779979158
 20
176.8391947308555
 30
0.0
 11
495.57900550445351
 21
176.47673385476401
 31
0.0
  0
LINE
  5
18CD0
  8
0
 10
496.12070067785669
 20
172.01009346637881
 30
0.0
 11
496.25160551629949
 21
173.29881294164809
 31
0.0
  0
LINE
  5
18CD1
  8
0
 10
495.50544477067882
 20
173.3746076980606
 30
0.0
 11
495.37453993223602
 21
172.08588449750101
 31
0.0
  0
ARC
  5
18CD2
  8
0
 10
478.99757200630279
 20
175.31155802241361
 30
0.0
 40
16.622321485697721
 50
353.39804230131449
 51
4.0195619224193271
  0
ARC
  5
18CD3
  8
0
 10
483.88540960366419
 20
175.0193989685028
 30
0.0
 40
12.46193484704909
 50
352.58524562973099
 51
8.3375968926877881
  0
LINE
  5
18CD7
  8
0
 10
481.70349660329509
 20
169.3012970546261
 30
0.0
 11
482.683496614918
 21
169.3012970546261
 31
0.0
  0
LINE
  5
18CDA
  8
0
 10
503.72043118812138
 20
171.30129738245159
 30
0.0
 11
504.18349594809109
 21
171.30129738245159
 31
0.0
  0
LINE
  5
18CDB
  8
0
 10
504.18349594809109
 20
171.50129704270509
 30
0.0
 11
504.70619515515858
 21
171.50129704270509
 31
0.0
  0
LINE
  5
18CE8
  8
0
 10
503.72043118812138
 20
178.45046287868169
 30
0.0
 11
503.72043118812149
 21
158.99994737002999
 31
0.0
  0
LINE
  5
18CE9
  8
0
 10
501.22042984701687
 20
178.4747536340729
 30
0.0
 11
501.22042984701687
 21
158.99994737002999
 31
0.0
  0
LINE
  5
18CEA
  8
0
 10
485.1834965590387
 20
159.2505633433907
 30
0.0
 11
485.1834965590387
 21
178.45046287868169
 31
0.0
  0
LINE
  5
18CEB
  8
0
 10
482.68349661491811
 20
158.99994737002999
 30
0.0
 11
482.683496614918
 21
178.45046287868169
 31
0.0
  0
LINE
  5
18CF0
  8
0
 10
503.72043118812138
 20
166.37672065291551
 30
0.0
 11
501.22042984701687
 21
166.37672065291551
 31
0.0
  0
LINE
  5
18CF3
  8
0
 10
482.683496614918
 20
166.37672065291551
 30
0.0
 11
485.1834965590387
 21
166.37672065291551
 31
0.0
  0
LINE
  5
18CFA
  8
0
 10
493.20638186298299
 20
176.8398652831093
 30
0.0
 11
495.40163617803529
 21
176.83986528310919
 31
0.0
  0
LINE
  5
18CFB
  8
0
 10
490.95638102851802
 20
176.8398652831093
 30
0.0
 11
493.20638186298299
 21
176.8398652831093
 31
0.0
  0
LINE
  5
18D00
  8
0
 10
495.34295692108458
 20
176.86326383147389
 30
0.0
 11
495.40331779979158
 21
176.8391947308555
 31
0.0
  0
ARC
  5
18D01
  8
0
 10
495.84565212750681
 20
176.76633880305741
 30
0.0
 40
0.3748313060529529
 50
269.90905095815782
 51
23.74722703007896
  0
POLYLINE
  5
18D02
  8
0
 66
     1
 10
0.0
 20
0.0
 30
0.0
 70
   128
  0
VERTEX
  5
18E12
  8
0
 10
495.57900550445351
 20
176.47673385476401
 30
0.0
  0
VERTEX
  5
18E13
  8
0
 10
495.70165953598911
 20
176.4199952641502
 30
0.0
  0
VERTEX
  5
18E14
  8
0
 10
495.8450571354478
 20
176.39150796923789
 30
0.0
  0
SEQEND
  5
18E15
  8
0
  0
POLYLINE
  5
18D03
  8
0
 66
     1
 10
0.0
 20
0.0
 30
0.0
 70
   128
  0
VERTEX
  5
18E16
  8
0
 10
495.74480584822589
 20
172.40939243230969
 30
0.0
  0
VERTEX
  5
18E17
  8
0
 10
495.88846980594087
 20
172.3818811634556
 30
0.0
  0
VERTEX
  5
18E18
  8
0
 10
496.01069099269802
 20
172.30353830847889
 30
0.0
  0
VERTEX
  5
18E19
  8
0
 10
496.09286158345628
 20
172.1862922469154
 30
0.0
  0
VERTEX
  5
18E1A
  8
0
 10
496.12247205339372
 20
172.0479871192947
 30
0.0
  0
VERTEX
  5
18E1B
  8
0
 10
496.09501480124879
 20
171.9096857169643
 30
0.0
  0
VERTEX
  5
18E1C
  8
0
 10
496.01467146538192
 20
171.79243593011051
 30
0.0
  0
VERTEX
  5
18E1D
  8
0
 10
495.89367031119758
 20
171.71409307513389
 30
0.0
  0
VERTEX
  5
18E1E
  8
0
 10
495.75043476186693
 20
171.68658553156999
 30
0.0
  0
VERTEX
  5
18E1F
  8
0
 10
495.60677080415178
 20
171.71409307513389
 30
0.0
  0
VERTEX
  5
18E20
  8
0
 10
495.48454961739469
 20
171.79243593011051
 30
0.0
  0
VERTEX
  5
18E21
  8
0
 10
495.40237902663642
 20
171.9096857169643
 30
0.0
  0
VERTEX
  5
18E22
  8
0
 10
495.3727685566991
 20
172.0479871192947
 30
0.0
  0
VERTEX
  5
18E23
  8
0
 10
495.40022580884391
 20
172.1862922469154
 30
0.0
  0
VERTEX
  5
18E24
  8
0
 10
495.48057100735599
 20
172.30353830847889
 30
0.0
  0
VERTEX
  5
18E25
  8
0
 10
495.60157029889518
 20
172.3818811634556
 30
0.0
  0
VERTEX
  5
18E26
  8
0
 10
495.74480584822589
 20
172.40939243230969
 30
0.0
  0
SEQEND
  5
18E27
  8
0
  0
ARC
  5
18D04
  8
0
 10
495.87755114089339
 20
173.3271217607298
 30
0.0
 40
0.3751240661413206
 50
355.67204696549658
 51
172.72757122644251
  0
LINE
  5
18D07
  8
0
  6
CENTER
 62
     3
 10
503.72043118812138
 20
178.3611881593242
 30
0.0
 11
504.27256577648222
 21
178.3611881593242
 31
0.0
  0
LINE
  5
18D08
  8
0
  6
CENTER
 62
     3
 10
504.27256577648222
 20
178.3611881593242
 30
0.0
 11
504.27256577648222
 21
178.45046287868169
 31
0.0
  0
LINE
  5
18D09
  8
0
 10
504.18349594809109
 20
171.30129738245159
 30
0.0
 11
504.18349594809109
 21
178.3611881593242
 31
0.0
  0
ARC
  5
18D0B
  8
0
 10
485.7370303613165
 20
159.73654676876211
 30
0.0
 40
0.7365999999999531
 50
221.2820081401677
 51
270.0
  0
ENDSEC
  0
EOF
