  0
SECTION
  2
HEADER
  9
$ACADVER
  1
AC1009
  9
$INSBASE
 10
0.0
 20
0.0
 30
0.0
  9
$EXTMIN
 10
0.0
 20
-2.960436562073669
 30
0.0
  9
$EXTMAX
 10
358.05960688749531
 20
362.00727814034008
 30
0.0
  9
$LIMMIN
 10
0.0
 20
0.0
  9
$LIMMAX
 10
420.0
 20
297.0
  9
$ORTHOMODE
 70
     1
  9
$REGENMODE
 70
     1
  9
$FILLMODE
 70
     1
  9
$QTEXTMODE
 70
     0
  9
$MIRRTEXT
 70
     0
  9
$DRAGMODE
 70
     2
  9
$LTSCALE
 40
10.0
  9
$OSMODE
 70
    37
  9
$ATTMODE
 70
     1
  9
$TEXTSIZE
 40
2.5
  9
$TRACEWID
 40
1.0
  9
$TEXTSTYLE
  7
STANDARD
  9
$CLAYER
  8
0
  9
$CELTYPE
  6
BYLAYER
  9
$CECOLOR
 62
   256
  9
$DIMSCALE
 40
1.0
  9
$DIMASZ
 40
2.5
  9
$DIMEXO
 40
0.625
  9
$DIMDLI
 40
3.75
  9
$DIMRND
 40
0.0
  9
$DIMDLE
 40
0.0
  9
$DIMEXE
 40
1.25
  9
$DIMTP
 40
0.0
  9
$DIMTM
 40
0.0
  9
$DIMTXT
 40
2.5
  9
$DIMCEN
 40
2.5
  9
$DIMTSZ
 40
0.0
  9
$DIMTOL
 70
     0
  9
$DIMLIM
 70
     0
  9
$DIMTIH
 70
     0
  9
$DIMTOH
 70
     0
  9
$DIMSE1
 70
     0
  9
$DIMSE2
 70
     0
  9
$DIMTAD
 70
     1
  9
$DIMZIN
 70
     8
  9
$DIMBLK
  1

  9
$DIMASO
 70
     1
  9
$DIMSHO
 70
     1
  9
$DIMPOST
  1

  9
$DIMAPOST
  1

  9
$DIMALT
 70
     0
  9
$DIMALTD
 70
     3
  9
$DIMALTF
 40
0.03937007874016
  9
$DIMLFAC
 40
1.0
  9
$DIMTOFL
 70
     1
  9
$DIMTVP
 40
0.0
  9
$DIMTIX
 70
     0
  9
$DIMSOXD
 70
     0
  9
$DIMSAH
 70
     0
  9
$DIMBLK1
  1

  9
$DIMBLK2
  1

  9
$DIMSTYLE
  2
ISO-25
  9
$DIMCLRD
 70
     0
  9
$DIMCLRE
 70
     0
  9
$DIMCLRT
 70
     0
  9
$DIMTFAC
 40
1.0
  9
$DIMGAP
 40
0.625
  9
$LUNITS
 70
     2
  9
$LUPREC
 70
     1
  9
$SKETCHINC
 40
1.0
  9
$FILLETRAD
 40
0.0
  9
$AUNITS
 70
     0
  9
$AUPREC
 70
     1
  9
$MENU
  1
.
  9
$ELEVATION
 40
0.0
  9
$PELEVATION
 40
0.0
  9
$THICKNESS
 40
0.0
  9
$LIMCHECK
 70
     0
  9
$BLIPMODE
 70
     0
  9
$CHAMFERA
 40
0.0
  9
$CHAMFERB
 40
0.0
  9
$SKPOLY
 70
     0
  9
$TDCREATE
 40
2454083.4444627082
  9
$TDUPDATE
 40
2459268.6310066781
  9
$TDINDWG
 40
2.1695309259000002
  9
$TDUSRTIMER
 40
2.1695309259000002
  9
$USRTIMER
 70
     1
  9
$ANGBASE
 50
0.0
  9
$ANGDIR
 70
     0
  9
$PDMODE
 70
     0
  9
$PDSIZE
 40
0.0
  9
$PLINEWID
 40
0.0
  9
$COORDS
 70
     1
  9
$SPLFRAME
 70
     0
  9
$SPLINETYPE
 70
     6
  9
$SPLINESEGS
 70
     8
  9
$ATTDIA
 70
     0
  9
$ATTREQ
 70
     1
  9
$HANDLING
 70
     1
  9
$HANDSEED
  5
17F75
  9
$SURFTAB1
 70
     6
  9
$SURFTAB2
 70
     6
  9
$SURFTYPE
 70
     6
  9
$SURFU
 70
     6
  9
$SURFV
 70
     6
  9
$UCSNAME
  2

  9
$UCSORG
 10
0.0
 20
0.0
 30
0.0
  9
$UCSXDIR
 10
1.0
 20
0.0
 30
0.0
  9
$UCSYDIR
 10
0.0
 20
1.0
 30
0.0
  9
$PUCSNAME
  2

  9
$PUCSORG
 10
0.0
 20
0.0
 30
0.0
  9
$PUCSXDIR
 10
1.0
 20
0.0
 30
0.0
  9
$PUCSYDIR
 10
0.0
 20
1.0
 30
0.0
  9
$USERI1
 70
     0
  9
$USERI2
 70
     0
  9
$USERI3
 70
     0
  9
$USERI4
 70
     0
  9
$USERI5
 70
     0
  9
$USERR1
 40
0.0
  9
$USERR2
 40
0.0
  9
$USERR3
 40
0.0
  9
$USERR4
 40
0.0
  9
$USERR5
 40
0.0
  9
$WORLDVIEW
 70
     1
  9
$SHADEDGE
 70
     3
  9
$SHADEDIF
 70
    70
  9
$TILEMODE
 70
     1
  9
$MAXACTVP
 70
    64
  9
$PLIMCHECK
 70
     0
  9
$PEXTMIN
 10
0.0
 20
0.0
 30
0.0
  9
$PEXTMAX
 10
0.0
 20
0.0
 30
0.0
  9
$PLIMMIN
 10
0.0
 20
0.0
  9
$PLIMMAX
 10
12.0
 20
9.0
  9
$UNITMODE
 70
     0
  9
$VISRETAIN
 70
     1
  9
$PLINEGEN
 70
     0
  9
$PSLTSCALE
 70
     1
  0
ENDSEC
  0
SECTION
  2
TABLES
  0
TABLE
  2
VPORT
 70
     1
  0
VPORT
  2
*ACTIVE
 70
     0
 10
0.0
 20
0.0
 11
1.0
 21
1.0
 12
375.05997409098262
 22
179.5234216388898
 13
0.0
 23
0.0
 14
10.0
 24
10.0
 15
10.0
 25
10.0
 16
0.0
 26
0.0
 36
1.0
 17
0.0
 27
0.0
 37
0.0
 40
368.15922347765729
 41
2.415644171779141
 42
50.0
 43
0.0
 44
0.0
 50
0.0
 51
0.0
 71
     0
 72
  1000
 73
     1
 74
     3
 75
     0
 76
     0
 77
     0
 78
     0
  0
ENDTAB
  0
TABLE
  2
LTYPE
 70
     2
  0
LTYPE
  2
CONTINUOUS
 70
     0
  3
Solid line
 72
    65
 73
     0
 40
0.0
  0
LTYPE
  2
CENTER
 70
     0
  3
____ _ ____ _ ____ _ ____ _ ____ _ ____ _ ____
 72
    65
 73
     4
 40
2.0
 49
1.25
 49
-0.25
 49
0.25
 49
-0.25
  0
ENDTAB
  0
TABLE
  2
LAYER
 70
     4
  0
LAYER
  2
0
 70
     0
 62
     7
  6
CONTINUOUS
  0
LAYER
  2
DEFPOINTS
 70
     0
 62
     7
  6
CONTINUOUS
  0
LAYER
  2
1
 70
     0
 62
     1
  6
CENTER
  0
LAYER
  2
3
 70
     0
 62
     3
  6
CONTINUOUS
  0
ENDTAB
  0
TABLE
  2
STYLE
 70
     2
  0
STYLE
  2
STANDARD
 70
     0
 40
0.0
 41
1.0
 50
0.0
 71
     0
 42
2.5
  3
txt
  4

  0
STYLE
  2
STANDARD1
 70
     0
 40
0.0
 41
1.0
 50
0.0
 71
     0
 42
3.0
  3
txt
  4

  0
ENDTAB
  0
TABLE
  2
VIEW
 70
     4
  0
VIEW
  2
OLE1
 70
     0
 40
17.336203194614189
 10
1078.262703908531
 20
377.67444865954309
 41
31.074911629702001
 11
0.0
 21
0.0
 31
1.0
 12
0.0
 22
0.0
 32
0.0
 42
50.0
 43
0.0
 44
0.0
 50
0.0
 71
     0
  0
VIEW
  2
OLE2
 70
     0
 40
50.523198253338478
 10
1031.767738941523
 20
579.92835671582054
 41
90.562155008667546
 11
0.0
 21
0.0
 31
1.0
 12
0.0
 22
0.0
 32
0.0
 42
50.0
 43
0.0
 44
0.0
 50
0.0
 71
     0
  0
VIEW
  2
OLE3
 70
     0
 40
19.902492574755801
 10
485.89971154156422
 20
299.78832697703888
 41
25.268360670890939
 11
0.0
 21
0.0
 31
1.0
 12
0.0
 22
0.0
 32
0.0
 42
50.0
 43
0.0
 44
0.0
 50
0.0
 71
     0
  0
VIEW
  2
OLE4
 70
     0
 40
92.481941524941249
 10
629.0561467662684
 20
101.6109246611972
 41
152.88420958341851
 11
0.0
 21
0.0
 31
1.0
 12
0.0
 22
0.0
 32
0.0
 42
50.0
 43
0.0
 44
0.0
 50
0.0
 71
     0
  0
ENDTAB
  0
TABLE
  2
UCS
 70
     0
  0
ENDTAB
  0
TABLE
  2
APPID
 70
    45
  0
APPID
  2
ACAD
 70
     0
  0
APPID
  2
_FTCNV
 70
     0
  0
APPID
  2
DCO15
 70
     0
  0
APPID
  2
GENIUS_GENOREF_13
 70
     0
  0
APPID
  2
GENIUS_GENOENT_13
 70
     0
  0
APPID
  2
GENIUS_GENBH_13
 70
     0
  0
APPID
  2
GENIUS_GENOBJ_13
 70
     0
  0
APPID
  2
GENIUS_GENODEF_13
 70
     0
  0
APPID
  2
GENIUS_GENOLIS_13
 70
     0
  0
APPID
  2
GENIUS_GENOBJ-NBEHI-BHF_13
 70
     0
  0
APPID
  2
GENIUS_GENOBJ-NBEHI-BHB_13
 70
     0
  0
APPID
  2
GENIUS_GENOBJ-F-PART_13
 70
     0
  0
APPID
  2
GENIUS_GEFSTDP_13
 70
     0
  0
APPID
  2
GENIUS_GENOBJ-N-RSSYM_13
 70
     0
  0
APPID
  2
GENIUS_GENSYMENT_13
 70
     0
  0
APPID
  2
GENIUS_GENOBJ-N-TIT_13
 70
     0
  0
APPID
  2
GENIUS_GENTITLE_13
 70
     0
  0
APPID
  2
GENIUS_GENZVEED_13
 70
     0
  0
APPID
  2
GENIUS_GENOBJ-N-LEADER_13
 70
     0
  0
APPID
  2
GENIUS_GENOBJ-N-FIL_13
 70
     0
  0
APPID
  2
GENIUS_GENOBJ-N-SEC_13
 70
     0
  0
APPID
  2
GENIUS_GENOBJ-N-CRS_13
 70
     0
  0
APPID
  2
GENIUS_GENOBJ-N-ZOO_13
 70
     0
  0
APPID
  2
GENIUS_GENZOO_13
 70
     0
  0
APPID
  2
GENIUS_GENOBJ-F-TOL_13
 70
     0
  0
APPID
  2
GENIUS_GENFIL_13
 70
     0
  0
APPID
  2
GENIUS_GENOBJ-N-CHA_13
 70
     0
  0
APPID
  2
_CALL_MAC$
 70
     0
  0
APPID
  2
ASM_BASE
 70
     0
  0
APPID
  2
ASM_EXPLO_VER_2_00
 70
     0
  0
APPID
  2
ASM_CADM_VER_12_00
 70
     0
  0
APPID
  2
ASM_BASEFORO
 70
     0
  0
APPID
  2
ASM_BASETRAVI
 70
     0
  0
APPID
  2
ASM_BASETRAVI1
 70
     0
  0
APPID
  2
ASM_GRUPPI
 70
     0
  0
APPID
  2
ASM_CADM_ALBERO
 70
     0
  0
APPID
  2
ASM_GOLE
 70
     0
  0
APPID
  2
ACAD_MLEADERVER
 70
     0
  0
APPID
  2
ACAD_EXEMPT_FROM_CAD_STANDARDS
 70
     0
  0
APPID
  2
ACAD_DSTYLE_DIMJAG
 70
     0
  0
APPID
  2
ACAD_DSTYLE_DIMTALN
 70
     0
  0
APPID
  2
ACAD_NAV_VCDISPLAY
 70
     0
  0
APPID
  2
ACADANNOPO
 70
     0
  0
APPID
  2
ACADANNOMONITORALERTICONDI
 70
     0
  0
APPID
  2
ACAD_DSTYLE_DIMRADIAL_EXTENSION
 70
     0
  0
ENDTAB
  0
TABLE
  2
DIMSTYLE
 70
     2
  0
DIMSTYLE
  2
ISO-25
 70
     0
  3

  4

  5

  6

  7

 40
1.0
 41
2.5
 42
0.625
 43
3.75
 44
1.25
 45
0.0
 46
0.0
 47
0.0
 48
0.0
140
2.5
141
2.5
142
0.0
143
0.03937007874016
144
1.0
145
0.0
146
1.0
147
0.625
 71
     0
 72
     0
 73
     0
 74
     0
 75
     0
 76
     0
 77
     1
 78
     8
170
     0
171
     3
172
     1
173
     0
174
     0
175
     0
176
     0
177
     0
178
     0
  0
DIMSTYLE
  2
STANDARD
 70
     0
  3

  4

  5

  6

  7

 40
1.0
 41
0.18
 42
0.0625
 43
0.38
 44
0.18
 45
0.0
 46
0.0
 47
0.0
 48
0.0
140
0.18
141
0.09
142
0.0
143
25.399999999999999
144
1.0
145
0.0
146
1.0
147
0.09
 71
     0
 72
     0
 73
     1
 74
     1
 75
     0
 76
     0
 77
     0
 78
     0
170
     0
171
     2
172
     0
173
     0
174
     0
175
     0
176
     0
177
     0
178
     0
  0
ENDTAB
  0
ENDSEC
  0
SECTION
  2
BLOCKS
  0
BLOCK
  8
0
  2
$MODEL_SPACE
 70
     0
 10
0.0
 20
0.0
 30
0.0
  3
$MODEL_SPACE
  1

  0
ENDBLK
  5
21
  8
0
  0
BLOCK
 67
     1
  8
0
  2
$PAPER_SPACE
 70
     0
 10
0.0
 20
0.0
 30
0.0
  3
$PAPER_SPACE
  1

  0
ENDBLK
  5
53
 67
     1
  8
0
  0
ENDSEC
  0
SECTION
  2
ENTITIES
  0
TEXT
  5
C317
  8
0
 62
     3
 10
0.0
 20
0.0
 30
0.0
 40
10.0
  1
ST-VTC202TU
  7
STANDARD1
  0
CIRCLE
  5
168C5
  8
0
 10
232.48289873519801
 20
194.7953651329818
 30
0.0
 40
4.0000000000000284
  0
ARC
  5
168C6
  8
0
 10
212.92529873900801
 20
244.47727324691351
 30
0.0
 40
1.5300000000000129
 50
89.999999999996746
 51
179.99999999999349
  0
ARC
  5
168C8
  8
0
 10
221.86529873900801
 20
244.4772732469128
 30
0.0
 40
1.5299999999999849
 50
359.99999999999352
 51
89.999999999996746
  0
ARC
  5
168CB
  8
0
 10
212.9252987390079
 20
242.5372732469134
 30
0.0
 40
1.5300000000000129
 50
179.99999999999349
 51
269.99999999999682
  0
ARC
  5
168CC
  8
0
 10
221.8652987390079
 20
242.53727324691269
 30
0.0
 40
1.5300000000000129
 50
269.99999999999682
 51
359.99999999999352
  0
LINE
  5
168CD
  8
0
 10
211.39529908085811
 20
244.47727035254141
 30
0.0
 11
211.3952973906496
 21
237.00727102833051
 31
0.0
  0
LINE
  5
168CE
  8
0
 10
223.39529873838751
 20
244.47727524447339
 30
0.0
 11
223.39529880078661
 21
237.00727451567539
 31
0.0
  0
LINE
  5
168D1
  8
0
 10
211.3952973906496
 20
237.00727102833059
 30
0.0
 11
223.39529880078661
 21
237.00727451567539
 31
0.0
  0
CIRCLE
  5
168D6
  8
0
 10
217.39529873900361
 20
212.7451651329232
 30
0.0
 40
4.0000000000000187
  0
CIRCLE
  5
168D7
  8
0
 10
217.3952987390023
 20
179.70776513292299
 30
0.0
 40
3.9999999999999978
  0
POLYLINE
  5
168D9
  8
0
 66
     1
 10
0.0
 20
0.0
 30
0.0
 70
   128
  0
VERTEX
  5
17EB8
  8
0
 10
207.7186192392769
 20
200.91196147846071
 30
0.0
  0
VERTEX
  5
17EB9
  8
0
 10
207.7432545840206
 20
200.99912582086409
 30
0.0
  0
VERTEX
  5
17EBA
  8
0
 10
207.81689798528581
 20
201.08631996558989
 30
0.0
  0
VERTEX
  5
17EBB
  8
0
 10
208.08416334981351
 20
201.2508325104603
 30
0.0
  0
SEQEND
  5
17EBC
  8
0
  0
ARC
  5
168DB
  8
0
 10
209.4187504361893
 20
213.6266870369237
 30
0.0
 40
1.7386608415030269
 50
190.3130893437895
 51
247.85285250557089
  0
LINE
  5
168DD
  8
0
 10
212.39529986620741
 20
193.83505505323379
 30
0.0
 11
212.36530607635399
 21
194.77843305217121
 31
0.0
  0
LINE
  5
168DE
  8
0
 10
212.36530607635399
 20
194.77843305217121
 30
0.0
 11
212.361117918736
 21
199.754431826342
 31
0.0
  0
ARC
  5
168DF
  8
0
 10
210.86111810823519
 20
199.7531679002783
 30
0.0
 40
1.5
 50
0.0482256940781959
 51
90.048225694077388
  0
ARC
  5
168E0
  8
0
 10
210.9764879040477
 20
213.5181698826305
 30
0.0
 40
1.500000000000113
 50
270.04822569407742
 51
341.06300005247368
  0
LINE
  5
168E1
  8
0
 10
208.08416334981351
 20
201.2508325104603
 30
0.0
 11
210.85985573077821
 21
201.25316826747749
 31
0.0
  0
LINE
  5
168E2
  8
0
 10
210.97774999285369
 20
212.01816944526519
 30
0.0
 11
208.7632986723842
 21
212.01630680011601
 31
0.0
  0
LINE
  5
168E3
  8
0
 10
207.70817911321549
 20
213.31541983531801
 30
0.0
 11
210.70817867363121
 21
213.3179455821404
 31
0.0
  0
LINE
  5
168E5
  8
0
 10
210.71822303579691
 20
200.25304623150689
 30
0.0
 11
210.71881996536879
 21
201.25304905818791
 31
0.0
  0
ARC
  5
168E7
  8
0
 10
215.70807037444831
 20
213.4482690745898
 30
0.0
 40
7.999999998364177
 50
114.9037275005894
 51
180.04822569407901
  0
ARC
  5
168E8
  8
0
 10
215.70807037444831
 20
213.4482690745898
 30
0.0
 40
4.9999999973141662
 50
132.28201381814591
 51
180.04822569407901
  0
LINE
  5
168E9
  8
0
 10
210.7080725028577
 20
213.4440615599045
 30
0.0
 11
210.70927307843229
 21
212.01794627913171
 31
0.0
  0
LINE
  5
168EA
  8
0
 10
207.7191761701765
 20
200.2505250100979
 30
0.0
 11
207.70807294244199
 21
213.4415358130822
 31
0.0
  0
LINE
  5
168EB
  8
0
 10
207.7191761701765
 20
200.2505250100979
 30
0.0
 11
210.71917479926969
 21
200.25304703162999
 31
0.0
  0
ARC
  5
168FC
  8
0
 10
217.39529873900281
 20
179.70776513292321
 30
0.0
 40
5.0000000000000453
 50
179.99999999999349
 51
359.99999999999352
  0
LINE
  5
168FD
  8
0
 10
222.3953002967896
 20
237.00727312747381
 30
0.0
 11
222.39529863611671
 21
179.70776542691209
 31
0.0
  0
LINE
  5
168FE
  8
0
 10
212.39529838290099
 20
179.7077647658902
 30
0.0
 11
212.39530439910939
 21
237.0072738129746
 31
0.0
  0
CIRCLE
  5
16905
  8
0
 10
232.48289873519781
 20
179.7077651329819
 30
0.0
 40
2.9999999999999978
  0
LINE
  5
1690C
  8
0
 10
237.30889903450631
 20
166.00570569867281
 30
0.0
 11
211.80729856783771
 21
166.00570569867281
 31
0.0
  0
LINE
  5
1690D
  8
0
 10
237.30889903450631
 20
169.00570572474979
 30
0.0
 11
211.80729856783771
 21
169.00570572474979
 31
0.0
  0
ARC
  5
1690E
  8
0
 10
217.39529873906221
 20
179.7077651329819
 30
0.0
 40
5.5879999964609786
 50
153.55772119876099
 51
180.0
  0
LINE
  5
1690F
  8
0
 10
222.39529899230399
 20
191.99757890742259
 30
0.0
 11
229.1944467935177
 21
198.3275543724188
 31
0.0
  0
ARC
  5
16910
  8
0
 10
232.48289873519781
 20
194.79536513298191
 30
0.0
 40
4.8260000000001346
 50
0.0
 51
132.95339137949401
  0
LINE
  5
16911
  8
0
 10
237.30889903450631
 20
194.79536449657769
 30
0.0
 11
237.30889903450631
 21
190.855706093181
 31
0.0
  0
ARC
  5
16912
  8
0
 10
238.8088987351978
 20
190.85570568298169
 30
0.0
 40
1.4999999999999709
 50
180.0
 51
270.0
  0
LINE
  5
16913
  8
0
 10
242.0588928281727
 20
189.35570491598929
 30
0.0
 11
238.8088983490529
 21
189.35570491598929
 31
0.0
  0
ARC
  5
16915
  8
0
 10
238.8088987351978
 20
171.85570568298201
 30
0.0
 40
1.4999999999999569
 50
90.0
 51
180.0
  0
LINE
  5
16916
  8
0
 10
237.30889903450631
 20
171.85570577280609
 30
0.0
 11
237.3088990345062
 21
166.00570569867281
 31
0.0
  0
LINE
  5
16917
  8
0
 10
211.80729856783771
 20
166.00570569867281
 30
0.0
 11
211.80729856783771
 21
179.707765561808
 31
0.0
  0
LINE
  5
16918
  8
0
 10
242.0588928281727
 20
173.35570555301399
 30
0.0
 11
242.0588928281727
 21
189.35570491598929
 31
0.0
  0
LINE
  5
16919
  8
0
 10
238.8082743122815
 20
173.35570555301399
 30
0.0
 11
242.0588928281727
 21
173.35570555301399
 31
0.0
  0
LINE
  5
1695C
  8
0
 10
222.39529924387131
 20
200.67760164395341
 30
0.0
 11
232.9943851574721
 21
199.65928791211931
 31
0.0
  0
ARC
  5
1695D
  8
0
 10
232.5328484561052
 20
194.85540719539341
 30
0.0
 40
4.8260000001598851
 50
351.74941964956139
 51
84.512104611930496
  0
ARC
  5
16990
  8
0
 10
228.98289873519801
 20
322.00763047543762
 30
0.0
 40
0.5000000000000285
 50
180.0
 51
270.0
  0
ARC
  5
16991
  8
0
 10
235.98289873519801
 20
322.00763047543768
 30
0.0
 40
0.5
 50
270.0
 51
0.0
  0
ARC
  5
16992
  8
0
 10
235.98289873519789
 20
335.51563047543772
 30
0.0
 40
0.5
 50
270.0
 51
0.0
  0
ARC
  5
16993
  8
0
 10
228.98289873519789
 20
335.5156304754376
 30
0.0
 40
0.5
 50
180.0
 51
270.0
  0
ARC
  5
16994
  8
0
 10
235.98289873519789
 20
336.01563047543772
 30
0.0
 40
0.5
 50
0.0
 51
90.0
  0
ARC
  5
16995
  8
0
 10
228.98289873519789
 20
336.0156304754376
 30
0.0
 40
0.5
 50
90.0
 51
180.0
  0
ARC
  5
16996
  8
0
 10
228.98289873519801
 20
322.50763047543762
 30
0.0
 40
0.5
 50
90.0
 51
180.0
  0
ARC
  5
16997
  8
0
 10
235.98289873519801
 20
322.50763047543768
 30
0.0
 40
0.5
 50
0.0
 51
90.0
  0
LINE
  5
16998
  8
0
 10
228.48289865138261
 20
336.01562962223443
 30
0.0
 11
228.48289865138261
 21
335.51563047160062
 31
0.0
  0
LINE
  5
16999
  8
0
 10
236.48289879853149
 20
335.51563047160062
 30
0.0
 11
236.48289879853149
 21
336.01562962223443
 31
0.0
  0
LINE
  5
1699A
  8
0
 10
236.48289879853149
 20
322.00763052616861
 30
0.0
 11
236.48289879853149
 21
322.50763037529441
 31
0.0
  0
LINE
  5
1699B
  8
0
 10
228.48289865138261
 20
322.50763037529441
 30
0.0
 11
228.48289865138261
 21
322.00763052616861
 31
0.0
  0
ARC
  5
169A2
  8
0
 10
234.48289873519781
 20
336.50763047543768
 30
0.0
 40
1.0
 50
0.0
 51
90.0
  0
ARC
  5
169A3
  8
0
 10
230.48289873519781
 20
336.50763047543768
 30
0.0
 40
1.0
 50
90.0
 51
180.0
  0
ARC
  5
169A4
  8
0
 10
234.48289873519781
 20
319.00763047543768
 30
0.0
 40
1.0
 50
270.0
 51
0.0
  0
ARC
  5
169A5
  8
0
 10
230.48289873519781
 20
319.00763047543768
 30
0.0
 40
1.0
 50
180.0
 51
270.0
  0
LINE
  5
169A6
  8
0
 10
229.4828988152953
 20
321.50763044421223
 30
0.0
 11
229.4828988152953
 21
319.00763047826371
 31
0.0
  0
LINE
  5
169A7
  8
0
 10
235.48289863461881
 20
319.00763047826371
 30
0.0
 11
235.48289863461881
 21
321.50763044421223
 31
0.0
  0
LINE
  5
169A8
  8
0
 10
237.35884865815069
 20
326.00763025049707
 30
0.0
 11
237.35884865815069
 21
332.00763076831248
 31
0.0
  0
LINE
  5
169AF
  8
0
 10
228.982898733339
 20
321.50763044421223
 30
0.0
 11
235.98289871657519
 21
321.50763044421223
 31
0.0
  0
LINE
  5
169B1
  8
0
 10
235.98289871657519
 20
336.51563063551328
 30
0.0
 11
228.982898733339
 21
336.51563063551328
 31
0.0
  0
LINE
  5
169B5
  8
0
 10
211.3952989143821
 20
356.00727800567302
 30
0.0
 11
211.3952989143821
 21
302.00727660496392
 31
0.0
  0
LINE
  5
169B6
  8
0
 10
223.39529871013431
 20
302.00727660496392
 30
0.0
 11
223.39529871013431
 21
356.00727814034008
 31
0.0
  0
LINE
  5
169BD
  8
0
 10
207.70807294244199
 20
326.0116302809551
 30
0.0
 11
211.39529891438201
 21
326.0116302809551
 31
0.0
  0
LINE
  5
169BE
  8
0
 10
207.70807294244199
 20
332.01163079877051
 30
0.0
 11
207.70807294244199
 21
326.0116302809551
 31
0.0
  0
LINE
  5
169BF
  8
0
 10
211.39529891438201
 20
332.01163079877051
 30
0.0
 11
207.70807294244199
 21
332.01163079877051
 31
0.0
  0
ARC
  5
169C0
  8
0
 10
210.71328110345149
 20
332.01161088828388
 30
0.0
 40
3.004020432696425
 50
90.000172165775979
 51
130.47560458685791
  0
ARC
  5
169C1
  8
0
 10
210.71328383343379
 20
332.01018753396352
 30
0.0
 40
3.0051050667974888
 50
130.45802832184981
 51
179.9724824977832
  0
ARC
  5
169C2
  8
0
 10
210.71316438834501
 20
326.01301839297122
 30
0.0
 40
3.0049855957393472
 50
180.02646700302211
 51
229.54302217734801
  0
ARC
  5
169C3
  8
0
 10
210.71327253668341
 20
326.01163084662562
 30
0.0
 40
3.0040001565441621
 50
229.52428019982801
 51
269.99999122841251
  0
LINE
  5
169CF
  8
0
 10
210.71327207679181
 20
335.0156313209668
 30
0.0
 11
211.3952989143821
 21
335.0156313209668
 31
0.0
  0
LINE
  5
169D0
  8
0
 10
211.3952989143821
 20
323.00763069008138
 30
0.0
 11
210.71327207679181
 21
323.00763069008138
 31
0.0
  0
LINE
  5
169D3
  8
0
 10
231.68749092215921
 20
337.50763073851022
 30
0.0
 11
230.48392599517729
 21
337.50763073851022
 31
0.0
  0
LINE
  5
169D4
  8
0
 10
231.68749092215921
 20
337.50763073851022
 30
0.0
 11
234.4818712219062
 21
337.50763073851022
 31
0.0
  0
LINE
  5
169D5
  8
0
 10
230.48289873519781
 20
318.00763047543768
 30
0.0
 11
234.4818712219062
 21
318.00763045259413
 31
0.0
  0
LINE
  5
169D8
  8
0
 10
237.30889903450631
 20
332.00763076831248
 30
0.0
 11
237.30889903450631
 21
335.0076312600508
 31
0.0
  0
LINE
  5
169DB
  8
0
 10
237.30889903450631
 20
323.00763069008138
 30
0.0
 11
237.30889903450631
 21
326.00763025049707
 31
0.0
  0
ARC
  5
169E3
  8
0
 10
239.05889220260121
 20
332.00763047543768
 30
0.0
 40
3.0
 50
0.0000000000008142
 51
90.0
  0
LINE
  5
169E4
  8
0
 10
242.0588928281727
 20
326.00763025049707
 30
0.0
 11
242.0588928281727
 21
332.00763076831248
 31
0.0
  0
ARC
  5
169E5
  8
0
 10
239.05889220260121
 20
326.00763047543768
 30
0.0
 40
3.000000000000028
 50
270.0
 51
0.0
  0
LINE
  5
169E6
  8
0
 10
239.05889233643441
 20
326.00763025049707
 30
0.0
 11
239.05889233643441
 21
332.00763076831248
 31
0.0
  0
LINE
  5
169E7
  8
0
 10
239.05889233643441
 20
323.00763069008138
 30
0.0
 11
223.39529871013431
 21
323.00763069008133
 31
0.0
  0
LINE
  5
169EA
  8
0
 10
223.39529871013431
 20
335.0076312600508
 30
0.0
 11
239.05889233643441
 21
335.0076312600508
 31
0.0
  0
LINE
  5
169EB
  8
0
 10
223.3952987101342
 20
348.65763135541818
 30
0.0
 11
230.90889873052259
 21
348.65763135541818
 31
0.0
  0
ARC
  5
169EC
  8
0
 10
230.90889873519791
 20
342.25763047543768
 30
0.0
 40
6.4000000000000341
 50
0.0000000000008142
 51
90.0
  0
CIRCLE
  5
169ED
  8
0
 10
230.90729873519771
 20
342.45763047543772
 30
0.0
 40
2.75
  0
LINE
  5
169EE
  8
0
 10
237.30889903450631
 20
342.2576310514346
 30
0.0
 11
237.30889903450631
 21
335.0076312600508
 31
0.0
  0
ARC
  5
169EF
  8
0
 10
230.90889873519799
 20
315.75763047543768
 30
0.0
 40
6.4000000000000048
 50
270.0
 51
0.0
  0
LINE
  5
169F0
  8
0
 10
230.90889873052259
 20
309.35763012905272
 30
0.0
 11
223.3952987101342
 21
309.35763012905272
 31
0.0
  0
ARC
  5
169F1
  8
0
 10
230.90889873519799
 20
315.5576304754378
 30
0.0
 40
2.7499999999999889
 50
109.80541953432549
 51
62.987704993222529
  0
LINE
  5
169F2
  8
0
 10
237.30889903450631
 20
323.00763069008138
 30
0.0
 11
237.30889903450631
 21
315.75763043303641
 31
0.0
  0
LINE
  5
16A11
  8
0
 10
223.39529871013431
 20
326.00763025049707
 30
0.0
 11
239.0588923364345
 21
326.00763025049707
 31
0.0
  0
LINE
  5
16A12
  8
0
 10
239.0588923364345
 20
332.00763076831248
 30
0.0
 11
223.39529871013431
 21
332.00763076831248
 31
0.0
  0
LINE
  5
16A13
  8
0
 10
237.35884865815069
 20
329.00763050940481
 30
0.0
 11
223.3170488390538
 21
329.00763027657422
 31
0.0
  0
ARC
  5
16A15
  8
0
 10
208.7363832874924
 20
325.26760607944379
 30
0.0
 40
3.7400266855151831
 50
105.95887530060671
 51
120.99996737169
  0
LINE
  5
16A16
  8
0
 10
202.5910011499586
 20
325.93832681242969
 30
0.0
 11
206.8101289689007
 21
328.47343575496819
 31
0.0
  0
ARC
  5
16A17
  8
0
 10
202.20987343201591
 20
326.5726284949892
 30
0.0
 40
0.7399979472147079
 50
269.99991138041639
 51
301.00005417672992
  0
LINE
  5
16A18
  8
0
 10
172.1757083206835
 20
325.8326305477753
 30
0.0
 11
175.79873605542889
 21
325.8326305477753
 31
0.0
  0
LINE
  5
16A19
  8
0
 10
194.76054367011631
 20
325.83263054777518
 30
0.0
 11
202.20987228745841
 21
325.8326305477753
 31
0.0
  0
ARC
  5
16A1A
  8
0
 10
172.17570996004611
 20
329.00763074223551
 30
0.0
 40
3.1750001944605759
 50
90.000029583792255
 51
269.99997041620122
  0
LINE
  5
16A1B
  8
0
 10
202.20987228745841
 20
332.1826309366956
 30
0.0
 11
194.76557663553459
 21
332.1826309366956
 31
0.0
  0
LINE
  5
16A1C
  8
0
 10
175.79538701945049
 20
332.1826309366956
 30
0.0
 11
172.1757083206835
 21
332.1826309366956
 31
0.0
  0
ARC
  5
16A1D
  8
0
 10
202.20987079938209
 20
331.44262629104281
 30
0.0
 40
0.7400046456543419
 50
59.000019650479643
 51
89.999884783835284
  0
LINE
  5
16A1E
  8
0
 10
206.8101289689007
 20
329.54182479818007
 30
0.0
 11
202.5910011499586
 21
332.07693420637992
 31
0.0
  0
ARC
  5
16A1F
  8
0
 10
208.73641934866831
 20
332.7477374902569
 30
0.0
 40
3.7401164174933661
 50
239.0002141028086
 51
254.0409432249011
  0
LINE
  5
16A22
  8
0
 10
202.20987228745841
 20
335.1826304971114
 30
0.0
 11
193.1492686841097
 21
335.1826304971114
 31
0.0
  0
LINE
  5
16A23
  8
0
 10
177.4100135164808
 20
335.1826304971114
 30
0.0
 11
172.1757083206835
 21
335.1826304971114
 31
0.0
  0
ARC
  5
16A24
  8
0
 10
172.17571151233909
 20
329.00763050940481
 30
0.0
 40
6.1749999877073671
 50
90.000029614315807
 51
269.99997038568421
  0
LINE
  5
16A25
  8
0
 10
172.1757083206835
 20
322.83263052169832
 30
0.0
 11
177.41786270313969
 21
322.83263052169832
 31
0.0
  0
LINE
  5
16A26
  8
0
 10
193.1414184602553
 20
322.83263052169832
 30
0.0
 11
202.20987228745841
 21
322.83263052169832
 31
0.0
  0
ARC
  5
16A27
  8
0
 10
202.20987228704851
 20
326.572628507037
 30
0.0
 40
3.739997985338678
 50
270.00000000627932
 51
301.00000143757092
  0
LINE
  5
16A28
  8
0
 10
204.13611373001959
 20
323.366824577643
 30
0.0
 11
207.7463018714848
 21
325.53604528595361
 31
0.0
  0
LINE
  5
16A38
  8
0
 10
202.21829516882329
 20
332.1826309366956
 30
0.0
 11
202.32395185226821
 21
332.17505649019631
 31
0.0
  0
ARC
  5
16A3A
  8
0
 10
185.2796322551861
 20
329.01263031464657
 30
0.0
 40
10.00000398875207
 50
320.0587303112506
 51
39.941269688750012
  0
ARC
  5
16A3B
  8
0
 10
185.27964676989731
 20
329.01263031464657
 30
0.0
 40
10.0000019483012
 50
140.05872052180709
 51
219.94127947819291
  0
ARC
  5
16A3F
  8
0
 10
186.64173260652751
 20
325.88065002599581
 30
0.0
 40
7.1107940289471117
 50
307.27925414480262
 51
332.45781077310119
  0
ARC
  5
16A40
  8
0
 10
183.49754521310919
 20
325.53035430184337
 30
0.0
 40
6.5774414367578578
 50
206.52829954322621
 51
233.79967591625629
  0
ARC
  5
16A41
  8
0
 10
187.0530248887188
 20
332.49133971405109
 30
0.0
 40
6.586828840905647
 50
26.522211942862199
 51
53.740695400363407
  0
ARC
  5
16A42
  8
0
 10
183.90637115556819
 20
332.14986462804859
 30
0.0
 40
7.0984534409313627
 50
127.2183588376349
 51
152.453693447142
  0
ARC
  5
16A43
  8
0
 10
185.28079195790991
 20
320.32764133791642
 30
0.0
 40
18.37118769397966
 50
72.029702064847342
 51
107.9702979351526
  0
ARC
  5
16A44
  8
0
 10
185.28079195790991
 20
337.69757865451868
 30
0.0
 40
18.371147932169031
 50
252.02966184300459
 51
287.97033815699541
  0
ARC
  5
16A4F
  8
0
 10
76.492356830797917
 20
198.29536513298191
 30
0.0
 40
0.5
 50
48.240911531751131
 51
90.0
  0
ARC
  5
16A50
  8
0
 10
90.000356830797955
 20
198.2953651329818
 30
0.0
 40
0.5
 50
0.0
 51
90.0
  0
ARC
  5
16A51
  8
0
 10
75.992356830797917
 20
198.29536513298191
 30
0.0
 40
0.5
 50
89.999999999993491
 51
179.9999999999992
  0
ARC
  5
16A52
  8
0
 10
89.500356830797955
 20
198.2953651329818
 30
0.0
 40
0.5
 50
90.0
 51
130.54160187347651
  0
LINE
  5
16A53
  8
0
 10
76.492356834634961
 20
198.79536515222881
 30
0.0
 11
75.992357684001149
 21
198.79536515222881
 31
0.0
  0
LINE
  5
16A54
  8
0
 10
90.000356780066909
 20
198.79536515222881
 30
0.0
 11
89.500356930941166
 21
198.79536515222881
 31
0.0
  0
ARC
  5
16A56
  8
0
 10
75.992356830797974
 20
191.28264069371409
 30
0.0
 40
0.5
 50
180.0
 51
186.84899480891241
  0
ARC
  5
16A57
  8
0
 10
89.500356830797955
 20
191.28264069371409
 30
0.0
 40
0.5000000000000102
 50
229.4583981265138
 51
270.0
  0
ARC
  5
16A59
  8
0
 10
90.000356830797955
 20
191.282640693714
 30
0.0
 40
0.5
 50
270.0
 51
306.50222557768222
  0
ARC
  5
16A5C
  8
0
 10
76.492356830797974
 20
191.28264069371409
 30
0.0
 40
0.5
 50
270.0
 51
311.75908846823188
  0
LINE
  5
16A5D
  8
0
 10
75.992357684001149
 20
190.7826401119122
 30
0.0
 11
76.492356834634961
 21
190.7826401119122
 31
0.0
  0
LINE
  5
16A60
  8
0
 10
89.500356930941166
 20
190.7826401119122
 30
0.0
 11
90.000356780066909
 21
190.7826401119122
 31
0.0
  0
POLYLINE
  5
16A61
  8
0
 66
     1
 10
0.0
 20
0.0
 30
0.0
 70
   128
  0
VERTEX
  5
17EBD
  8
0
 10
116.0007140593226
 20
244.4854583163922
 30
0.0
  0
VERTEX
  5
17EBE
  8
0
 10
115.9267204807694
 20
244.95512801606111
 30
0.0
  0
VERTEX
  5
17EBF
  8
0
 10
115.752997155636
 20
245.3172485848134
 30
0.0
  0
VERTEX
  5
17EC0
  8
0
 10
115.5404246406252
 20
245.5705310722058
 30
0.0
  0
VERTEX
  5
17EC1
  8
0
 10
115.3301152394707
 20
245.7324768920605
 30
0.0
  0
VERTEX
  5
17EC2
  8
0
 10
114.98677199646779
 20
245.87251800496031
 30
0.0
  0
VERTEX
  5
17EC3
  8
0
 10
114.5976486609871
 20
245.9246199150746
 30
0.0
  0
VERTEX
  5
17EC4
  8
0
 10
113.9759778039152
 20
245.95809537369661
 30
0.0
  0
VERTEX
  5
17EC5
  8
0
 10
113.02955103978459
 20
245.97827899653359
 30
0.0
  0
VERTEX
  5
17EC6
  8
0
 10
112.4132408754523
 20
245.98464924294399
 30
0.0
  0
VERTEX
  5
17EC7
  8
0
 10
111.69800748988941
 20
245.98900038201259
 30
0.0
  0
VERTEX
  5
17EC8
  8
0
 10
110.889168734997
 20
245.9915484805768
 30
0.0
  0
VERTEX
  5
17EC9
  8
0
 10
110.0007149384911
 20
246.007273246913
 30
0.0
  0
SEQEND
  5
17ECA
  8
0
  0
LINE
  5
16A63
  8
0
 10
116.0007140593226
 20
242.54546123940401
 30
0.0
 11
116.0007140593226
 21
244.4854583163922
 31
0.0
  0
POLYLINE
  5
16A65
  8
0
 66
     1
 10
0.0
 20
0.0
 30
0.0
 70
   128
  0
VERTEX
  5
17ECB
  8
0
 10
110.0007149384911
 20
241.009360136575
 30
0.0
  0
VERTEX
  5
17ECC
  8
0
 10
110.889168734997
 20
241.03937107521941
 30
0.0
  0
VERTEX
  5
17ECD
  8
0
 10
111.69800748988941
 20
241.0419191737835
 30
0.0
  0
VERTEX
  5
17ECE
  8
0
 10
112.4132408754523
 20
241.0462703128521
 30
0.0
  0
VERTEX
  5
17ECF
  8
0
 10
113.02955103978459
 20
241.0526405592625
 30
0.0
  0
VERTEX
  5
17ED0
  8
0
 10
113.9759778039152
 20
241.07282418209959
 30
0.0
  0
VERTEX
  5
17ED1
  8
0
 10
114.5976486609871
 20
241.1062996407216
 30
0.0
  0
VERTEX
  5
17ED2
  8
0
 10
114.98677199646779
 20
241.1584015508358
 30
0.0
  0
VERTEX
  5
17ED3
  8
0
 10
115.3301152394707
 20
241.29844266373561
 30
0.0
  0
VERTEX
  5
17ED4
  8
0
 10
115.5404246406252
 20
241.46038848359041
 30
0.0
  0
VERTEX
  5
17ED5
  8
0
 10
115.752997155636
 20
241.7136709709828
 30
0.0
  0
VERTEX
  5
17ED6
  8
0
 10
115.9267204807694
 20
242.07579153973509
 30
0.0
  0
VERTEX
  5
17ED7
  8
0
 10
116.0007140593226
 20
242.54546123940401
 30
0.0
  0
SEQEND
  5
17ED8
  8
0
  0
ARC
  5
16A66
  8
0
 10
72.99235683079803
 20
216.24513433091019
 30
0.0
 40
0.5
 50
90.0
 51
180.0
  0
ARC
  5
16A67
  8
0
 10
72.992356830797974
 20
209.24513433091019
 30
0.0
 40
0.5
 50
179.9999999999967
 51
270.0
  0
ARC
  5
16A68
  8
0
 10
73.49235683079803
 20
216.24513433091019
 30
0.0
 40
0.5
 50
0.0
 51
90.0
  0
ARC
  5
16A69
  8
0
 10
73.492356830797974
 20
209.24513433091019
 30
0.0
 40
0.5
 50
270.0
 51
350.48902566767509
  0
ARC
  5
16A6A
  8
0
 10
93.002356830797964
 20
209.2451343309101
 30
0.0
 40
0.5
 50
270.0
 51
0.0
  0
ARC
  5
16A6B
  8
0
 10
93.002356830798036
 20
216.2451343309101
 30
0.0
 40
0.5000000000000285
 50
0.0
 51
90.0
  0
ARC
  5
16A6C
  8
0
 10
92.502356830797964
 20
209.24513433091019
 30
0.0
 40
0.5000000000000174
 50
188.05701575082139
 51
270.0
  0
ARC
  5
16A6D
  8
0
 10
92.502356830798021
 20
216.2451343309101
 30
0.0
 40
0.5000000000000142
 50
90.0
 51
180.0
  0
LINE
  5
16A6E
  8
0
 10
72.99235719226283
 20
208.7451331143269
 30
0.0
 11
73.492356342896642
 21
208.7451331143269
 31
0.0
  0
LINE
  5
16A6F
  8
0
 10
73.492356342896642
 20
216.74513442562909
 30
0.0
 11
72.99235719226283
 21
216.74513442562909
 31
0.0
  0
LINE
  5
16A70
  8
0
 10
93.002356828648885
 20
216.74513442562909
 30
0.0
 11
92.502356826728033
 21
216.74513442562909
 31
0.0
  0
LINE
  5
16A71
  8
0
 10
92.502356826728033
 20
208.7451331143269
 30
0.0
 11
93.002356828648885
 21
208.7451331143269
 31
0.0
  0
ARC
  5
16A75
  8
0
 10
72.992356830797121
 20
183.20776513298199
 30
0.0
 40
0.5
 50
90.0
 51
180.0
  0
ARC
  5
16A76
  8
0
 10
72.992356830797121
 20
176.20776513298199
 30
0.0
 40
0.5
 50
180.0
 51
270.0
  0
ARC
  5
16A77
  8
0
 10
73.492356830797121
 20
183.20776513298199
 30
0.0
 40
0.5
 50
0.0
 51
90.0
  0
ARC
  5
16A78
  8
0
 10
73.492356830797121
 20
176.20776513298199
 30
0.0
 40
0.5
 50
270.0
 51
0.0
  0
ARC
  5
16A79
  8
0
 10
93.002356830797098
 20
176.2077651329819
 30
0.0
 40
0.5
 50
270.0
 51
0.0
  0
ARC
  5
16A7A
  8
0
 10
93.002356830797098
 20
183.2077651329819
 30
0.0
 40
0.5000000000000142
 50
0.0
 51
89.999999999993491
  0
ARC
  5
16A7B
  8
0
 10
92.502356830797112
 20
176.2077651329819
 30
0.0
 40
0.5
 50
180.0
 51
270.0
  0
ARC
  5
16A7C
  8
0
 10
92.502356830797112
 20
183.2077651329819
 30
0.0
 40
0.5
 50
90.0
 51
180.0
  0
LINE
  5
16A7D
  8
0
 10
72.99235719226283
 20
175.70776490615691
 30
0.0
 11
73.492356342896642
 21
175.70776490615691
 31
0.0
  0
LINE
  5
16A7E
  8
0
 10
73.492356342896642
 20
183.707764354814
 30
0.0
 11
72.99235719226283
 21
183.707764354814
 31
0.0
  0
LINE
  5
16A7F
  8
0
 10
93.002356828648885
 20
183.707764354814
 30
0.0
 11
92.502356826728033
 21
183.707764354814
 31
0.0
  0
LINE
  5
16A80
  8
0
 10
92.502356826728033
 20
175.70776490615691
 30
0.0
 11
93.002356828648885
 21
175.70776490615691
 31
0.0
  0
LINE
  5
16A86
  8
0
 10
79.992356477007093
 20
217.24513543890799
 30
0.0
 11
76.992355985268773
 21
217.24513543890799
 31
0.0
  0
LINE
  5
16A87
  8
0
 10
89.000356616154136
 20
217.24513543890799
 30
0.0
 11
86.000357055738391
 21
217.24513543890799
 31
0.0
  0
LINE
  5
16A88
  8
0
 10
90.194746385961594
 20
174.7077652079054
 30
0.0
 11
92.000356816854151
 21
174.7077652079054
 31
0.0
  0
LINE
  5
16A8A
  8
0
 10
73.992357356175603
 20
174.7077652079054
 30
0.0
 11
75.83177149609503
 21
174.7077652079054
 31
0.0
  0
ARC
  5
16A8B
  8
0
 10
93.000356830797884
 20
181.70776513298179
 30
0.0
 40
1.00000000000001
 50
0.0
 51
59.179898799713328
  0
ARC
  5
16A8C
  8
0
 10
93.000356830797841
 20
177.70776513298179
 30
0.0
 40
1.0000000000000071
 50
300.70733020173981
 51
0.0
  0
LINE
  5
16AA1
  8
0
 10
73.324662400111379
 20
198.8377653564045
 30
0.0
 11
75.056713772639455
 21
197.83776519249179
 31
0.0
  0
LINE
  5
16AA2
  8
0
 10
90.933999744877042
 20
197.83776519249179
 30
0.0
 11
92.66605062264
 21
198.8377653564045
 31
0.0
  0
LINE
  5
16AA3
  8
0
 10
75.056713772639455
 20
191.9861319296964
 30
0.0
 11
73.324662400111379
 21
190.9861336284288
 31
0.0
  0
LINE
  5
16AA4
  8
0
 10
92.66605062264
 20
190.9861336284288
 30
0.0
 11
90.933999744877042
 21
191.9861319296964
 31
0.0
  0
LINE
  5
16AB0
  8
0
 10
75.492356830797917
 20
198.29536513298191
 30
0.0
 11
75.492356830797974
 21
191.28264069371409
 31
0.0
  0
LINE
  5
16AB1
  8
0
 10
90.500356830797955
 20
191.282640693714
 30
0.0
 11
90.500356830797955
 21
198.29536518440591
 31
0.0
  0
LINE
  5
16AB2
  8
0
 10
85.46635671488923
 20
237.00727331835679
 30
0.0
 11
80.526357283517541
 21
237.00727331835679
 31
0.0
  0
LINE
  5
16AB5
  8
0
 10
88.99635705135745
 20
241.009360136575
 30
0.0
 11
110.0007149384911
 21
241.009360136575
 31
0.0
  0
LINE
  5
16AB7
  8
0
 10
55.999999120831482
 20
241.009360136575
 30
0.0
 11
76.996356947049321
 21
241.009360136575
 31
0.0
  0
ARC
  5
16AB9
  8
0
 10
88.996362557496738
 20
239.00935430259639
 30
0.0
 40
2.0000058339861551
 50
90.000157738810884
 51
179.99973553940029
  0
ARC
  5
16ABA
  8
0
 10
76.996350514376843
 20
239.00935337606151
 30
0.0
 40
2.0000067605238341
 50
0.0002910036563216
 51
89.999815718131714
  0
LINE
  5
16ABB
  8
0
 10
86.996356723531903
 20
237.00935948092391
 30
0.0
 11
86.996356723531903
 21
239.00936353403969
 31
0.0
  0
ARC
  5
16ABC
  8
0
 10
85.849479552324837
 20
517.07856492153837
 30
0.0
 40
280.07155364903281
 50
269.92162242762731
 51
270.23462363215123
  0
ARC
  5
16ABD
  8
0
 10
80.14323417280076
 20
517.07836449598972
 30
0.0
 40
280.07135322404531
 50
269.76537625585649
 51
270.07837768437071
  0
LINE
  5
16ABE
  8
0
 10
78.996357274874867
 20
239.00936353403969
 30
0.0
 11
78.996357274874867
 21
237.00935948092391
 31
0.0
  0
LINE
  5
16ABF
  8
0
 10
55.999999120831482
 20
246.007273246913
 30
0.0
 11
110.0007149384911
 21
246.007273246913
 31
0.0
  0
LINE
  5
16AC0
  8
0
 10
72.49235683079803
 20
216.24513433091019
 30
0.0
 11
72.492356178983869
 21
209.2532142822632
 31
0.0
  0
LINE
  5
16AC1
  8
0
 10
93.502356830798021
 20
216.2451343309101
 30
0.0
 11
93.502356845121653
 21
209.25317702936019
 31
0.0
  0
LINE
  5
16AC3
  8
0
 10
72.492356178983869
 20
183.1924170081505
 30
0.0
 11
72.492356830797121
 21
176.20776513298199
 31
0.0
  0
LINE
  5
16AC5
  8
0
 10
93.502356830797112
 20
176.2077651329819
 30
0.0
 11
93.502356845121653
 21
183.1924002443441
 31
0.0
  0
LINE
  5
16AC6
  8
0
 10
85.996357025280417
 20
220.84437308954091
 30
0.0
 11
85.92185447894019
 21
221.11691160248611
 31
0.0
  0
LINE
  5
16AC7
  8
0
 10
85.996357025280702
 20
213.3154198353179
 30
0.0
 11
85.996357025280417
 21
220.84437308954091
 31
0.0
  0
LINE
  5
16AC8
  8
0
 10
79.996356507465066
 20
220.84437308954091
 30
0.0
 11
79.996356507465293
 21
213.3154198353181
 31
0.0
  0
LINE
  5
16AC9
  8
0
 10
80.07085951946658
 20
221.11691160248611
 30
0.0
 11
79.996356507465066
 21
220.84437308954091
 31
0.0
  0
ARC
  5
16ACA
  8
0
 10
78.762910922110905
 20
197.9328483407175
 30
0.0
 40
16.998418994540479
 50
55.946573766708482
 51
64.815379202171272
  0
ARC
  5
16ACB
  8
0
 10
88.380782680104801
 20
325.84454141932082
 30
0.0
 40
113.8282779671534
 50
269.94999691076362
 51
270.31186579956341
  0
ARC
  5
16ACE
  8
0
 10
77.611933958202826
 20
325.84625165051858
 30
0.0
 40
113.8299881949897
 50
269.68813685410362
 51
270.05000077479968
  0
ARC
  5
16ACF
  8
0
 10
85.780731763840777
 20
200.48170349224441
 30
0.0
 40
14.07704771182674
 50
114.2619033884106
 51
124.9761436427104
  0
ARC
  5
16AD7
  8
0
 10
82.996356999203442
 20
215.72162996909179
 30
0.0
 40
6.1373935353363098
 50
61.532008217016561
 51
118.4679917829834
  0
LINE
  5
16AD8
  8
0
 10
85.996357025280417
 20
233.65020750211571
 30
0.0
 11
85.996357025280417
 21
236.9991540734658
 31
0.0
  0
ARC
  5
16AD9
  8
0
 10
86.73636043090869
 20
233.65020587221929
 30
0.0
 40
0.7400034056300244
 50
179.9998738030346
 51
224.9998543449629
  0
LINE
  5
16ADA
  8
0
 10
90.90493619412166
 20
228.4351140086541
 30
0.0
 11
86.213097674473943
 21
233.12694577621309
 31
0.0
  0
ARC
  5
16ADB
  8
0
 10
88.260358553997946
 20
225.79053538219461
 30
0.0
 40
3.739998262856421
 50
359.99998113944218
 51
45.00001068467094
  0
LINE
  5
16ADC
  8
0
 10
92.000356816854151
 20
209.4111405138859
 30
0.0
 11
92.000356816854151
 21
225.7905341510662
 31
0.0
  0
ARC
  5
16ADD
  8
0
 10
96.500341200958474
 20
209.4111399238563
 30
0.0
 40
4.4999843841043612
 50
179.99999248748381
 51
212.00005738187409
  0
ARC
  5
16ADE
  8
0
 10
86.323792145591128
 20
203.05211680617271
 30
0.0
 40
7.4999875195103192
 50
359.99998374112897
 51
32.000027148823357
  0
LINE
  5
16ADF
  8
0
 10
93.823779665101142
 20
192.20271704839561
 30
0.0
 11
93.823779665101142
 21
203.05211467789499
 31
0.0
  0
ARC
  5
16AE0
  8
0
 10
86.323796392258544
 20
192.20271556504909
 30
0.0
 40
7.4999832728427771
 50
327.99996354851658
 51
0.0000113319574617
  0
ARC
  5
16AE1
  8
0
 10
96.500349569866387
 20
185.84369126533039
 30
0.0
 40
4.499992753012223
 50
147.9999731727562
 51
180.0000006738737
  0
LINE
  5
16AE2
  8
0
 10
92.000356816854151
 20
174.7077652079054
 30
0.0
 11
92.000356816854151
 21
185.84369121240459
 31
0.0
  0
ARC
  5
16AE5
  8
0
 10
86.323942910573919
 20
192.20270515344251
 30
0.0
 40
4.4998366702582651
 50
354.30290372748561
 51
0.0001514567437451
  0
LINE
  5
16AE6
  8
0
 10
90.823779580816449
 20
192.20271704839561
 30
0.0
 11
90.823779580816506
 21
198.02807578928781
 31
0.0
  0
LINE
  5
16AE7
  8
0
 10
90.823779580816449
 20
201.34691308263729
 30
0.0
 11
90.823779580816449
 21
203.05211467789499
 31
0.0
  0
ARC
  5
16AE8
  8
0
 10
86.32378237129069
 20
203.0521153621562
 30
0.0
 40
4.4999972095258389
 50
359.99999128771151
 51
32.000009857400912
  0
ARC
  5
16AE9
  8
0
 10
96.500339915605267
 20
209.41114113369329
 30
0.0
 40
7.4999832994511211
 50
180.0000047349908
 51
212.0000384910374
  0
LINE
  5
16AEA
  8
0
 10
89.000356616154136
 20
201.7379485572408
 30
0.0
 11
89.000356616154136
 21
225.7905341510662
 31
0.0
  0
ARC
  5
16AEB
  8
0
 10
88.260349183483413
 20
225.79053411291821
 30
0.0
 40
0.7400074326707379
 50
0.0000029536489234
 51
44.999725194344343
  0
LINE
  5
16AEC
  8
0
 10
88.78361596696061
 20
226.31379587696881
 30
0.0
 11
84.091777680143537
 21
231.0056313698181
 31
0.0
  0
ARC
  5
16AED
  8
0
 10
86.736331838081966
 20
233.6502003519449
 30
0.0
 40
3.739974838885407
 50
179.9998904605967
 51
225.00016058681069
  0
LINE
  5
16AEE
  8
0
 10
82.996356999203385
 20
233.65020750211571
 30
0.0
 11
82.996356999203385
 21
237.00727331835679
 31
0.0
  0
LINE
  5
16AF5
  8
0
 10
93.823779665101142
 20
203.05211467789499
 30
0.0
 11
93.823779665101142
 21
203.06577159212921
 31
0.0
  0
ARC
  5
16AF9
  8
0
 10
96.500350298235674
 20
185.8573457379911
 30
0.0
 40
7.4999936820815423
 50
162.7136567183843
 51
179.99999598163291
  0
ARC
  5
16AFD
  8
0
 10
79.256373026542903
 20
233.650204135286
 30
0.0
 40
3.739983972662015
 50
314.9998973734555
 51
0.0000515791332311
  0
LINE
  5
16AFE
  8
0
 10
81.900936318263234
 20
231.0056313698181
 30
0.0
 11
77.209097100123586
 21
226.31379587696881
 31
0.0
  0
ARC
  5
16AFF
  8
0
 10
77.732375161021935
 20
225.79052878313081
 30
0.0
 40
0.7400191757726207
 50
135.00060041964559
 51
179.99958438908649
  0
LINE
  5
16B00
  8
0
 10
76.992355985268773
 20
225.7905341510662
 30
0.0
 11
76.992355985268773
 21
201.7379485572408
 31
0.0
  0
ARC
  5
16B01
  8
0
 10
69.492391069107043
 20
209.4111351171517
 30
0.0
 40
7.4999649161637141
 50
327.99992795187927
 51
0.0000412282058002
  0
ARC
  5
16B02
  8
0
 10
79.668924070901539
 20
203.0521190192899
 30
0.0
 40
4.4999896533132828
 50
147.999984932057
 51
180.00005527648349
  0
LINE
  5
16B03
  8
0
 10
75.168934417590322
 20
203.05211467789499
 30
0.0
 11
75.168934417590265
 21
201.33655652691499
 31
0.0
  0
LINE
  5
16B04
  8
0
 10
75.168934417590322
 20
198.03077704626921
 30
0.0
 11
75.168934417590322
 21
192.20271704839561
 31
0.0
  0
LINE
  5
16B08
  8
0
 10
73.992357356175603
 20
185.84369121240459
 30
0.0
 11
73.992357356175603
 21
174.7077652079054
 31
0.0
  0
ARC
  5
16B09
  8
0
 10
69.492365658365372
 20
185.84369012405531
 30
0.0
 40
4.4999916978103789
 50
0.0000138573207286
 51
32.000052357418113
  0
ARC
  5
16B0A
  8
0
 10
79.668923464081104
 20
192.2027168492871
 30
0.0
 40
7.4999895382290607
 50
179.9999984789217
 51
212.00001811141129
  0
LINE
  5
16B0B
  8
0
 10
72.168933925852002
 20
203.05211467789499
 30
0.0
 11
72.168933925852002
 21
192.20271704839561
 31
0.0
  0
ARC
  5
16B0C
  8
0
 10
79.668927710747482
 20
203.052115521936
 30
0.0
 40
7.4999937848954872
 50
147.99999119123879
 51
180.00000644800389
  0
ARC
  5
16B0D
  8
0
 10
69.492374027154085
 20
209.41114106516341
 30
0.0
 40
4.4999833290216094
 50
327.99991708835512
 51
359.99999298089182
  0
LINE
  5
16B0E
  8
0
 10
73.992357356175603
 20
225.7905341510662
 30
0.0
 11
73.992357356175603
 21
209.4111405138859
 31
0.0
  0
ARC
  5
16B0F
  8
0
 10
77.732352296183024
 20
225.7905376316765
 30
0.0
 40
3.7399949400090371
 50
134.99998714605289
 51
180.00005332207229
  0
LINE
  5
16B10
  8
0
 10
79.779615392610253
 20
233.12694577621309
 30
0.0
 11
75.08777710579318
 21
228.4351140086541
 31
0.0
  0
ARC
  5
16B11
  8
0
 10
79.256355714514427
 20
233.65020525567979
 30
0.0
 40
0.7400007929540799
 50
315.00001087473402
 51
0.0001739339982755
  0
LINE
  5
16B12
  8
0
 10
79.996356507465066
 20
236.9991540734658
 30
0.0
 11
79.996356507465066
 21
233.65020750211571
 31
0.0
  0
LINE
  5
16B18
  8
0
 10
72.168933925852002
 20
203.06577159212921
 30
0.0
 11
72.168933925852002
 21
203.05211467789499
 31
0.0
  0
ARC
  5
16B1A
  8
0
 10
79.668173292940139
 20
192.21631544987801
 30
0.0
 40
4.4992388757064301
 50
179.99927858642181
 51
185.96382992280061
  0
ARC
  5
16B1B
  8
0
 10
69.131461854242332
 20
185.7742577697679
 30
0.0
 40
7.8693328498582558
 50
0.6049697724902309
 51
17.08316274847731
  0
LINE
  5
16B1E
  8
0
 10
94.000356853641392
 20
177.70879248278229
 30
0.0
 11
94.000356830797898
 21
181.70776513298179
 31
0.0
  0
ARC
  5
16B1F
  8
0
 10
77.000356830798012
 20
169.00570568298201
 30
0.0
 40
3.0000000000000142
 50
270.0
 51
341.83084393643412
  0
LINE
  5
16B20
  8
0
 10
77.00035604618472
 20
166.00570569867281
 30
0.0
 11
63.350355950817402
 21
166.0057056986729
 31
0.0
  0
LINE
  5
16B22
  8
0
 10
77.000356046184777
 20
170.03256016165
 30
0.0
 11
77.00035604618472
 21
169.00570572474979
 31
0.0
  0
LINE
  5
16B23
  8
0
 10
77.00035604618472
 20
169.00570572474979
 30
0.0
 11
63.350355950817402
 21
169.0057057247499
 31
0.0
  0
LINE
  5
16B24
  8
0
 10
89.000356616154136
 20
169.00570572474979
 30
0.0
 11
89.000356616154136
 21
170.10762524860351
 31
0.0
  0
LINE
  5
16B26
  8
0
 10
102.6503571771828
 20
169.00570572474979
 30
0.0
 11
89.000356616154136
 21
169.00570572474979
 31
0.0
  0
LINE
  5
16B27
  8
0
 10
102.6503571771828
 20
166.00570569867281
 30
0.0
 11
89.000356616154136
 21
166.00570569867281
 31
0.0
  0
ARC
  5
16B28
  8
0
 10
89.000356830797827
 20
169.0057056829819
 30
0.0
 40
3.0
 50
198.17470604314039
 51
270.0
  0
LINE
  5
16B29
  8
0
 10
63.350355950817288
 20
169.00570572474979
 30
0.0
 11
63.350355950817288
 21
166.00570569867281
 31
0.0
  0
LINE
  5
16B2F
  8
0
 10
102.6503571771828
 20
166.00570569867281
 30
0.0
 11
102.6503571771828
 21
169.00570572474979
 31
0.0
  0
LINE
  5
16B32
  8
0
 10
77.000356046184777
 20
188.0859485649475
 30
0.0
 11
77.000356046184606
 21
179.84291480632831
 31
0.0
  0
LINE
  5
16B33
  8
0
 10
89.000356616154136
 20
179.7972741038767
 30
0.0
 11
89.000356616154136
 21
188.0859485649475
 31
0.0
  0
LINE
  5
16B6E
  8
0
 10
76.82535680912423
 20
199.7250438238213
 30
0.0
 11
76.825356809124173
 21
190.08577752941929
 31
0.0
  0
LINE
  5
16B70
  8
0
 10
89.175356784537257
 20
190.08577752941929
 30
0.0
 11
89.175356784537314
 21
199.7250438238213
 31
0.0
  0
ARC
  5
16B7F
  8
0
 10
76.609460406891742
 20
198.9538049968433
 30
0.0
 40
2.784352703935268
 50
90.702264071121988
 51
149.7038781046821
  0
ARC
  5
16B80
  8
0
 10
76.573657117176822
 20
198.9896657547321
 30
0.0
 40
0.7353799808726107
 50
89.869352481659959
 51
149.9035915399221
  0
ARC
  5
16B83
  8
0
 10
89.417052188535308
 20
198.98965882811589
 30
0.0
 40
0.7353868968200745
 50
30.096719915584231
 51
90.130281856005141
  0
ARC
  5
16B85
  8
0
 10
89.413736061206293
 20
199.00018062311281
 30
0.0
 40
2.737768427712695
 50
29.97352995748205
 51
89.965595111059869
  0
ARC
  5
16B86
  8
0
 10
-317.22197225788869
 20
426.04494422960357
 30
0.0
 40
453.82935568109087
 50
329.8113989820572
 51
330.03325577138031
  0
LINE
  5
16B8C
  8
0
 10
76.575333950742902
 20
190.0859470301279
 30
0.0
 11
76.825356809124173
 21
190.08577752941929
 31
0.0
  0
LINE
  5
16B8D
  8
0
 10
89.175356784537257
 20
190.08578311735479
 30
0.0
 11
89.415380032434882
 21
190.0859470301279
 31
0.0
  0
ARC
  5
16B91
  8
0
 10
89.413732562911093
 20
190.8237206912024
 30
0.0
 40
2.7377726219418008
 50
270.03447804814817
 51
330.02646438821051
  0
ARC
  5
16B92
  8
0
 10
89.413702883706904
 20
190.82376736731391
 30
0.0
 40
0.7378222433575533
 50
270.13023953580853
 51
330.09621964382802
  0
ARC
  5
16B95
  8
0
 10
76.577004033116964
 20
190.82375639117259
 30
0.0
 40
0.7378112512156621
 50
209.90328800245661
 51
269.87030727299788
  0
ARC
  5
16B98
  8
0
 10
76.577006380911143
 20
190.82376588657681
 30
0.0
 40
2.7378178324418072
 50
209.97408179594919
 51
269.96500015633097
  0
ARC
  5
16B9A
  8
0
 10
427.77456390679441
 20
393.97037124022069
 30
0.0
 40
408.45726018389939
 50
209.79864459775499
 51
210.04630484573079
  0
ARC
  5
16B9C
  8
0
 10
-260.68159173171159
 20
393.3360155776457
 30
0.0
 40
407.18549959722378
 50
329.95330265838959
 51
330.20173643798068
  0
ARC
  5
16BA0
  8
0
 10
318.05525002623932
 20
198.2953651329818
 30
0.0
 40
0.5
 50
90.0
 51
179.9999999999992
  0
ARC
  5
16BA3
  8
0
 10
331.5632500262393
 20
198.29536513298191
 30
0.0
 40
0.5
 50
90.0
 51
179.9999999999992
  0
ARC
  5
16BA5
  8
0
 10
332.0632500262393
 20
198.29536513298191
 30
0.0
 40
0.500000000000057
 50
0.0
 51
90.0
  0
ARC
  5
16BA6
  8
0
 10
318.55525002623932
 20
198.2953651329818
 30
0.0
 40
0.5
 50
0.0
 51
90.0
  0
LINE
  5
16BA9
  8
0
 10
318.55524992609622
 20
198.79536515222881
 30
0.0
 11
318.05525007697042
 21
198.79536515222881
 31
0.0
  0
LINE
  5
16BAA
  8
0
 10
332.06324917303618
 20
198.79536515222881
 30
0.0
 11
331.56325002240243
 21
198.79536515222881
 31
0.0
  0
ARC
  5
16BAE
  8
0
 10
332.0632500262393
 20
191.28264069371409
 30
0.0
 40
0.5
 50
270.0
 51
0.0
  0
ARC
  5
16BAF
  8
0
 10
318.55525002623932
 20
191.28264069371409
 30
0.0
 40
0.5
 50
270.0
 51
0.0
  0
ARC
  5
16BB0
  8
0
 10
318.05525002623932
 20
191.282640693714
 30
0.0
 40
0.500000000000057
 50
180.0
 51
270.0
  0
ARC
  5
16BB1
  8
0
 10
331.5632500262393
 20
191.28264069371409
 30
0.0
 40
0.5
 50
180.0
 51
270.0
  0
LINE
  5
16BB2
  8
0
 10
331.56325002240243
 20
190.7826401119122
 30
0.0
 11
332.06324917303618
 21
190.7826401119122
 31
0.0
  0
LINE
  5
16BB3
  8
0
 10
318.05525007697042
 20
190.7826401119122
 30
0.0
 11
318.55524992609622
 21
190.7826401119122
 31
0.0
  0
ARC
  5
16BB8
  8
0
 10
335.0632500262393
 20
209.24513433091019
 30
0.0
 40
0.5
 50
270.0
 51
0.0000000000032569
  0
ARC
  5
16BB9
  8
0
 10
335.0632500262393
 20
216.24513433091019
 30
0.0
 40
0.500000000000057
 50
0.0
 51
89.999999999993491
  0
ARC
  5
16BBA
  8
0
 10
334.5632500262393
 20
209.24513433091019
 30
0.0
 40
0.5000000000000359
 50
190.29392343967211
 51
270.0
  0
ARC
  5
16BBB
  8
0
 10
334.5632500262393
 20
216.24513433091019
 30
0.0
 40
0.500000000000057
 50
90.0
 51
180.0
  0
ARC
  5
16BBC
  8
0
 10
315.05325002623931
 20
216.2451343309101
 30
0.0
 40
0.5000000000000285
 50
90.0
 51
180.0
  0
ARC
  5
16BBD
  8
0
 10
315.05325002623931
 20
209.2451343309101
 30
0.0
 40
0.5
 50
180.0
 51
270.0
  0
ARC
  5
16BBE
  8
0
 10
315.55325002623931
 20
216.2451343309101
 30
0.0
 40
0.5
 50
0.0
 51
90.0
  0
ARC
  5
16BBF
  8
0
 10
315.55325002623931
 20
209.24513433091019
 30
0.0
 40
0.5000000000000232
 50
270.0
 51
351.942984249164
  0
LINE
  5
16BC0
  8
0
 10
335.0632496647745
 20
216.74513442562909
 30
0.0
 11
334.56325051414069
 21
216.74513442562909
 31
0.0
  0
LINE
  5
16BC1
  8
0
 10
334.56325051414069
 20
208.7451331143269
 30
0.0
 11
335.0632496647745
 21
208.7451331143269
 31
0.0
  0
LINE
  5
16BC2
  8
0
 10
315.0532500283885
 20
208.7451331143269
 30
0.0
 11
315.5532500303093
 21
208.7451331143269
 31
0.0
  0
LINE
  5
16BC3
  8
0
 10
315.5532500303093
 20
216.74513442562909
 30
0.0
 11
315.0532500283885
 21
216.74513442562909
 31
0.0
  0
ARC
  5
16BC8
  8
0
 10
335.06325002624021
 20
176.20776513298199
 30
0.0
 40
0.5
 50
270.0
 51
0.0000000000016284
  0
ARC
  5
16BC9
  8
0
 10
335.0632500262401
 20
183.20776513298199
 30
0.0
 40
0.5
 50
0.0
 51
90.0
  0
ARC
  5
16BCA
  8
0
 10
334.56325002624021
 20
176.20776513298199
 30
0.0
 40
0.5
 50
180.0
 51
270.0
  0
ARC
  5
16BCB
  8
0
 10
334.5632500262401
 20
183.20776513298199
 30
0.0
 40
0.5
 50
90.0
 51
180.0
  0
ARC
  5
16BCC
  8
0
 10
315.05325002624022
 20
183.2077651329819
 30
0.0
 40
0.5000000000000142
 50
90.0
 51
180.0
  0
ARC
  5
16BCD
  8
0
 10
315.05325002624022
 20
176.2077651329819
 30
0.0
 40
0.5
 50
180.0
 51
270.0
  0
ARC
  5
16BCE
  8
0
 10
315.55325002624022
 20
183.2077651329819
 30
0.0
 40
0.5
 50
0.0
 51
90.0
  0
ARC
  5
16BCF
  8
0
 10
315.55325002624022
 20
176.2077651329819
 30
0.0
 40
0.5
 50
270.0
 51
0.0
  0
LINE
  5
16BD0
  8
0
 10
335.0632496647745
 20
183.707764354814
 30
0.0
 11
334.56325051414069
 21
183.707764354814
 31
0.0
  0
LINE
  5
16BD1
  8
0
 10
334.56325051414069
 20
175.70776490615691
 30
0.0
 11
335.0632496647745
 21
175.70776490615691
 31
0.0
  0
LINE
  5
16BD2
  8
0
 10
315.0532500283885
 20
175.70776490615691
 30
0.0
 11
315.5532500303093
 21
175.70776490615691
 31
0.0
  0
LINE
  5
16BD3
  8
0
 10
315.5532500303093
 20
183.707764354814
 30
0.0
 11
315.0532500283885
 21
183.707764354814
 31
0.0
  0
LINE
  5
16BD7
  8
0
 10
331.06325087176862
 20
217.24513543890799
 30
0.0
 11
328.0632503800303
 21
217.24513543890799
 31
0.0
  0
LINE
  5
16BD8
  8
0
 10
322.055249801299
 20
217.24513543890799
 30
0.0
 11
319.0552502408832
 21
217.24513543890799
 31
0.0
  0
LINE
  5
16BD9
  8
0
 10
316.05525004018318
 20
174.7077652079054
 30
0.0
 11
319.0552502408832
 21
174.7077652079054
 31
0.0
  0
LINE
  5
16BDA
  8
0
 10
331.06325087176862
 20
174.7077652079054
 30
0.0
 11
334.06324950086167
 21
174.7077652079054
 31
0.0
  0
ARC
  5
16BDC
  8
0
 10
332.55525002623938
 20
177.7077651329819
 30
0.0
 40
1.0
 50
270.0
 51
0.0000000000008142
  0
ARC
  5
16BDD
  8
0
 10
332.55525002623938
 20
181.7077651329819
 30
0.0
 40
1.0
 50
0.0000000000008142
 51
90.0
  0
ARC
  5
16BDE
  8
0
 10
315.05525002623949
 20
177.70776513298179
 30
0.0
 40
1.0
 50
180.0
 51
270.0
  0
ARC
  5
16BDF
  8
0
 10
315.05525002623938
 20
181.70776513298179
 30
0.0
 40
1.0
 50
90.0
 51
180.0
  0
ARC
  5
16BE0
  8
0
 10
332.05525002623938
 20
181.7077651329819
 30
0.0
 40
1.0
 50
90.0
 51
180.0
  0
ARC
  5
16BE1
  8
0
 10
332.05525002623938
 20
177.7077651329819
 30
0.0
 40
1.0
 50
180.0
 51
270.0
  0
ARC
  5
16BE2
  8
0
 10
318.05525002623938
 20
177.7077651329819
 30
0.0
 40
1.0
 50
270.0
 51
0.0
  0
ARC
  5
16BE3
  8
0
 10
318.05525002623938
 20
181.7077651329819
 30
0.0
 40
1.0
 50
0.0000000000008142
 51
90.0
  0
LINE
  5
16BE4
  8
0
 10
332.5552501253992
 20
182.7077651222238
 30
0.0
 11
332.05524911212018
 21
182.7077651222238
 31
0.0
  0
LINE
  5
16BE5
  8
0
 10
332.05524911212018
 20
176.70776507006971
 30
0.0
 11
332.5552501253992
 21
176.70776507006971
 31
0.0
  0
LINE
  5
16BE6
  8
0
 10
318.05525007697042
 20
182.7077651222238
 30
0.0
 11
315.05525002906552
 21
182.7077651222238
 31
0.0
  0
LINE
  5
16BE7
  8
0
 10
315.05525002906552
 20
176.70776507006971
 30
0.0
 11
318.05525007697042
 21
176.70776507006971
 31
0.0
  0
LINE
  5
16BE8
  8
0
 10
331.05525081085261
 20
199.621364456881
 30
0.0
 11
328.05525031911429
 21
199.621364456881
 31
0.0
  0
LINE
  5
16BE9
  8
0
 10
322.055249801299
 20
199.621364456881
 30
0.0
 11
319.0552502408832
 21
199.621364456881
 31
0.0
  0
LINE
  5
16BEC
  8
0
 10
328.05525031911429
 20
201.1921517376789
 30
0.0
 11
322.0592498317568
 21
201.1921517376789
 31
0.0
  0
LINE
  5
16BED
  8
0
 10
317.8608604710758
 20
174.7077652079054
 30
0.0
 11
319.0552502408832
 21
169.930208456982
 31
0.0
  0
LINE
  5
16BEE
  8
0
 10
331.05525081085261
 20
169.890208385233
 30
0.0
 11
332.2596390269905
 21
174.7077652079054
 31
0.0
  0
LINE
  5
16BEF
  8
0
 10
327.55525023715791
 20
208.59513430045931
 30
0.0
 11
328.05525031911429
 21
209.0951353137383
 31
0.0
  0
LINE
  5
16BF0
  8
0
 10
328.05525031911429
 20
216.395135951508
 30
0.0
 11
327.55525023715791
 21
216.8951332394966
 31
0.0
  0
LINE
  5
16BF1
  8
0
 10
327.55525023715791
 20
216.8951332394966
 30
0.0
 11
322.55524988325533
 21
216.8951332394966
 31
0.0
  0
LINE
  5
16BF2
  8
0
 10
322.55524988325533
 20
208.59513430045931
 30
0.0
 11
327.55525023715791
 21
208.59513430045931
 31
0.0
  0
LINE
  5
16BF3
  8
0
 10
322.55524988325533
 20
216.8951332394966
 30
0.0
 11
322.055249801299
 21
216.395135951508
 31
0.0
  0
LINE
  5
16BF4
  8
0
 10
322.055249801299
 20
209.0951353137383
 30
0.0
 11
322.55524988325533
 21
208.59513430045931
 31
0.0
  0
LINE
  5
16BF7
  8
0
 10
317.55525002623921
 20
198.2953651329818
 30
0.0
 11
317.55525002623921
 21
191.282640693714
 31
0.0
  0
LINE
  5
16BF9
  8
0
 10
332.5632500262393
 20
191.28264069371409
 30
0.0
 11
332.5632500262098
 21
198.29537057567291
 31
0.0
  0
LINE
  5
16BFC
  8
0
 10
331.06325087176862
 20
198.27290622638549
 30
0.0
 11
331.06325087176862
 21
198.28066228078691
 31
0.0
  0
LINE
  5
16C15
  8
0
 10
335.56325002623868
 20
209.24513359954051
 30
0.0
 11
335.5632500262393
 21
216.24513433091019
 31
0.0
  0
LINE
  5
16C16
  8
0
 10
314.55325002623931
 20
209.2451343309101
 30
0.0
 11
314.55325002623931
 21
216.2451343309101
 31
0.0
  0
LINE
  5
16C17
  8
0
 10
335.56325002624021
 20
176.20776513298199
 30
0.0
 11
335.5632500262401
 21
183.20776513298199
 31
0.0
  0
LINE
  5
16C19
  8
0
 10
314.55325001240863
 20
176.84289752108171
 30
0.0
 11
314.55325002624022
 21
176.2077651329819
 31
0.0
  0
LINE
  5
16C1A
  8
0
 10
314.55325001191568
 20
182.57263274459589
 30
0.0
 11
314.55325001191568
 21
183.20073837535469
 31
0.0
  0
LINE
  5
16C1C
  8
0
 10
328.0632503800303
 20
210.06947381543009
 30
0.0
 11
331.06325087176862
 21
210.06947381543009
 31
0.0
  0
LINE
  5
16C1E
  8
0
 10
319.0552502408832
 20
210.06947381543009
 30
0.0
 11
322.055249801299
 21
210.06947381543009
 31
0.0
  0
ARC
  5
16C24
  8
0
 10
325.059249857834
 20
212.84588839790391
 30
0.0
 40
6.1373935353363036
 50
61.532008217016561
 51
118.4679917829834
  0
ARC
  5
16C27
  8
0
 10
325.059249857834
 20
215.72162996909179
 30
0.0
 40
6.1373935353363036
 50
61.532008217016561
 51
118.4679917829834
  0
LINE
  5
16C29
  8
0
 10
322.05924983175692
 20
218.07083485769121
 30
0.0
 11
322.1337523780972
 21
218.24117003129811
 31
0.0
  0
LINE
  5
16C2A
  8
0
 10
327.98474733757081
 20
218.24117003129811
 30
0.0
 11
328.05925034957232
 21
218.07083485769121
 31
0.0
  0
LINE
  5
16C2C
  8
0
 10
328.05925034957232
 20
189.35570491598929
 30
0.0
 11
328.05925034957232
 21
220.84437308954091
 31
0.0
  0
LINE
  5
16C2D
  8
0
 10
327.98474733757081
 20
221.11691160248611
 30
0.0
 11
328.05925034957232
 21
220.84437308954091
 31
0.0
  0
LINE
  5
16C2E
  8
0
 10
322.05924983175692
 20
220.84437308954091
 30
0.0
 11
322.05924983175692
 21
189.35570491598929
 31
0.0
  0
LINE
  5
16C2F
  8
0
 10
322.05924983175692
 20
220.84437308954091
 30
0.0
 11
322.1337523780972
 21
221.11691160248611
 31
0.0
  0
LINE
  5
16C37
  8
0
 10
316.05525004018318
 20
176.70776507006971
 30
0.0
 11
316.05525004018318
 21
174.7077652079054
 31
0.0
  0
LINE
  5
16C38
  8
0
 10
325.059249857834
 20
237.014047784079
 30
0.0
 11
325.059249857834
 21
233.66385696576921
 31
0.0
  0
ARC
  5
16C39
  8
0
 10
321.3192447518872
 20
233.66386235264429
 30
0.0
 40
3.7400051059505719
 50
315.000031477937
 51
359.99991747465799
  0
LINE
  5
16C3A
  8
0
 10
323.9638291768938
 20
231.0192808334717
 30
0.0
 11
319.27199089007672
 21
226.3274490659127
 31
0.0
  0
ARC
  5
16C3B
  8
0
 10
319.79524070539452
 20
225.8041943302932
 30
0.0
 40
0.739990464518426
 50
134.99973061509939
 51
180.00025280097
  0
LINE
  5
16C3C
  8
0
 10
319.0552502408832
 20
225.80419106530039
 30
0.0
 11
319.0552502408832
 21
173.35570555301399
 31
0.0
  0
ARC
  5
16C3D
  8
0
 10
311.55523598297827
 20
209.42480319983639
 30
0.0
 40
7.5000142579071634
 50
328.00002932572261
 51
359.99995590741992
  0
ARC
  5
16C3E
  8
0
 10
321.73180774788278
 20
203.0657733506111
 30
0.0
 40
4.4999804716623624
 50
147.99992903315859
 51
180.0000223897851
  0
LINE
  5
16C3F
  8
0
 10
317.23182727622088
 20
203.06577159212921
 30
0.0
 11
317.23182727622088
 21
192.2163720999846
 31
0.0
  0
ARC
  5
16C40
  8
0
 10
321.73181611678808
 20
192.21637087860651
 30
0.0
 40
4.499988840567366
 50
179.99998444889309
 51
212.00004041217511
  0
ARC
  5
16C41
  8
0
 10
311.55526269477519
 20
185.8573462891209
 30
0.0
 40
7.499987546108116
 50
359.99999980804228
 51
32.00002918839219
  0
ARC
  5
16C42
  8
0
 10
311.55525728717089
 20
185.8573463169194
 30
0.0
 40
4.4999927530122941
 50
359.99999932612781
 51
32.000026827243779
  0
ARC
  5
16C43
  8
0
 10
321.73181332837692
 20
192.2163714377624
 30
0.0
 40
7.4999861364407563
 50
179.99999494098549
 51
212.000030178542
  0
LINE
  5
16C44
  8
0
 10
314.23182719193619
 20
203.06577159212921
 30
0.0
 11
314.23182719193619
 21
192.2163720999846
 31
0.0
  0
ARC
  5
16C45
  8
0
 10
321.73180621812207
 20
203.0657724305415
 30
0.0
 40
7.499979026185998
 50
147.99995424586521
 51
180.0000064050171
  0
ARC
  5
16C46
  8
0
 10
311.55524319101067
 20
209.4247995545592
 30
0.0
 40
4.5000068491729568
 50
328.0000246372075
 51
359.99997292537859
  0
LINE
  5
16C47
  8
0
 10
316.05525004018318
 20
225.80419106530039
 30
0.0
 11
316.05525004018318
 21
209.42479742812009
 31
0.0
  0
ARC
  5
16C48
  8
0
 10
319.79524830304081
 20
225.8041885711369
 30
0.0
 40
3.739998262858542
 50
134.999989315329
 51
179.99996179007681
  0
LINE
  5
16C49
  8
0
 10
321.84250918256339
 20
233.14060269044731
 30
0.0
 11
317.15067066291567
 21
228.4487671975979
 31
0.0
  0
ARC
  5
16C4A
  8
0
 10
321.31924642610721
 20
233.66386278649219
 30
0.0
 40
0.7400034056727081
 50
315.00014565409742
 51
359.99954932253422
  0
LINE
  5
16C4B
  8
0
 10
322.05924983175697
 20
237.00704771602659
 30
0.0
 11
322.05924983175692
 21
233.66385696576921
 31
0.0
  0
LINE
  5
16C4D
  8
0
 10
316.05525004018318
 20
185.85734626399369
 30
0.0
 11
316.05525004018318
 21
182.7077651222238
 31
0.0
  0
ARC
  5
16C4E
  8
0
 10
311.55525728717089
 20
185.84369126533039
 30
0.0
 40
4.4999927530122372
 50
359.99999932612781
 51
32.000026827243779
  0
ARC
  5
16C4F
  8
0
 10
321.73181046477868
 20
192.20271556504909
 30
0.0
 40
7.4999832728427052
 50
179.9999886680425
 51
212.00003645148681
  0
LINE
  5
16C50
  8
0
 10
314.23182719193619
 20
192.2163720999846
 30
0.0
 11
314.23182719193619
 21
192.20271704839561
 31
0.0
  0
ARC
  5
16C51
  8
0
 10
321.73182448574659
 20
203.0521153621562
 30
0.0
 40
4.4999972095258141
 50
147.99999014259899
 51
180.0000087122894
  0
LINE
  5
16C52
  8
0
 10
319.0552502408832
 20
209.42479742812009
 30
0.0
 11
319.0552502408832
 21
209.4241119747052
 31
0.0
  0
ARC
  5
16C53
  8
0
 10
311.55526694143202
 20
209.41114113369329
 30
0.0
 40
7.4999832994511992
 50
327.99996150896601
 51
359.9999952650108
  0
LINE
  5
16C5A
  8
0
 10
328.05925034957232
 20
233.66385696576921
 30
0.0
 11
328.05925034957238
 21
237.0070519124117
 31
0.0
  0
ARC
  5
16C5B
  8
0
 10
328.79925114251569
 20
233.663862169932
 30
0.0
 40
0.7400007929617872
 50
180.00040294086921
 51
224.99998912664859
  0
LINE
  5
16C5C
  8
0
 10
332.96782975124421
 20
228.4487671975979
 30
0.0
 11
328.27599146442708
 21
233.14060269044731
 31
0.0
  0
ARC
  5
16C5D
  8
0
 10
330.32325456086511
 20
225.8041908206271
 30
0.0
 40
3.7399949399966279
 50
0.0000037483328508
 51
45.000012853992203
  0
LINE
  5
16C5E
  8
0
 10
334.06324950086167
 20
209.42479742812009
 30
0.0
 11
334.06324950086167
 21
225.80419106530039
 31
0.0
  0
ARC
  5
16C5F
  8
0
 10
338.56325529480318
 20
209.42480069583041
 30
0.0
 40
4.5000057939425853
 50
180.000041605728
 51
212.00000089303131
  0
ARC
  5
16C60
  8
0
 10
328.38668763961181
 20
203.0657711463023
 30
0.0
 40
7.4999852915734788
 50
0.0000034058735209
 51
32.000027414041753
  0
LINE
  5
16C61
  8
0
 10
335.88667293118527
 20
192.2163720999846
 30
0.0
 11
335.88667293118527
 21
203.06577159212921
 31
0.0
  0
ARC
  5
16C62
  8
0
 10
328.38668052935208
 20
192.21637272200189
 30
0.0
 40
7.4999924018332793
 50
327.99998816153698
 51
359.99999524813359
  0
ARC
  5
16C63
  8
0
 10
338.5632411986719
 20
185.8573451756443
 30
0.0
 40
4.4999916978103673
 50
147.9999476425819
 51
179.99998614267921
  0
ARC
  5
16C64
  8
0
 10
338.56322003462139
 20
185.85735230565041
 30
0.0
 40
7.499969162855268
 50
147.99993725462039
 51
180.00004615504841
  0
ARC
  5
16C65
  8
0
 10
328.38669115516791
 20
192.2163672214522
 30
0.0
 40
4.4999812842817457
 50
327.99995437695412
 51
0.0000621156617523
  0
LINE
  5
16C66
  8
0
 10
332.88667243944701
 20
192.2163720999846
 30
0.0
 11
332.88667243944701
 21
203.06577159212921
 31
0.0
  0
ARC
  5
16C67
  8
0
 10
328.38669952414682
 20
203.0657770077861
 30
0.0
 40
4.4999729153034513
 50
359.99993104530012
 51
32.000076178048353
  0
ARC
  5
16C68
  8
0
 10
338.56324674632327
 20
209.4247971832794
 30
0.0
 40
7.4999958745548003
 50
179.99999812955369
 51
212.00000423120611
  0
LINE
  5
16C69
  8
0
 10
331.05525081085261
 20
173.35570555301399
 30
0.0
 11
331.05525081085261
 21
225.80419106530039
 31
0.0
  0
ARC
  5
16C6A
  8
0
 10
330.3232486644547
 20
225.80418900059891
 30
0.0
 40
0.740002207316688
 50
0.0001598626071844
 51
44.99994376503075
  0
LINE
  5
16C6B
  8
0
 10
330.8465097569138
 20
226.3274490659127
 30
0.0
 11
326.1546705387741
 21
231.0192808334717
 31
0.0
  0
ARC
  5
16C6C
  8
0
 10
328.79926409780711
 20
233.6638661360868
 30
0.0
 40
3.7400142399844789
 50
180.00014048622839
 51
224.9999105611808
  0
LINE
  5
16C6F
  8
0
 10
334.06324950086167
 20
174.7077652079054
 30
0.0
 11
334.06324950086167
 21
185.85734626399369
 31
0.0
  0
ARC
  5
16C70
  8
0
 10
338.5632411986719
 20
185.84369012405531
 30
0.0
 40
4.4999916978103673
 50
147.9999476425819
 51
179.99998614267921
  0
LINE
  5
16C71
  8
0
 10
335.88667293118527
 20
192.20271704839561
 30
0.0
 11
335.88667293118527
 21
192.2163720999846
 31
0.0
  0
ARC
  5
16C72
  8
0
 10
328.38668339295617
 20
192.2027168492871
 30
0.0
 40
7.499989538229161
 50
327.9999818885891
 51
0.0000015210782415
  0
ARC
  5
16C73
  8
0
 10
328.38668278613568
 20
203.0521190192899
 30
0.0
 40
4.4999896533133681
 50
359.99994472351813
 51
32.000015067942847
  0
ARC
  5
16C75
  8
0
 10
338.56321578793018
 20
209.4111351171517
 30
0.0
 40
7.4999649161636279
 50
179.99995877179421
 51
212.00007204812391
  0
LINE
  5
16C7B
  8
0
 10
333.55525002623938
 20
177.70776513298199
 30
0.0
 11
333.55525028931203
 21
181.7067377095112
 31
0.0
  0
LINE
  5
16C7C
  8
0
 10
314.055250003396
 20
181.7067377095112
 30
0.0
 11
314.05525002623949
 21
177.70776513298179
 31
0.0
  0
LINE
  5
16C80
  8
0
 10
319.0552502408832
 20
173.35570555301399
 30
0.0
 11
331.05525081085261
 21
173.35570555301399
 31
0.0
  0
LINE
  5
16C81
  8
0
 10
331.05525081085261
 20
189.35570491598929
 30
0.0
 11
319.0552502408832
 21
189.35570491598929
 31
0.0
  0
ARC
  5
16C8D
  8
0
 10
319.05525002623949
 20
169.0057056829819
 30
0.0
 40
3.0
 50
270.0
 51
0.0
  0
LINE
  5
16C8E
  8
0
 10
319.0552502408832
 20
166.00570569867281
 30
0.0
 11
305.40524967985448
 21
166.00570569867281
 31
0.0
  0
LINE
  5
16C8F
  8
0
 10
319.0552502408832
 20
169.00570572474979
 30
0.0
 11
305.40524967985448
 21
169.00570572474979
 31
0.0
  0
LINE
  5
16C90
  8
0
 10
319.0552502408832
 20
173.35570555301399
 30
0.0
 11
319.0552502408832
 21
169.00570572474979
 31
0.0
  0
LINE
  5
16C91
  8
0
 10
322.055249801299
 20
173.35570555301399
 30
0.0
 11
322.055249801299
 21
169.00570572474979
 31
0.0
  0
LINE
  5
16C92
  8
0
 10
344.7052509062201
 20
166.0057056986729
 30
0.0
 11
331.05525081085261
 21
166.00570569867281
 31
0.0
  0
ARC
  5
16C93
  8
0
 10
331.05525002623949
 20
169.0057056829819
 30
0.0
 40
3.0
 50
180.00000000000159
 51
270.0
  0
LINE
  5
16C94
  8
0
 10
344.7052509062201
 20
169.0057057247499
 30
0.0
 11
331.05525081085261
 21
169.00570572474979
 31
0.0
  0
LINE
  5
16C95
  8
0
 10
331.05525081085261
 20
169.00570572474979
 30
0.0
 11
331.05525081085261
 21
173.35570555301399
 31
0.0
  0
LINE
  5
16C96
  8
0
 10
328.05525031911429
 20
169.00570572474979
 30
0.0
 11
328.05525031911429
 21
173.35570555301399
 31
0.0
  0
LINE
  5
16C9A
  8
0
 10
305.40524967985448
 20
169.00570572474979
 30
0.0
 11
305.40524967985448
 21
166.00570569867281
 31
0.0
  0
LINE
  5
16C9D
  8
0
 10
344.7052509062201
 20
166.00570569867281
 30
0.0
 11
344.7052509062201
 21
169.00570572474979
 31
0.0
  0
LINE
  5
16CAA
  8
0
 10
325.05524982737592
 20
189.35570491598929
 30
0.0
 11
325.05524982737597
 21
201.1921517376789
 31
0.0
  0
ARC
  5
16CAC
  8
0
 10
331.05528910549702
 20
183.54370932777559
 30
0.0
 40
16.049629770235718
 50
89.375392312355515
 51
90.00013670854446
  0
ARC
  5
16CAD
  8
0
 10
319.04171377475609
 20
186.0204661158603
 30
0.0
 40
13.572879732182139
 50
89.942857925329093
 51
90.681609730503297
  0
LINE
  5
16CAE
  8
0
 10
331.09422852324542
 20
189.45850430177541
 30
0.0
 11
331.05525081085261
 21
189.4584949885496
 31
0.0
  0
POLYLINE
  5
16CAF
  8
0
 66
     1
 10
0.0
 20
0.0
 30
0.0
 70
   128
  0
VERTEX
  5
17ED9
  8
0
 10
331.05525081085261
 20
189.4586160604843
 30
0.0
  0
VERTEX
  5
17EDA
  8
0
 10
331.05837632941302
 20
189.45860674725861
 30
0.0
  0
VERTEX
  5
17EDB
  8
0
 10
331.09422852324542
 20
189.45850430177541
 30
0.0
  0
SEQEND
  5
17EDC
  8
0
  0
POLYLINE
  5
16CB0
  8
0
 66
     1
 10
0.0
 20
0.0
 30
0.0
 70
   128
  0
VERTEX
  5
17EDD
  8
0
 10
319.0162720628291
 20
189.46071898685781
 30
0.0
  0
VERTEX
  5
17EDE
  8
0
 10
319.05212379100021
 20
189.46082143234099
 30
0.0
  0
VERTEX
  5
17EDF
  8
0
 10
319.0552502408832
 20
189.46082888292159
 30
0.0
  0
SEQEND
  5
17EE0
  8
0
  0
LINE
  5
16CB1
  8
0
 10
319.0552502408832
 20
189.4607096736321
 30
0.0
 11
319.0162720628291
 21
189.46071898685781
 31
0.0
  0
LINE
  5
16CB2
  8
0
 10
331.09422852324542
 20
189.45850430177541
 30
0.0
 11
331.19197082745131
 21
189.52333366619439
 31
0.0
  0
LINE
  5
16CB3
  8
0
 10
331.19197082745131
 20
189.52333366619439
 30
0.0
 11
331.23025004791322
 21
189.5861420606264
 31
0.0
  0
LINE
  5
16CB4
  8
0
 10
331.23025004791322
 20
189.5861420606264
 30
0.0
 11
331.23025004791322
 21
190.9096650605091
 31
0.0
  0
LINE
  5
16CB5
  8
0
 10
331.23025004791322
 20
198.6683402036318
 30
0.0
 11
331.23025004791322
 21
199.5923854236492
 31
0.0
  0
LINE
  5
16CB6
  8
0
 10
318.88025007250008
 20
199.5923854236492
 30
0.0
 11
318.88025007250008
 21
198.67533257352201
 31
0.0
  0
LINE
  5
16CB7
  8
0
 10
318.88025007250008
 20
190.90267269061891
 30
0.0
 11
318.88025007250008
 21
189.58828969048349
 31
0.0
  0
LINE
  5
16CB8
  8
0
 10
318.88025007250008
 20
189.58828969048349
 30
0.0
 11
319.0162720628291
 21
189.46071898685781
 31
0.0
  0
LINE
  5
16CBE
  8
0
 10
331.47227284537848
 20
199.73767038385941
 30
0.0
 11
331.05525081085261
 21
199.73795620690331
 31
0.0
  0
LINE
  5
16CBF
  8
0
 10
319.0552502408832
 20
199.73795926817311
 30
0.0
 11
318.6322267636865
 21
199.73767038385941
 31
0.0
  0
LINE
  5
16CC4
  8
0
 10
331.47227284537848
 20
201.73766698639469
 30
0.0
 11
331.05525081085261
 21
201.7379463831671
 31
0.0
  0
LINE
  5
16CC5
  8
0
 10
319.04725017996731
 20
201.7379463831671
 30
0.0
 11
318.6322267636865
 21
201.73766698639469
 31
0.0
  0
ARC
  5
16CC6
  8
0
 10
318.58237025049982
 20
199.2770243078877
 30
0.0
 40
2.4611477125920098
 50
88.839255693575183
 51
123.5040365992058
  0
ARC
  5
16CC7
  8
0
 10
318.63390568845767
 20
198.9998488363143
 30
0.0
 40
0.7378234577527949
 50
90.130377240671962
 51
150.09633231215
  0
ARC
  5
16CCA
  8
0
 10
331.47059987338048
 20
198.99985789239901
 30
0.0
 40
0.7378143881698472
 50
29.90326147544851
 51
89.870083426941605
  0
POLYLINE
  5
16CCB
  8
0
 66
     1
 10
0.0
 20
0.0
 30
0.0
 70
   128
  0
VERTEX
  5
17EE1
  8
0
 10
331.47227284537848
 20
201.73766698639469
 30
0.0
  0
VERTEX
  5
17EE2
  8
0
 10
332.46934120582642
 20
201.5490331868418
 30
0.0
  0
VERTEX
  5
17EE3
  8
0
 10
332.87867237853112
 20
201.2952962140329
 30
0.0
  0
SEQEND
  5
17EE4
  8
0
  0
POLYLINE
  5
16CCF
  8
0
 66
     1
 10
0.0
 20
0.0
 30
0.0
 70
   128
  0
VERTEX
  5
17EE5
  8
0
 10
332.87867237853112
 20
198.03363505702089
 30
0.0
  0
VERTEX
  5
17EE6
  8
0
 10
332.84634058403071
 20
198.0898720393665
 30
0.0
  0
VERTEX
  5
17EE7
  8
0
 10
332.66761419402661
 20
198.40040478806571
 30
0.0
  0
VERTEX
  5
17EE8
  8
0
 10
332.42103722917142
 20
198.82841270368169
 30
0.0
  0
VERTEX
  5
17EE9
  8
0
 10
332.1101878307968
 20
199.3676857272871
 30
0.0
  0
SEQEND
  5
17EEA
  8
0
  0
POLYLINE
  5
16CD0
  8
0
 66
     1
 10
0.0
 20
0.0
 30
0.0
 70
   128
  0
VERTEX
  5
17EEB
  8
0
 10
317.99431247676011
 20
199.3676857272871
 30
0.0
  0
VERTEX
  5
17EEC
  8
0
 10
317.68346307838561
 20
198.82841270368169
 30
0.0
  0
VERTEX
  5
17EED
  8
0
 10
317.43688634636101
 20
198.40040478806571
 30
0.0
  0
VERTEX
  5
17EEE
  8
0
 10
317.25815949069562
 20
198.0898720393665
 30
0.0
  0
VERTEX
  5
17EEF
  8
0
 10
317.22382721530488
 20
198.030153773237
 30
0.0
  0
SEQEND
  5
17EF0
  8
0
  0
LINE
  5
16CD2
  8
0
 10
318.71648780560338
 20
188.0859485649475
 30
0.0
 11
319.0552502408832
 21
188.08605613996539
 31
0.0
  0
LINE
  5
16CD3
  8
0
 10
331.05525081085261
 20
188.08606172790081
 30
0.0
 11
331.40201230429921
 21
188.0859485649475
 31
0.0
  0
LINE
  5
16CD7
  8
0
 10
318.64022682460251
 20
190.0857770710185
 30
0.0
 11
318.88025007250008
 21
190.08594098379169
 31
0.0
  0
LINE
  5
16CD8
  8
0
 10
331.23025004791322
 20
190.08594843437231
 30
0.0
 11
331.48027290629437
 21
190.0857770710185
 31
0.0
  0
ARC
  5
16CDA
  8
0
 10
331.48194475258919
 20
190.82116381797891
 30
0.0
 40
0.7353886473661915
 50
269.86974259183569
 51
329.90320142975469
  0
ARC
  5
16CDD
  8
0
 10
318.63856201989228
 20
190.82117485815741
 30
0.0
 40
0.7353996715415934
 50
210.09729493493299
 51
270.12970683666521
  0
POLYLINE
  5
16CDE
  8
0
 66
     1
 10
0.0
 20
0.0
 30
0.0
 70
   128
  0
VERTEX
  5
17EF1
  8
0
 10
332.11818789171281
 20
190.45239406516109
 30
0.0
  0
VERTEX
  5
17EF2
  8
0
 10
332.36994863002002
 20
190.8877534105066
 30
0.0
  0
SEQEND
  5
17EF3
  8
0
  0
POLYLINE
  5
16CDF
  8
0
 66
     1
 10
0.0
 20
0.0
 30
0.0
 70
   128
  0
VERTEX
  5
17EF4
  8
0
 10
317.2570695045315
 20
191.74040625667621
 30
0.0
  0
VERTEX
  5
17EF5
  8
0
 10
317.44488640727701
 20
191.41609127511529
 30
0.0
  0
VERTEX
  5
17EF6
  8
0
 10
317.55942958683181
 20
191.2181264172643
 30
0.0
  0
SEQEND
  5
17EF7
  8
0
  0
LINE
  5
16CE2
  8
0
 10
327.55525023715791
 20
208.59513430045931
 30
0.0
 11
327.55525023715791
 21
216.8951332394966
 31
0.0
  0
LINE
  5
16CE3
  8
0
 10
322.55524988325533
 20
216.8951332394966
 30
0.0
 11
322.55524988325533
 21
208.59513430045931
 31
0.0
  0
ARC
  5
16CEA
  8
0
 10
230.48289873519781
 20
93.005353638689996
 30
0.0
 40
1.0
 50
90.0
 51
120.382746854443
  0
LINE
  5
16CED
  8
0
 10
237.35884865815069
 20
80.005353345815195
 30
0.0
 11
237.35884865815069
 21
86.005353863630546
 31
0.0
  0
CIRCLE
  5
16CEE
  8
0
 10
185.28370731690359
 20
83.000357029661174
 30
0.0
 40
7.4705280219136512
  0
LINE
  5
16CF3
  8
0
 10
221.54529867762949
 20
85.505353781674145
 30
0.0
 11
221.0452985956731
 21
86.005353863630546
 31
0.0
  0
LINE
  5
16CF4
  8
0
 10
213.74529888922601
 20
86.005353863630546
 30
0.0
 11
213.24529880726959
 21
85.505353781674145
 31
0.0
  0
LINE
  5
16CF5
  8
0
 10
213.24529880726959
 20
85.505353781674145
 30
0.0
 11
213.24529880726959
 21
80.505353427771567
 31
0.0
  0
LINE
  5
16CF6
  8
0
 10
221.54529867762949
 20
80.505353427771567
 30
0.0
 11
221.54529867762949
 21
85.505353781674145
 31
0.0
  0
LINE
  5
16CF7
  8
0
 10
213.24529880726959
 20
80.505353427771567
 30
0.0
 11
213.74529888922601
 21
80.005353345815195
 31
0.0
  0
LINE
  5
16CF8
  8
0
 10
221.0452985956731
 20
80.005353345815195
 30
0.0
 11
221.54529867762949
 21
80.505353427771567
 31
0.0
  0
LINE
  5
16D07
  8
0
 10
207.70807294244199
 20
82.858255257722547
 30
0.0
 11
207.70807294244199
 21
83.152453440613101
 31
0.0
  0
ARC
  5
16D0D
  8
0
 10
210.71328110345149
 20
80.001373225843764
 30
0.0
 40
3.0040204326963971
 50
229.524395413142
 51
269.99982783422411
  0
ARC
  5
16D0E
  8
0
 10
210.41717368399841
 20
79.779245013786095
 30
0.0
 40
2.644083577383292
 50
184.97373302380501
 51
231.28108407513449
  0
LINE
  5
16D10
  8
0
 10
210.71327207679181
 20
76.997352793160928
 30
0.0
 11
211.80729856783771
 21
76.997352793160928
 31
0.0
  0
POLYLINE
  5
16D12
  8
0
 66
     1
 10
0.0
 20
0.0
 30
0.0
 70
   128
  0
VERTEX
  5
17EF8
  8
0
 10
207.76047660107039
 20
86.474282230530036
 30
0.0
  0
VERTEX
  5
17EF9
  8
0
 10
207.81689798528581
 20
86.764015286509036
 30
0.0
  0
VERTEX
  5
17EFA
  8
0
 10
208.08416334981351
 20
87.438040907774209
 30
0.0
  0
SEQEND
  5
17EFB
  8
0
  0
ARC
  5
16D13
  8
0
 10
210.72233295571891
 20
86.001355403414138
 30
0.0
 40
3.0039980206321459
 50
90.000000793417016
 51
151.42832168870609
  0
LINE
  5
16D18
  8
0
 10
210.72233291412019
 20
89.005353424046277
 30
0.0
 11
211.80729856783771
 21
89.005353424046277
 31
0.0
  0
LINE
  5
16D1C
  8
0
 10
219.02351044187569
 20
93.828776472993283
 30
0.0
 11
217.39428686047219
 21
93.828776472993283
 31
0.0
  0
LINE
  5
16D1D
  8
0
 10
217.36732600325971
 20
72.173930733744157
 30
0.0
 11
219.04727127472191
 21
72.173930733744157
 31
0.0
  0
LINE
  5
16D1F
  8
0
 10
232.03729195589449
 20
94.005353661533533
 30
0.0
 11
230.48392599517729
 21
94.005353661533533
 31
0.0
  0
CIRCLE
  5
16D23
  8
0
 10
230.90889873519799
 20
96.455353638689971
 30
0.0
 40
2.75
  0
CIRCLE
  5
16D24
  8
0
 10
218.20889873519801
 20
96.455353638689957
 30
0.0
 40
2.7499999999999849
  0
ARC
  5
16D25
  8
0
 10
230.90889873519799
 20
96.255353638689982
 30
0.0
 40
6.3999999999999906
 50
0.0000000000008142
 51
90.0
  0
LINE
  5
16D26
  8
0
 10
211.80729856783771
 20
96.255353681091336
 30
0.0
 11
211.80729856783771
 21
86.005353863630546
 31
0.0
  0
ARC
  5
16D27
  8
0
 10
218.20729874260121
 20
96.255353638689982
 30
0.0
 40
6.4000000000000341
 50
90.0
 51
180.0
  0
LINE
  5
16D28
  8
0
 10
230.90889873052259
 20
102.655353985075
 30
0.0
 11
218.20729887182139
 21
102.655353985075
 31
0.0
  0
LINE
  5
16D29
  8
0
 10
237.30889903450631
 20
86.005353863630546
 30
0.0
 11
237.30889903450631
 21
96.255353681091336
 31
0.0
  0
CIRCLE
  5
16D2D
  8
0
 10
218.2072987351977
 20
69.555353638690065
 30
0.0
 40
2.749999999999992
  0
CIRCLE
  5
16D2E
  8
0
 10
230.90729873519771
 20
69.555353638689979
 30
0.0
 40
2.749999999999992
  0
ARC
  5
16D2F
  8
0
 10
218.2072987326012
 20
69.755353638690082
 30
0.0
 40
6.4000000000000048
 50
179.9999999999992
 51
270.0
  0
ARC
  5
16D30
  8
0
 10
230.90889873519791
 20
69.755353638689996
 30
0.0
 40
6.3999999999999977
 50
270.0
 51
0.0
  0
LINE
  5
16D31
  8
0
 10
218.20729887182139
 20
63.355352758709437
 30
0.0
 11
230.90889873052259
 21
63.355352758709437
 31
0.0
  0
LINE
  5
16D32
  8
0
 10
211.80729856783771
 20
80.005353345815195
 30
0.0
 11
211.80729856783771
 21
69.755353062693132
 31
0.0
  0
LINE
  5
16D33
  8
0
 10
237.30889903450631
 20
69.755353062693132
 30
0.0
 11
237.30889903450631
 21
80.005353345815195
 31
0.0
  0
LINE
  5
16D38
  8
0
 10
239.05889233643441
 20
80.005353345815195
 30
0.0
 11
239.05889233643441
 21
86.005353863630546
 31
0.0
  0
ARC
  5
16D39
  8
0
 10
239.05889220260121
 20
86.005353638689996
 30
0.0
 40
3.0
 50
0.0000000000008142
 51
90.0
  0
LINE
  5
16D3A
  8
0
 10
242.0588928281727
 20
80.005353345815195
 30
0.0
 11
242.0588928281727
 21
86.005353863630546
 31
0.0
  0
ARC
  5
16D3B
  8
0
 10
239.05889220260121
 20
80.005353638689954
 30
0.0
 40
3.0
 50
270.0
 51
0.0000000000008142
  0
LINE
  5
16D3E
  8
0
 10
239.05889233643441
 20
77.005352854076875
 30
0.0
 11
237.3088990345062
 21
77.005352854076875
 31
0.0
  0
LINE
  5
16D3F
  8
0
 10
239.05889233643441
 20
89.005353424046277
 30
0.0
 11
237.30889903450631
 21
89.005353424046305
 31
0.0
  0
LINE
  5
16D41
  8
0
 10
239.05889233643441
 20
80.005353345815195
 30
0.0
 11
208.7469725876513
 21
80.005353345815195
 31
0.0
  0
LINE
  5
16D43
  8
0
 10
208.7469725876513
 20
86.005353863630546
 30
0.0
 11
239.05889233643441
 21
86.005353863630546
 31
0.0
  0
LINE
  5
16D44
  8
0
 10
208.7469725876513
 20
83.005353837553514
 30
0.0
 11
213.24529880726951
 21
83.005353837553514
 31
0.0
  0
LINE
  5
16D45
  8
0
 10
221.54529867762949
 20
83.005353837553514
 30
0.0
 11
230.98289873519769
 21
83.005353837553514
 31
0.0
  0
ARC
  5
16D49
  8
0
 10
208.7469542016793
 20
86.747418876406215
 30
0.0
 40
3.7420650388978611
 50
239.0087629396848
 51
270.00028151263768
  0
ARC
  5
16D4A
  8
0
 10
208.7469572833013
 20
86.747440973444583
 30
0.0
 40
0.742087109971862
 50
239.04477791552591
 51
270.00118163306388
  0
ARC
  5
16D4E
  8
0
 10
208.74696974757759
 20
79.263153997261426
 30
0.0
 40
3.742199840293174
 50
89.999956516422074
 51
111.6207496975555
  0
LINE
  5
16D50
  8
0
 10
206.82014627451329
 20
82.471159315947546
 30
0.0
 11
207.36811412567519
 21
82.742064289096845
 31
0.0
  0
ARC
  5
16D52
  8
0
 10
208.7469649928538
 20
79.263168523505556
 30
0.0
 40
0.7421848223484908
 50
89.999413690730748
 51
111.5948895078886
  0
LINE
  5
16D53
  8
0
 10
208.3652607172194
 20
79.899657546822084
 30
0.0
 11
208.4738100885811
 21
79.953258886281503
 31
0.0
  0
LINE
  5
16D56
  8
0
 10
202.59953020209699
 20
79.936049907747758
 30
0.0
 11
206.82014627451329
 21
82.471159315947546
 31
0.0
  0
LINE
  5
16D61
  8
0
 10
208.3652607172194
 20
79.899657546822084
 30
0.0
 11
204.14464464480309
 21
77.364548138622311
 31
0.0
  0
POLYLINE
  5
16D63
  8
0
 66
     1
 10
0.0
 20
0.0
 30
0.0
 70
   128
  0
VERTEX
  5
17EFC
  8
0
 10
206.82013882393269
 20
83.539548359159468
 30
0.0
  0
VERTEX
  5
17EFD
  8
0
 10
206.339151692337
 20
83.828409231547354
 30
0.0
  0
VERTEX
  5
17EFE
  8
0
 10
205.85030419821169
 20
84.122002153936876
 30
0.0
  0
VERTEX
  5
17EFF
  8
0
 10
205.3541309207144
 20
84.420006751362337
 30
0.0
  0
VERTEX
  5
17F00
  8
0
 10
204.8511757522287
 20
84.722096129600047
 30
0.0
  0
VERTEX
  5
17F01
  8
0
 10
204.34198817307379
 20
85.027940600458635
 30
0.0
  0
VERTEX
  5
17F02
  8
0
 10
203.82712511414911
 20
85.337205353472484
 30
0.0
  0
VERTEX
  5
17F03
  8
0
 10
203.3071490942898
 20
85.649552318547009
 30
0.0
  0
VERTEX
  5
17F04
  8
0
 10
202.78263008291151
 20
85.964638768974794
 30
0.0
  0
SEQEND
  5
17F05
  8
0
  0
LINE
  5
16D64
  8
0
 10
202.78263008291151
 20
85.964638768974794
 30
0.0
 11
202.59952833945181
 21
86.074657301697968
 31
0.0
  0
POLYLINE
  5
16D65
  8
0
 66
     1
 10
0.0
 20
0.0
 30
0.0
 70
   128
  0
VERTEX
  5
17F06
  8
0
 10
208.3652514039936
 20
86.111049662623657
 30
0.0
  0
VERTEX
  5
17F07
  8
0
 10
207.88426427239801
 20
86.399910535011529
 30
0.0
  0
VERTEX
  5
17F08
  8
0
 10
207.3954186409178
 20
86.693503923062323
 30
0.0
  0
VERTEX
  5
17F09
  8
0
 10
206.8992453634205
 20
86.991508520487784
 30
0.0
  0
VERTEX
  5
17F0A
  8
0
 10
206.39629019493489
 20
87.293598364386796
 30
0.0
  0
VERTEX
  5
17F0B
  8
0
 10
205.8871026157799
 20
87.599442835245384
 30
0.0
  0
VERTEX
  5
17F0C
  8
0
 10
205.37223955685519
 20
87.908707588259219
 30
0.0
  0
VERTEX
  5
17F0D
  8
0
 10
204.85226353699591
 20
88.221054087672485
 30
0.0
  0
VERTEX
  5
17F0E
  8
0
 10
204.32774452561759
 20
88.536141003761529
 30
0.0
  0
SEQEND
  5
17F0F
  8
0
  0
LINE
  5
16D68
  8
0
 10
204.32774452561759
 20
88.536141003761529
 30
0.0
 11
204.14464278215789
 21
88.646159536484717
 31
0.0
  0
ARC
  5
16D6E
  8
0
 10
202.2183850029021
 20
80.570385158404321
 30
0.0
 40
3.7400357224792962
 50
285.5001319369602
 51
300.9999793270801
  0
LINE
  5
16D6F
  8
0
 10
203.21787437493231
 20
76.966375141684068
 30
0.0
 11
202.7520733892384
 21
76.868632837478174
 31
0.0
  0
LINE
  5
16D70
  8
0
 10
202.7520733892384
 20
76.868632837478174
 30
0.0
 11
202.21829516882329
 21
76.830353617016328
 31
0.0
  0
LINE
  5
16D71
  8
0
 10
202.21829516882329
 20
79.830353177432073
 30
0.0
 11
202.32395185226821
 21
79.837927623931421
 31
0.0
  0
LINE
  5
16D72
  8
0
 10
202.32395371491339
 20
79.837927623931421
 30
0.0
 11
202.41615837509059
 21
79.857267468515886
 31
0.0
  0
ARC
  5
16D73
  8
0
 10
202.21843397626679
 20
80.570282128117896
 30
0.0
 40
0.7399221869207587
 50
285.49909961030772
 51
301.00073418922568
  0
LINE
  5
16D78
  8
0
 10
202.4161565124455
 20
86.153440206591128
 30
0.0
 11
202.21829330617811
 21
86.180353566352366
 31
0.0
  0
LINE
  5
16D7A
  8
0
 10
202.21829330617811
 20
89.180353592429398
 30
0.0
 11
203.21787251228719
 21
89.044331602100385
 31
0.0
  0
ARC
  5
16D7B
  8
0
 10
202.2184125701705
 20
85.440383807209798
 30
0.0
 40
0.7399676313225767
 50
58.999614735449427
 51
74.500305810953009
  0
ARC
  5
16D7D
  8
0
 10
202.21838686092599
 20
85.440322747030223
 30
0.0
 40
3.740033608766228
 50
59.00006771339519
 51
74.499918233285442
  0
LINE
  5
16D7F
  8
0
 10
172.18383317882439
 20
79.830353177432073
 30
0.0
 11
175.7953893276067
 21
79.830356407612257
 31
0.0
  0
LINE
  5
16D86
  8
0
 10
194.7638936005734
 20
79.830356407612243
 30
0.0
 11
202.21829516882329
 21
79.830353177432073
 31
0.0
  0
LINE
  5
16D87
  8
0
 10
202.21829516882329
 20
76.830353617016328
 30
0.0
 11
201.97723535890009
 21
76.830353617016328
 31
0.0
  0
LINE
  5
16D88
  8
0
 10
201.97723535890009
 20
76.830353617016328
 30
0.0
 11
200.85460981423279
 21
76.830353617016328
 31
0.0
  0
LINE
  5
16D89
  8
0
 10
200.85460981423279
 20
76.830353617016328
 30
0.0
 11
200.1218694269123
 21
76.830353617016328
 31
0.0
  0
LINE
  5
16D8A
  8
0
 10
200.1218694269123
 20
76.830353617016328
 30
0.0
 11
199.7015635489883
 21
76.830353617016328
 31
0.0
  0
LINE
  5
16D8B
  8
0
 10
199.7015635489883
 20
76.830353617016328
 30
0.0
 11
199.26298698479559
 21
76.830353617016328
 31
0.0
  0
LINE
  5
16D8C
  8
0
 10
199.26298698479559
 20
76.830353617016328
 30
0.0
 11
198.578396106837
 21
76.830356847196512
 31
0.0
  0
LINE
  5
16D8D
  8
0
 10
172.18383317882439
 20
76.830353617016328
 30
0.0
 11
177.41001182905899
 21
76.830356847196512
 31
0.0
  0
LINE
  5
16D8E
  8
0
 10
193.149270653462
 20
76.830356847196512
 30
0.0
 11
198.578396106837
 21
76.830356847196512
 31
0.0
  0
LINE
  5
16D8F
  8
0
 10
202.21829330617811
 20
89.180353592429398
 30
0.0
 11
198.578396106837
 21
89.180356822609596
 31
0.0
  0
LINE
  5
16D90
  8
0
 10
198.578396106837
 20
89.180356822609596
 30
0.0
 11
193.1414177415129
 21
89.180356822609596
 31
0.0
  0
LINE
  5
16D91
  8
0
 10
177.41786205032449
 20
89.180356822609596
 30
0.0
 11
172.18383317882439
 21
89.180353592429398
 31
0.0
  0
LINE
  5
16D92
  8
0
 10
202.21829330617811
 20
86.180353566352366
 30
0.0
 11
194.76054564447969
 21
86.180356796532564
 31
0.0
  0
LINE
  5
16D94
  8
0
 10
175.79873728370029
 20
86.180356796532564
 30
0.0
 11
172.18383317882439
 21
86.180353566352366
 31
0.0
  0
ARC
  5
16D9A
  8
0
 10
172.18383485081571
 20
83.005353371892227
 30
0.0
 40
3.1750001944605928
 50
90.000030172611574
 51
269.99996982738838
  0
ARC
  5
16D9B
  8
0
 10
172.17571151233909
 20
83.005353604722856
 30
0.0
 40
6.1749999877073671
 50
90.000029614315807
 51
269.99997038568421
  0
ARC
  5
16DAC
  8
0
 10
185.2796508508022
 20
83.000357029661231
 30
0.0
 40
10.00000602920611
 50
140.05874010070431
 51
219.94125989929611
  0
ARC
  5
16DAD
  8
0
 10
185.27963207737781
 20
83.000357029661231
 30
0.0
 40
10.00000602920608
 50
320.05874010070443
 51
39.941259899295709
  0
ARC
  5
16DAE
  8
0
 10
187.06168951766099
 20
86.482585210015074
 30
0.0
 40
6.5775070345787894
 50
26.528479987537171
 51
53.79960066480993
  0
ARC
  5
16DAF
  8
0
 10
183.9178809781167
 20
86.132056475541788
 30
0.0
 40
7.1112192771685869
 50
127.28001933166939
 51
152.45704558622779
  0
ARC
  5
16DB0
  8
0
 10
183.50626037173271
 20
79.521651690056657
 30
0.0
 40
6.5868349627786751
 50
206.52222483479909
 51
233.74068250842689
  0
ARC
  5
16DB1
  8
0
 10
186.653132076953
 20
79.862944578553524
 30
0.0
 40
7.0981768295759231
 50
307.21779649514991
 51
332.45415059677521
  0
ARC
  5
16DB2
  8
0
 10
185.27848848674259
 20
74.315408687979627
 30
0.0
 40
18.37114793389026
 50
72.029661844750777
 51
107.97033815524919
  0
ARC
  5
16DB3
  8
0
 10
185.27848848674259
 20
91.68534600820098
 30
0.0
 40
18.3711876957009
 50
252.02970206658671
 51
287.97029793341329
  0
LINE
  5
16DB4
  8
0
 10
221.54529867762949
 20
85.505353781674145
 30
0.0
 11
213.24529880726959
 21
85.505353781674145
 31
0.0
  0
LINE
  5
16DB5
  8
0
 10
213.24529880726959
 20
80.505353427771567
 30
0.0
 11
221.54529867762949
 21
80.505353427771567
 31
0.0
  0
ARC
  5
16E96
  8
0
 10
202.20987228704851
 20
331.44263204611121
 30
0.0
 40
3.739997985338678
 50
58.999998562428871
 51
89.999999993720721
  0
LINE
  5
16E97
  8
0
 10
204.13611373001959
 20
334.64843597550532
 30
0.0
 11
207.7463018714848
 21
332.47921526719472
 31
0.0
  0
ARC
  5
17289
  8
0
 10
192.25423533881721
 20
176.03420989612721
 30
0.0
 40
0.5000000000000046
 50
345.96124519970527
 51
21.798898152240842
  0
ARC
  5
1728A
  8
0
 10
178.3028027413242
 20
176.0348214020508
 30
0.0
 40
0.5000000000000257
 50
158.19607917954039
 51
194.03373213207951
  0
LINE
  5
1728B
  8
0
 10
177.81772530092761
 20
175.91357483269871
 30
0.0
 11
179.6835042483149
 21
168.449075024488
 31
0.0
  0
LINE
  5
1728C
  8
0
 10
190.87286993576811
 20
168.4485845870897
 30
0.0
 11
192.73929974803301
 21
175.91292109683681
 31
0.0
  0
LINE
  5
1728D
  8
0
 10
192.7184822843823
 20
176.21988533538089
 30
0.0
 11
190.9044463431311
 21
180.7555462268582
 31
0.0
  0
LINE
  5
1728E
  8
0
 10
179.65300240830641
 20
180.75603920117601
 30
0.0
 11
177.8385714909424
 21
176.22053667189269
 31
0.0
  0
ARC
  5
1728F
  8
0
 10
190.44020135371369
 20
180.56987137689811
 30
0.0
 40
0.5000000000082335
 50
21.798898147771141
 51
89.997488665888113
  0
ARC
  5
17290
  8
0
 10
180.11723432505659
 20
180.5703238433702
 30
0.0
 40
0.5000000000082525
 50
89.997488665894608
 51
158.19607918401101
  0
ARC
  5
17291
  8
0
 10
190.38780365868911
 20
168.5698736620171
 30
0.0
 40
0.500000000000017
 50
269.99748866588811
 51
345.96124519260968
  0
ARC
  5
17292
  8
0
 10
180.16858007491001
 20
168.57032158130511
 30
0.0
 40
0.4999999999999886
 50
194.03373213917209
 51
269.99748866588811
  0
LINE
  5
17293
  8
0
 10
190.27885834792559
 20
201.73772867662549
 30
0.0
 11
191.05239742674149
 21
202.51119859890341
 31
0.0
  0
LINE
  5
17294
  8
0
 10
180.2790723693
 20
206.58816722623351
 30
0.0
 11
179.50553701577391
 21
205.81469730590621
 31
0.0
  0
LINE
  5
17295
  8
0
 10
179.50539263912989
 20
202.51170166202471
 30
0.0
 11
180.27885883416741
 21
201.73816630654801
 31
0.0
  0
LINE
  5
17296
  8
0
 10
191.05254180533601
 20
205.81419051749509
 30
0.0
 11
190.27907188305821
 21
206.58772959631099
 31
0.0
  0
LINE
  5
17297
  8
0
 10
180.27904770776891
 20
188.08616723737839
 30
0.0
 11
179.50551235424271
 21
187.3126973170512
 31
0.0
  0
LINE
  5
17298
  8
0
 10
191.0525171428296
 20
187.31219239128501
 30
0.0
 11
190.2790472225023
 21
188.08572774481121
 31
0.0
  0
LINE
  5
17299
  8
0
 10
190.27883368639431
 20
183.23572868777049
 30
0.0
 11
191.05237276618561
 21
184.00919674740351
 31
0.0
  0
LINE
  5
1729A
  8
0
 10
179.50536425133359
 20
184.00970353386401
 30
0.0
 11
180.27883417263621
 21
183.23616631769289
 31
0.0
  0
ARC
  5
172E8
  8
0
 10
185.1583241417874
 20
207.96235037153409
 30
0.0
 40
6.2255679722752602
 50
271.10938419475423
 51
298.88544852924821
  0
ARC
  5
172E9
  8
0
 10
185.43945320853879
 20
208.1097489914217
 30
0.0
 40
6.3738231265056102
 50
241.43876535126159
 51
268.55622481046572
  0
LINE
  5
172EA
  8
0
 10
182.39228728232959
 20
205.8145696769933
 30
0.0
 11
182.39214290373511
 21
202.51157775840159
 31
0.0
  0
ARC
  5
172EB
  8
0
 10
185.39960445830391
 20
200.3635941709218
 30
0.0
 40
6.2255193008053533
 50
91.109373380634167
 51
118.8856342273836
  0
ARC
  5
172EC
  8
0
 10
185.1184728423263
 20
200.2161148113824
 30
0.0
 40
6.3738553339441522
 50
61.438837062080083
 51
88.556190147371311
  0
LINE
  5
172ED
  8
0
 10
188.16564716213639
 20
202.51132250252641
 30
0.0
 11
188.1657915387803
 21
205.814318146408
 31
0.0
  0
ARC
  5
172EE
  8
0
 10
189.80949111623389
 20
203.84516015782819
 30
0.0
 40
2.1169189488792548
 50
219.05635141652149
 51
264.56509914232942
  0
ARC
  5
172EF
  8
0
 10
180.74842907643111
 20
204.4807155785382
 30
0.0
 40
2.1169403763604819
 50
39.056453959334043
 51
84.564766900241111
  0
ARC
  5
172F0
  8
0
 10
189.7601437276725
 20
204.5724874472964
 30
0.0
 40
2.0209162247557608
 50
94.283417606315751
 51
142.08520376931469
  0
ARC
  5
172F1
  8
0
 10
180.7977907148429
 20
203.7534084575131
 30
0.0
 40
2.0209162247557608
 50
274.28341760631582
 51
322.08520376931472
  0
ARC
  5
172F2
  8
0
 10
189.4580426238179
 20
203.75303417637011
 30
0.0
 40
2.0209212847282432
 50
274.28348118031289
 51
322.08514019532032
  0
ARC
  5
172F3
  8
0
 10
189.40868359943761
 20
204.4803364190399
 30
0.0
 40
2.1169403763604819
 50
39.056453959334043
 51
84.564766900241111
  0
LINE
  5
172F4
  8
0
 10
191.05239742674149
 20
202.51119859890341
 30
0.0
 11
191.05254180533601
 21
205.81419051749509
 31
0.0
  0
ARC
  5
172F5
  8
0
 10
181.14923659322741
 20
203.8455393173264
 30
0.0
 40
2.1169189488792548
 50
219.05635141652149
 51
264.56509914232942
  0
LINE
  5
172F6
  8
0
 10
179.50553701577391
 20
205.81469730590621
 30
0.0
 11
179.50539263912989
 21
202.51170166202471
 31
0.0
  0
ARC
  5
172F7
  8
0
 10
181.099889204666
 20
204.57286660679469
 30
0.0
 40
2.0209162247557608
 50
94.283417606315751
 51
142.08520376931469
  0
ARC
  5
172F8
  8
0
 10
185.15828289664901
 20
189.4603696883602
 30
0.0
 40
6.2255894577516333
 50
271.10953302662438
 51
298.88547458139487
  0
ARC
  5
172F9
  8
0
 10
185.43944724946999
 20
189.60781692261889
 30
0.0
 40
6.3738933582732891
 50
241.43891760298251
 51
268.55607255874099
  0
LINE
  5
172FA
  8
0
 10
182.3921182431792
 20
184.00957590690169
 30
0.0
 11
182.3922626198231
 21
187.31257155078319
 31
0.0
  0
ARC
  5
172FB
  8
0
 10
185.39960082006289
 20
181.86151756740881
 30
0.0
 40
6.2255981704799979
 50
91.109552852654446
 51
118.88545475535879
  0
ARC
  5
172FC
  8
0
 10
185.11842911638331
 20
181.71407371481089
 30
0.0
 40
6.3738987710218096
 50
61.438892615468703
 51
88.556028570720557
  0
LINE
  5
172FD
  8
0
 10
188.16561877434009
 20
184.0093243743658
 30
0.0
 11
188.16576315195931
 21
187.31231815560241
 31
0.0
  0
ARC
  5
172FE
  8
0
 10
189.80946940118619
 20
185.34317037667159
 30
0.0
 40
2.1169293897646781
 50
219.05641305216179
 51
264.56504592021281
  0
ARC
  5
172FF
  8
0
 10
180.79775835563751
 20
185.25142582690751
 30
0.0
 40
2.020934109470172
 50
274.28359847758838
 51
322.08490797858701
  0
ARC
  5
17300
  8
0
 10
180.7484045319473
 20
185.97871259840079
 30
0.0
 40
2.116943343107113
 50
39.056557986645792
 51
84.564777722502015
  0
ARC
  5
17301
  8
0
 10
189.7601202668356
 20
186.07047341001001
 30
0.0
 40
2.0209287424132509
 50
94.283531046324356
 51
142.0849754098586
  0
ARC
  5
17302
  8
0
 10
181.14922067538589
 20
185.3435603527769
 30
0.0
 40
2.1169407068357442
 50
219.05654152177581
 51
264.56491745060248
  0
LINE
  5
17303
  8
0
 10
179.50551235424271
 20
187.3126973170512
 30
0.0
 11
179.50536425133359
 21
184.00970353386401
 31
0.0
  0
ARC
  5
17304
  8
0
 10
181.09985899795231
 20
186.07087696646471
 30
0.0
 40
2.0209054909716149
 50
94.283282744824916
 51
142.0853386308072
  0
ARC
  5
17305
  8
0
 10
189.45801565130941
 20
185.25104149299591
 30
0.0
 40
2.0209287424132292
 50
274.2835310463243
 51
322.0849754098586
  0
ARC
  5
17306
  8
0
 10
189.40867016303099
 20
185.97834811964449
 30
0.0
 40
2.1169254672711442
 50
39.056438873909187
 51
84.565134947998885
  0
LINE
  5
17307
  8
0
 10
191.0525171428296
 20
187.31219239128501
 30
0.0
 11
191.05237276618561
 21
184.00919674740351
 31
0.0
  0
CIRCLE
  5
173CB
  8
3
 10
185.28370729927141
 20
329.01262863334421
 30
0.0
 40
2.4538647916434679
  0
LINE
  5
173CC
  8
0
 10
188.16617661198291
 20
334.01263280669519
 30
0.0
 11
182.39267327865269
 21
334.01263280669519
 31
0.0
  0
LINE
  5
173CD
  8
0
 10
182.39267327865269
 20
324.01263303021261
 30
0.0
 11
188.16617661198291
 21
324.01263303021261
 31
0.0
  0
LINE
  5
17615
  8
0
 10
190.27907188305821
 20
206.58772959631099
 30
0.0
 11
180.2790723693
 21
206.58816722623351
 31
0.0
  0
LINE
  5
17616
  8
0
 10
190.38778174316471
 20
168.0698736624974
 30
0.0
 11
180.1685581593855
 21
168.07032158178541
 31
0.0
  0
LINE
  5
17617
  8
0
 10
180.11725624058101
 20
181.07032384289809
 30
0.0
 11
190.44022326923809
 21
181.06987137642611
 31
0.0
  0
LINE
  5
17618
  8
0
 10
192.7184818230354
 20
176.21988488607229
 30
0.0
 11
177.83857253554891
 21
176.2205370881031
 31
0.0
  0
LINE
  5
17619
  8
0
 10
177.81772530092761
 20
175.91357483269871
 30
0.0
 11
192.73929974803301
 21
175.91292109683681
 31
0.0
  0
LINE
  5
1761A
  8
0
 10
180.27883417263621
 20
183.23616631769289
 30
0.0
 11
190.27883368639431
 21
183.23572868777049
 31
0.0
  0
LINE
  5
1761B
  8
1
 10
185.28370731690359
 20
217.07009737943289
 30
0.0
 11
185.28370731690359
 21
165.07009757971639
 31
0.0
  0
LINE
  5
1761C
  8
0
 10
191.0529264160028
 20
329.0126329184539
 30
0.0
 11
188.16617661198291
 21
324.01263303021261
 31
0.0
  0
LINE
  5
1761D
  8
0
 10
179.50592347463279
 20
329.0126329184539
 30
0.0
 11
182.39267327865269
 21
324.01263303021261
 31
0.0
  0
LINE
  5
1761E
  8
0
 10
179.50592347463279
 20
329.0126329184539
 30
0.0
 11
182.39267327865269
 21
334.01263280669519
 31
0.0
  0
LINE
  5
1761F
  8
0
 10
188.16617661198291
 20
334.01263280669519
 30
0.0
 11
191.0529264160028
 21
329.0126329184539
 31
0.0
  0
LINE
  5
17620
  8
1
 10
185.28370731690359
 20
337.01263280669519
 30
0.0
 11
185.28370731690359
 21
321.01422857793222
 31
0.0
  0
CIRCLE
  5
17622
  8
0
 10
185.28370731690359
 20
329.01265970407007
 30
0.0
 40
2.9953648092756282
  0
LINE
  5
1763F
  8
0
 10
183.28370731690359
 20
214.07009737943281
 30
0.0
 11
187.2837073169035
 21
214.07009737943281
 31
0.0
  0
LINE
  5
17640
  8
0
 10
188.2837073169035
 20
181.0699658987821
 30
0.0
 11
188.2837073169035
 21
183.23581600047461
 31
0.0
  0
LINE
  5
17641
  8
0
 10
188.2837073169035
 20
206.58781691943929
 30
0.0
 11
188.2837073169035
 21
213.07009737943289
 31
0.0
  0
LINE
  5
17642
  8
3
 10
187.74220731690349
 20
181.06998963329511
 30
0.0
 11
187.74220731690349
 21
183.23583969813609
 31
0.0
  0
LINE
  5
17643
  8
3
 10
187.7422073169036
 20
206.5878406171008
 30
0.0
 11
187.7422073169036
 21
213.61159737943279
 31
0.0
  0
LINE
  5
17644
  8
3
 10
182.8252073169036
 20
181.0702051505622
 30
0.0
 11
182.8252073169036
 21
183.23605488077939
 31
0.0
  0
LINE
  5
17645
  8
3
 10
182.82520731690349
 20
206.5880557997441
 30
0.0
 11
182.82520731690349
 21
213.61159737943279
 31
0.0
  0
LINE
  5
17646
  8
0
 10
182.28370731690359
 20
181.07022888507521
 30
0.0
 11
182.28370731690359
 21
183.23607857844081
 31
0.0
  0
LINE
  5
17647
  8
0
 10
182.28370731690359
 20
206.58807949740549
 30
0.0
 11
182.28370731690359
 21
213.07009737943289
 31
0.0
  0
LINE
  5
17648
  8
0
 10
182.28370731690359
 20
213.07009737943289
 30
0.0
 11
183.28370731690359
 21
214.07009737943281
 31
0.0
  0
LINE
  5
17649
  8
0
 10
187.2837073169035
 20
214.07009737943281
 30
0.0
 11
188.2837073169035
 21
213.07009737943289
 31
0.0
  0
LINE
  5
1764A
  8
0
 10
188.2837073169035
 20
213.07009737943289
 30
0.0
 11
182.28370731690359
 21
213.07009737943289
 31
0.0
  0
LINE
  5
17668
  8
1
 10
247.0588928281727
 20
329.00763027657422
 30
0.0
 11
161.00071152463181
 21
329.00763027657422
 31
0.0
  0
LINE
  5
17679
  8
1
 10
230.90729873519771
 20
347.20763047543772
 30
0.0
 11
230.90729873519771
 21
337.70763047543772
 31
0.0
  0
LINE
  5
1767A
  8
1
 10
226.1572987351978
 20
342.45763047543772
 30
0.0
 11
235.65729873519771
 21
342.45763047543772
 31
0.0
  0
LINE
  5
1767C
  8
1
 10
230.90889873519799
 20
320.30763047543769
 30
0.0
 11
230.90889873519799
 21
310.80763047543769
 31
0.0
  0
LINE
  5
1767D
  8
1
 10
226.15889873519799
 20
315.5576304754378
 30
0.0
 11
235.65889873519799
 21
315.5576304754378
 31
0.0
  0
LINE
  5
176F3
  8
0
 10
217.31022661621
 20
116.0057056986728
 30
0.0
 11
217.3061297282043
 21
116.0057056986728
 31
0.0
  0
CIRCLE
  5
17841
  8
0
 10
185.28370731690359
 20
83.000330593290855
 30
0.0
 40
5.595567877926733
  0
CIRCLE
  5
17842
  8
0
 10
185.28370731690359
 20
83.000357029661174
 30
0.0
 40
5.1104701361415428
  0
LINE
  5
17848
  8
1
 10
185.28370731690359
 20
93.476072093921786
 30
0.0
 11
185.28370731690359
 21
72.524641965400562
 31
0.0
  0
LINE
  5
17849
  8
1
 10
161.0007126416682
 20
83.000357029661174
 30
0.0
 11
247.0588928281727
 21
83.000357029661174
 31
0.0
  0
LINE
  5
17854
  8
1
 10
218.20889873519801
 20
101.2053536386899
 30
0.0
 11
218.20889873519801
 21
91.705353638689985
 31
0.0
  0
LINE
  5
17855
  8
1
 10
230.90889873519799
 20
101.2053536386899
 30
0.0
 11
230.90889873519799
 21
91.705353638689985
 31
0.0
  0
LINE
  5
17856
  8
1
 10
235.65729873519771
 20
69.555353638689979
 30
0.0
 11
226.1572987351978
 21
69.555353638689979
 31
0.0
  0
LINE
  5
17857
  8
1
 10
235.65889873519799
 20
96.455353638689971
 30
0.0
 11
226.15889873519799
 21
96.455353638689971
 31
0.0
  0
LINE
  5
1785C
  8
1
 10
230.90889873519799
 20
74.305353369216277
 30
0.0
 11
230.90889873519799
 21
64.805353908163681
 31
0.0
  0
LINE
  5
1785D
  8
1
 10
218.20889873519789
 20
74.305353369216363
 30
0.0
 11
218.20889873519801
 21
64.805353908163767
 31
0.0
  0
LINE
  5
1785E
  8
1
 10
222.95889873519801
 20
96.455353638689971
 30
0.0
 11
213.45889873519801
 21
96.455353638689971
 31
0.0
  0
LINE
  5
1785F
  8
1
 10
222.9572987351977
 20
69.555353638689979
 30
0.0
 11
213.4572987351977
 21
69.555353638689979
 31
0.0
  0
ARC
  5
17869
  8
0
 10
217.39530294735451
 20
302.00727324691297
 30
0.0
 40
6.0
 50
180.0
 51
0.0
  0
ARC
  5
1786B
  8
0
 10
217.39529871013431
 20
356.00727814034008
 30
0.0
 40
6.0
 50
0.0
 51
180.0
  0
LINE
  5
1786C
  8
0
 10
211.3952989143821
 20
110.00000475876
 30
0.0
 11
211.3952989143821
 21
89.005353424046277
 31
0.0
  0
ARC
  5
1786D
  8
0
 10
217.39530294735451
 20
56.0
 30
0.0
 40
6.0
 50
180.0
 51
0.0
  0
ARC
  5
1786E
  8
0
 10
217.39529871013431
 20
110.0000048934271
 30
0.0
 40
6.0
 50
0.0
 51
180.0
  0
LINE
  5
1786F
  8
0
 10
211.3952989143821
 20
76.997352793160928
 30
0.0
 11
211.3952989143821
 21
56.000003358050911
 31
0.0
  0
LINE
  5
17870
  8
0
 10
223.39529871013431
 20
56.000003358050911
 30
0.0
 11
223.39529871013431
 21
63.355352758709451
 31
0.0
  0
LINE
  5
17871
  8
0
 10
223.39529871013431
 20
102.655353985075
 30
0.0
 11
223.39529871013431
 21
110.0000048934271
 31
0.0
  0
LINE
  5
17875
  8
0
 10
233.98289873519781
 20
86.005353863630546
 30
0.0
 11
233.98289873519781
 21
80.005353345815195
 31
0.0
  0
LINE
  5
17876
  8
0
 10
230.98289873519769
 20
86.005353863630546
 30
0.0
 11
230.98289873519769
 21
80.005353345815195
 31
0.0
  0
LINE
  5
17877
  8
0
 10
233.98289873519781
 20
83.005353837553514
 30
0.0
 11
237.35884865815069
 21
83.005353837553514
 31
0.0
  0
LINE
  5
1788D
  8
0
 10
212.9252987390081
 20
246.0072732469134
 30
0.0
 11
221.86529873900801
 21
246.0072732469128
 31
0.0
  0
LINE
  5
1788E
  8
0
 10
212.9252987390079
 20
241.00727324691351
 30
0.0
 11
221.86529873900781
 21
241.00727324691269
 31
0.0
  0
LINE
  5
17913
  8
0
 10
166.0007135461513
 20
199.73794755170209
 30
0.0
 11
166.00071457249391
 21
190.08594793671469
 31
0.0
  0
LINE
  5
1791E
  8
0
 10
175.27964457987309
 20
201.7379487626184
 30
0.0
 11
175.27964506331909
 21
199.7379477259712
 31
0.0
  0
LINE
  5
1791F
  8
0
 10
195.27964611343251
 20
199.7379488429809
 30
0.0
 11
195.27964562998639
 21
201.73794987962799
 31
0.0
  0
LINE
  5
17920
  8
0
 10
175.27964608966161
 20
190.08594811098371
 30
0.0
 11
175.27964657310761
 21
188.0859470743365
 31
0.0
  0
LINE
  5
17921
  8
0
 10
195.2796457605765
 20
188.08594819291389
 30
0.0
 11
195.27964527713061
 21
190.08594922956109
 31
0.0
  0
ARC
  5
17954
  8
0
 10
198.66813721727851
 20
171.0359484529055
 30
0.0
 40
19.049999989732829
 50
78.96699440986913
 51
90.000001352067727
  0
LINE
  5
17955
  8
0
 10
198.6681370049796
 20
190.08594893576739
 30
0.0
 11
192.94667394952839
 21
190.08594768959571
 31
0.0
  0
LINE
  5
17959
  8
0
 10
202.5115760335174
 20
189.60322241668521
 30
0.0
 11
202.31382081078939
 21
189.7338485745021
 31
0.0
  0
ARC
  5
1795A
  8
0
 10
198.98914241619761
 20
175.1672656344517
 30
0.0
 40
14.95273764435146
 50
57.994605654949993
 51
74.925193731439592
  0
ARC
  5
1795B
  8
0
 10
221.2006263908892
 20
223.92864065841599
 30
0.0
 40
38.806940568148029
 50
248.39879511111019
 51
251.4273061829
  0
ARC
  5
1795C
  8
0
 10
211.5060070984529
 20
204.3099487544884
 30
0.0
 40
4.5719999999771046
 50
270.00000135206773
 51
280.76155540976413
  0
ARC
  5
1795D
  8
0
 10
213.58279845092409
 20
193.451448807318
 30
0.0
 40
7.8740000075388901
 50
236.3612913549367
 51
261.32597158527369
  0
LINE
  5
1795E
  8
0
 10
202.69494789735651
 20
189.6032226769795
 30
0.0
 11
202.87804970591159
 21
189.60543598781771
 31
0.0
  0
POLYLINE
  5
1795F
  8
0
 66
     1
 10
0.0
 20
0.0
 30
0.0
 70
   128
  0
VERTEX
  5
17F10
  8
0
 10
202.51157600517931
 20
189.6032224166849
 30
0.0
  0
VERTEX
  5
17F11
  8
0
 10
202.5355724713823
 20
189.60322270859319
 30
0.0
  0
VERTEX
  5
17F12
  8
0
 10
202.5593156179348
 20
189.6032232137139
 30
0.0
  0
VERTEX
  5
17F13
  8
0
 10
202.5827756409571
 20
189.6032220944866
 30
0.0
  0
VERTEX
  5
17F14
  8
0
 10
202.60593019185069
 20
189.60322309501291
 30
0.0
  0
VERTEX
  5
17F15
  8
0
 10
202.62875132781309
 20
189.60322251352
 30
0.0
  0
VERTEX
  5
17F16
  8
0
 10
202.6512111107445
 20
189.60322223616839
 30
0.0
  0
VERTEX
  5
17F17
  8
0
 10
202.67328532626661
 20
189.60322228333879
 30
0.0
  0
VERTEX
  5
17F18
  8
0
 10
202.69494789735651
 20
189.6032226769795
 30
0.0
  0
SEQEND
  5
17F19
  8
0
  0
LINE
  5
17960
  8
0
 10
208.8403215479961
 20
187.14275341275439
 30
0.0
 11
209.22096343873989
 21
186.89597146831369
 31
0.0
  0
ARC
  5
17965
  8
0
 10
185.27964629691951
 20
209.0747807972848
 30
0.0
 40
11.239008250892891
 50
239.7143858720801
 51
300.28560743008222
  0
ARC
  5
17967
  8
0
 10
185.27964286582571
 20
210.07477447976871
 30
0.0
 40
11.23900234878489
 50
239.71438711955901
 51
300.28564384052811
  0
ARC
  5
17969
  8
0
 10
176.748696127648
 20
198.33130475237289
 30
0.0
 40
3.5144821348798461
 50
35.44938040175596
 51
75.769810888208383
  0
LINE
  5
1796A
  8
0
 10
195.2796456299873
 20
201.73794624502861
 30
0.0
 11
175.27964457987309
 21
201.73794867036131
 31
0.0
  0
ARC
  5
1796B
  8
0
 10
193.78043995824939
 20
198.37535098442919
 30
0.0
 40
3.4644216063835449
 50
103.9258350115401
 51
144.8547523448255
  0
ARC
  5
1796C
  8
0
 10
177.25264160005651
 20
192.1745653231695
 30
0.0
 40
7.5719437548677426
 50
71.847238207989918
 51
87.275068653200762
  0
ARC
  5
1796F
  8
0
 10
193.3253900228849
 20
192.07289700278091
 30
0.0
 40
7.6744023924157148
 50
92.828586108347366
 51
108.04923106491739
  0
LINE
  5
17970
  8
0
 10
177.61262011464231
 20
199.73794735080219
 30
0.0
 11
166.00071354615119
 21
199.73794735566059
 31
0.0
  0
LINE
  5
17972
  8
0
 10
211.50600698462401
 20
199.73794875451131
 30
0.0
 11
192.9466729247535
 21
199.73794921658219
 31
0.0
  0
ARC
  5
17974
  8
0
 10
185.27964404196311
 20
180.74912797185871
 30
0.0
 40
11.238996441144129
 50
59.714350711135893
 51
120.2856425910276
  0
ARC
  5
17976
  8
0
 10
185.2796458791546
 20
179.7491238370238
 30
0.0
 40
11.23900036869372
 50
59.714371814418008
 51
120.2856403167067
  0
ARC
  5
17978
  8
0
 10
193.81060129293149
 20
191.49260766949789
 30
0.0
 40
3.5144979543688462
 50
215.44954358211331
 51
255.7698198673572
  0
LINE
  5
17979
  8
0
 10
175.27964657310719
 20
188.0859485649475
 30
0.0
 11
195.27964576057639
 21
188.0859485649475
 31
0.0
  0
ARC
  5
1797A
  8
0
 10
176.77888054131179
 20
191.44849733238479
 30
0.0
 40
3.4643689465542988
 50
283.9255370390419
 51
324.85512298334811
  0
ARC
  5
1797C
  8
0
 10
177.23394903791549
 20
197.75077239915029
 30
0.0
 40
7.6741727118917069
 50
272.8283066416264
 51
288.0494072817097
  0
ARC
  5
1797D
  8
0
 10
193.3066903539748
 20
197.64955922732071
 30
0.0
 40
7.5721747575238867
 50
251.8474799157708
 51
267.2748648220159
  0
LINE
  5
17980
  8
0
 10
166.00071457249379
 20
190.085947963509
 30
0.0
 11
177.61261741569589
 21
190.0859477389501
 31
0.0
  0
LINE
  5
17995
  8
1
 10
217.39529873900281
 20
249.0072732469132
 30
0.0
 11
217.39529873900281
 21
172.70776513292299
 31
0.0
  0
LINE
  5
1799F
  8
1
 10
218.20889873519801
 20
164.00570569867281
 30
0.0
 11
218.20889873519801
 21
171.00570572474979
 31
0.0
  0
LINE
  5
179A0
  8
1
 10
230.90889873519799
 20
164.00570569867281
 30
0.0
 11
230.90889873519799
 21
171.00570572474979
 31
0.0
  0
POLYLINE
  5
17A1C
  8
0
 66
     1
 10
0.0
 20
0.0
 30
0.0
 70
   128
  0
VERTEX
  5
17F1A
  8
0
 10
50.0
 20
244.4854583163922
 30
0.0
  0
VERTEX
  5
17F1B
  8
0
 10
50.073993578553193
 20
244.95512801606111
 30
0.0
  0
VERTEX
  5
17F1C
  8
0
 10
50.247716903686523
 20
245.3172485848134
 30
0.0
  0
VERTEX
  5
17F1D
  8
0
 10
50.46028941869735
 20
245.5705310722058
 30
0.0
  0
VERTEX
  5
17F1E
  8
0
 10
50.670598819851868
 20
245.7324768920605
 30
0.0
  0
VERTEX
  5
17F1F
  8
0
 10
51.01394206285476
 20
245.87251800496031
 30
0.0
  0
VERTEX
  5
17F20
  8
0
 10
51.40306539833545
 20
245.9246199150746
 30
0.0
  0
VERTEX
  5
17F21
  8
0
 10
52.024736255407333
 20
245.95809537369661
 30
0.0
  0
VERTEX
  5
17F22
  8
0
 10
52.971163019537919
 20
245.97827899653359
 30
0.0
  0
VERTEX
  5
17F23
  8
0
 10
53.587473183870308
 20
245.98464924294399
 30
0.0
  0
VERTEX
  5
17F24
  8
0
 10
54.302706569433212
 20
245.98900038201259
 30
0.0
  0
VERTEX
  5
17F25
  8
0
 10
55.111545324325562
 20
245.9915484805768
 30
0.0
  0
VERTEX
  5
17F26
  8
0
 10
55.999999120831482
 20
246.007273246913
 30
0.0
  0
SEQEND
  5
17F27
  8
0
  0
LINE
  5
17A1D
  8
0
 10
50.0
 20
242.54546123940401
 30
0.0
 11
50.0
 21
244.4854583163922
 31
0.0
  0
POLYLINE
  5
17A1E
  8
0
 66
     1
 10
0.0
 20
0.0
 30
0.0
 70
   128
  0
VERTEX
  5
17F28
  8
0
 10
55.999999120831482
 20
241.009360136575
 30
0.0
  0
VERTEX
  5
17F29
  8
0
 10
55.111545324325562
 20
241.03937107521941
 30
0.0
  0
VERTEX
  5
17F2A
  8
0
 10
54.302706569433212
 20
241.0419191737835
 30
0.0
  0
VERTEX
  5
17F2B
  8
0
 10
53.587473183870308
 20
241.0462703128521
 30
0.0
  0
VERTEX
  5
17F2C
  8
0
 10
52.971163019537919
 20
241.0526405592625
 30
0.0
  0
VERTEX
  5
17F2D
  8
0
 10
52.024736255407333
 20
241.07282418209959
 30
0.0
  0
VERTEX
  5
17F2E
  8
0
 10
51.40306539833545
 20
241.1062996407216
 30
0.0
  0
VERTEX
  5
17F2F
  8
0
 10
51.01394206285476
 20
241.1584015508358
 30
0.0
  0
VERTEX
  5
17F30
  8
0
 10
50.670598819851868
 20
241.29844266373561
 30
0.0
  0
VERTEX
  5
17F31
  8
0
 10
50.46028941869735
 20
241.46038848359041
 30
0.0
  0
VERTEX
  5
17F32
  8
0
 10
50.247716903686523
 20
241.7136709709828
 30
0.0
  0
VERTEX
  5
17F33
  8
0
 10
50.073993578553193
 20
242.07579153973509
 30
0.0
  0
VERTEX
  5
17F34
  8
0
 10
50.0
 20
242.54546123940401
 30
0.0
  0
SEQEND
  5
17F35
  8
0
  0
ARC
  5
17B11
  8
0
 10
89.966885021117037
 20
176.03420989612721
 30
0.0
 40
0.5000000000000046
 50
345.96124519970527
 51
21.79889815224093
  0
ARC
  5
17B12
  8
0
 10
76.015452423623969
 20
176.0348214020508
 30
0.0
 40
0.5000000000000257
 50
158.19607917954039
 51
194.03373213207951
  0
LINE
  5
17B13
  8
0
 10
75.530374983227375
 20
175.91357483269871
 30
0.0
 11
77.396153930614673
 21
168.449075024488
 31
0.0
  0
LINE
  5
17B14
  8
0
 10
88.585519618067906
 20
168.4485845870897
 30
0.0
 11
90.451949430332775
 21
175.91292109683681
 31
0.0
  0
LINE
  5
17B15
  8
0
 10
90.431131966682074
 20
176.21988533538089
 30
0.0
 11
88.617096025430897
 21
180.7555462268582
 31
0.0
  0
LINE
  5
17B16
  8
0
 10
77.365652090606204
 20
180.75603920117601
 30
0.0
 11
75.551221173242197
 21
176.22053667189269
 31
0.0
  0
ARC
  5
17B17
  8
0
 10
88.152851036013544
 20
180.56987137689811
 30
0.0
 40
0.5000000000082335
 50
21.798898147771151
 51
89.997488665888113
  0
ARC
  5
17B18
  8
0
 10
77.829884007356441
 20
180.5703238433702
 30
0.0
 40
0.5000000000082525
 50
89.997488665894608
 51
158.1960791840109
  0
ARC
  5
17B19
  8
0
 10
88.100453340988906
 20
168.5698736620171
 30
0.0
 40
0.500000000000017
 50
269.99748866588811
 51
345.96124519260968
  0
ARC
  5
17B1A
  8
0
 10
77.88122975720978
 20
168.57032158130511
 30
0.0
 40
0.4999999999999886
 50
194.03373213917209
 51
269.99748866588811
  0
LINE
  5
17B44
  8
0
 10
88.100431425464535
 20
168.0698736624974
 30
0.0
 11
77.881207841685296
 21
168.07032158178541
 31
0.0
  0
LINE
  5
17B45
  8
0
 10
77.829905922880812
 20
181.07032384289809
 30
0.0
 11
88.152872951537915
 21
181.06987137642611
 31
0.0
  0
LINE
  5
17B46
  8
0
 10
90.431131505335188
 20
176.21988488607229
 30
0.0
 11
75.551222217848704
 21
176.2205370881031
 31
0.0
  0
LINE
  5
17B47
  8
0
 10
75.530374983227375
 20
175.91357483269871
 30
0.0
 11
90.451949430332775
 21
175.91292109683681
 31
0.0
  0
LINE
  5
17B49
  8
1
 10
82.996356999203286
 20
251.007273246913
 30
0.0
 11
82.996356999203442
 21
161.00570569867281
 31
0.0
  0
LINE
  5
17B4A
  8
0
 10
80.996356999203385
 20
214.07009737943281
 30
0.0
 11
84.996356999203385
 21
214.07009737943281
 31
0.0
  0
LINE
  5
17B4B
  8
0
 10
85.996356999203385
 20
181.0699658987821
 30
0.0
 11
85.996356999203385
 21
183.23581600047461
 31
0.0
  0
LINE
  5
17B4C
  8
0
 10
85.996356999203385
 20
206.58781691943929
 30
0.0
 11
85.996356999203385
 21
213.07009737943289
 31
0.0
  0
LINE
  5
17B4D
  8
3
 10
85.454856999203344
 20
181.06998963329511
 30
0.0
 11
85.454856999203344
 21
183.23583969813609
 31
0.0
  0
LINE
  5
17B4E
  8
3
 10
85.454856999203457
 20
206.5878406171008
 30
0.0
 11
85.454856999203457
 21
213.61159737943279
 31
0.0
  0
LINE
  5
17B4F
  8
3
 10
80.537856999203427
 20
181.0702051505622
 30
0.0
 11
80.537856999203427
 21
183.23605488077939
 31
0.0
  0
LINE
  5
17B50
  8
3
 10
80.537856999203299
 20
206.5880557997441
 30
0.0
 11
80.537856999203299
 21
213.61159737943279
 31
0.0
  0
LINE
  5
17B51
  8
0
 10
79.996356999203385
 20
181.07022888507521
 30
0.0
 11
79.996356999203385
 21
183.23607857844081
 31
0.0
  0
LINE
  5
17B52
  8
0
 10
79.996356999203385
 20
206.58807949740549
 30
0.0
 11
79.996356999203385
 21
213.07009737943289
 31
0.0
  0
LINE
  5
17B53
  8
0
 10
79.996356999203385
 20
213.07009737943289
 30
0.0
 11
80.996356999203385
 21
214.07009737943281
 31
0.0
  0
LINE
  5
17B54
  8
0
 10
84.996356999203385
 20
214.07009737943281
 30
0.0
 11
85.996356999203385
 21
213.07009737943289
 31
0.0
  0
LINE
  5
17B55
  8
0
 10
85.996356999203385
 20
213.07009737943289
 30
0.0
 11
79.996356999203385
 21
213.07009737943289
 31
0.0
  0
ARC
  5
17B6B
  8
0
 10
80.372605229843202
 20
206.56282080778439
 30
0.0
 40
4.8240951741997158
 50
271.4699551111745
 51
302.94848258075513
  0
ARC
  5
17B6C
  8
0
 10
80.656611606589422
 20
206.6894945581482
 30
0.0
 40
4.9517752440325227
 50
237.50455900375351
 51
268.1454035376197
  0
ARC
  5
17B6D
  8
0
 10
80.620103335176736
 20
201.7678426326018
 30
0.0
 40
4.824058124300282
 50
91.469913719390703
 51
122.94869184486591
  0
ARC
  5
17B6E
  8
0
 10
80.336100996370064
 20
201.64112744510959
 30
0.0
 40
4.951779743328931
 50
57.504573950045518
 51
88.145400634811097
  0
LINE
  5
17B6F
  8
0
 10
82.996356909439328
 20
205.81762850501889
 30
0.0
 11
82.996356909439328
 21
202.51463338950029
 31
0.0
  0
ARC
  5
17B70
  8
0
 10
85.660102790249766
 20
206.69194754532779
 30
0.0
 40
4.9543410938299131
 50
237.47558412711899
 51
268.1059721486925
  0
ARC
  5
17B71
  8
0
 10
85.616758124668294
 20
201.77007629382541
 30
0.0
 40
4.8217404981097003
 50
91.430852984251004
 51
122.9191784526239
  0
ARC
  5
17B72
  8
0
 10
85.375955582451525
 20
206.56055019825291
 30
0.0
 40
4.8217404981097571
 50
271.43085298425098
 51
302.9191784526239
  0
ARC
  5
17B73
  8
0
 10
85.332601055594964
 20
201.63866720555859
 30
0.0
 40
4.9543531545411632
 50
57.475537812264783
 51
88.105862655758713
  0
LINE
  5
17B74
  8
0
 10
77.996357021197923
 20
206.58785462596771
 30
0.0
 11
77.996357021198037
 21
201.7427589809821
 31
0.0
  0
LINE
  5
17B75
  8
0
 10
87.996356797680619
 20
201.74275898083641
 30
0.0
 11
87.996356797680505
 21
206.58785462596771
 31
0.0
  0
ARC
  5
17B76
  8
0
 10
85.375956797658546
 20
188.06257402160421
 30
0.0
 40
4.8217462912848088
 50
271.43083682021978
 51
302.91911668393232
  0
ARC
  5
17B77
  8
0
 10
85.660107339724163
 20
188.1939701833164
 30
0.0
 40
4.9543458816344268
 50
237.47555703448529
 51
268.10592133742381
  0
LINE
  5
17B78
  8
0
 10
82.996356909439328
 20
187.3196465030347
 30
0.0
 11
82.996356909439328
 21
184.0166532501612
 31
0.0
  0
ARC
  5
17B79
  8
0
 10
85.616750184361308
 20
183.27211998248109
 30
0.0
 40
4.8217146172125691
 50
91.430766283038935
 51
122.919265153843
  0
ARC
  5
17B7A
  8
0
 10
85.332605605130766
 20
183.14068984372139
 30
0.0
 40
4.954348366556073
 50
57.475564904355693
 51
88.105913467550536
  0
ARC
  5
17B7B
  8
0
 10
80.336117626121677
 20
183.1431992482282
 30
0.0
 40
4.9517254282407919
 50
57.504401778552158
 51
88.145572806315499
  0
ARC
  5
17B7C
  8
0
 10
80.372600240099246
 20
188.0648451778608
 30
0.0
 40
4.8241016721663446
 50
271.47001241335749
 51
302.94850318246569
  0
ARC
  5
17B7D
  8
0
 10
80.656598722030836
 20
188.19148093639421
 30
0.0
 40
4.9517432238550967
 50
237.5044997701626
 51
268.1455407039511
  0
ARC
  5
17B7E
  8
0
 10
80.620121618301823
 20
183.26979186328251
 30
0.0
 40
4.8241273380335974
 50
91.47010984402857
 51
122.94841781633239
  0
LINE
  5
17B7F
  8
0
 10
87.996356797680505
 20
183.2398743435775
 30
0.0
 11
87.996356797680619
 21
188.09018603849501
 31
0.0
  0
LINE
  5
17B80
  8
0
 10
77.996357021198037
 20
188.09018603849501
 30
0.0
 11
77.996357021197923
 21
183.2398743435775
 31
0.0
  0
LINE
  5
17B81
  8
0
 10
87.996356797680505
 20
206.58785462596771
 30
0.0
 11
77.996357021197923
 21
206.58785462596771
 31
0.0
  0
LINE
  5
17B82
  8
0
 10
87.996356797680505
 20
183.2398743435775
 30
0.0
 11
77.996357021197923
 21
183.2398743435775
 31
0.0
  0
LINE
  5
17B83
  8
0
 10
90.933999744877042
 20
191.9861319296964
 30
0.0
 11
90.053294319361271
 21
190.45592982405509
 31
0.0
  0
LINE
  5
17B84
  8
0
 10
76.825356809124173
 20
190.08577752941929
 30
0.0
 11
89.175356784537314
 21
190.08577752941929
 31
0.0
  0
LINE
  5
17B85
  8
0
 10
75.056713772639455
 20
191.9861319296964
 30
0.0
 11
75.937418965324625
 21
190.45592982405509
 31
0.0
  0
LINE
  5
17B86
  8
0
 10
76.575333950742902
 20
188.0859485649475
 30
0.0
 11
89.415380032434769
 21
188.0859485649475
 31
0.0
  0
LINE
  5
17B87
  8
0
 10
76.575333950742902
 20
199.7250438238213
 30
0.0
 11
89.415380032434925
 21
199.7250438238213
 31
0.0
  0
LINE
  5
17B88
  8
0
 10
73.324662400111379
 20
198.8377653564045
 30
0.0
 11
74.206590773837434
 21
200.3605393016997
 31
0.0
  0
LINE
  5
17B89
  8
0
 10
90.053294319361271
 20
199.35842682967879
 30
0.0
 11
90.933999744877042
 21
197.83776519249179
 31
0.0
  0
LINE
  5
17B8A
  8
0
 10
91.785345226228117
 20
200.36796932469099
 30
0.0
 11
92.668119411712837
 21
198.83895977248
 31
0.0
  0
LINE
  5
17B8B
  8
0
 10
89.415380032434882
 20
201.7379485572408
 30
0.0
 11
76.575333950742944
 21
201.7379485572408
 31
0.0
  0
ARC
  5
17BA5
  8
0
 10
75.992356830797974
 20
191.28264069371409
 30
0.0
 40
0.5
 50
232.9960149396384
 51
270.0
  0
ARC
  5
17BA6
  8
0
 10
90.000356830797955
 20
191.282640693714
 30
0.0
 40
0.5
 50
353.65275157644669
 51
0.0
  0
LINE
  5
17BB6
  8
1
 10
69.550356830797853
 20
164.00570569867281
 30
0.0
 11
69.550356830797853
 21
171.00570572474979
 31
0.0
  0
LINE
  5
17BB7
  8
1
 10
96.450356830797773
 20
164.00570569867281
 30
0.0
 11
96.450356830797773
 21
171.00570572474979
 31
0.0
  0
POLYLINE
  5
17BCF
  8
0
 66
     1
 10
0.0
 20
0.0
 30
0.0
 70
   128
  0
VERTEX
  5
17F36
  8
0
 10
358.05960688749531
 20
244.4854583163922
 30
0.0
  0
VERTEX
  5
17F37
  8
0
 10
357.98561330894211
 20
244.95512801606111
 30
0.0
  0
VERTEX
  5
17F38
  8
0
 10
357.81188998380878
 20
245.3172485848134
 30
0.0
  0
VERTEX
  5
17F39
  8
0
 10
357.59931746879801
 20
245.5705310722058
 30
0.0
  0
VERTEX
  5
17F3A
  8
0
 10
357.38900806764337
 20
245.7324768920605
 30
0.0
  0
VERTEX
  5
17F3B
  8
0
 10
357.04566482464048
 20
245.87251800496031
 30
0.0
  0
VERTEX
  5
17F3C
  8
0
 10
356.65654148915991
 20
245.9246199150746
 30
0.0
  0
VERTEX
  5
17F3D
  8
0
 10
356.03487063208797
 20
245.95809537369661
 30
0.0
  0
VERTEX
  5
17F3E
  8
0
 10
355.08844386795738
 20
245.97827899653359
 30
0.0
  0
VERTEX
  5
17F3F
  8
0
 10
354.47213370362499
 20
245.98464924294399
 30
0.0
  0
VERTEX
  5
17F40
  8
0
 10
353.75690031806209
 20
245.98900038201259
 30
0.0
  0
VERTEX
  5
17F41
  8
0
 10
352.9480615631698
 20
245.9915484805768
 30
0.0
  0
VERTEX
  5
17F42
  8
0
 10
352.05960776666382
 20
246.007273246913
 30
0.0
  0
SEQEND
  5
17F43
  8
0
  0
LINE
  5
17BD0
  8
0
 10
358.05960688749531
 20
242.54546123940401
 30
0.0
 11
358.05960688749531
 21
244.4854583163922
 31
0.0
  0
POLYLINE
  5
17BD1
  8
0
 66
     1
 10
0.0
 20
0.0
 30
0.0
 70
   128
  0
VERTEX
  5
17F44
  8
0
 10
352.05960776666382
 20
241.009360136575
 30
0.0
  0
VERTEX
  5
17F45
  8
0
 10
352.9480615631698
 20
241.03937107521941
 30
0.0
  0
VERTEX
  5
17F46
  8
0
 10
353.75690031806209
 20
241.0419191737835
 30
0.0
  0
VERTEX
  5
17F47
  8
0
 10
354.47213370362499
 20
241.0462703128521
 30
0.0
  0
VERTEX
  5
17F48
  8
0
 10
355.08844386795738
 20
241.0526405592625
 30
0.0
  0
VERTEX
  5
17F49
  8
0
 10
356.03487063208797
 20
241.07282418209959
 30
0.0
  0
VERTEX
  5
17F4A
  8
0
 10
356.65654148915991
 20
241.1062996407216
 30
0.0
  0
VERTEX
  5
17F4B
  8
0
 10
357.04566482464048
 20
241.1584015508358
 30
0.0
  0
VERTEX
  5
17F4C
  8
0
 10
357.38900806764337
 20
241.29844266373561
 30
0.0
  0
VERTEX
  5
17F4D
  8
0
 10
357.59931746879801
 20
241.46038848359041
 30
0.0
  0
VERTEX
  5
17F4E
  8
0
 10
357.81188998380878
 20
241.7136709709828
 30
0.0
  0
VERTEX
  5
17F4F
  8
0
 10
357.98561330894211
 20
242.07579153973509
 30
0.0
  0
VERTEX
  5
17F50
  8
0
 10
358.05960688749531
 20
242.54546123940401
 30
0.0
  0
SEQEND
  5
17F51
  8
0
  0
LINE
  5
17BF6
  8
0
 10
327.52524954306188
 20
237.00727331835679
 30
0.0
 11
322.58525011169019
 21
237.00727331835679
 31
0.0
  0
LINE
  5
17BF7
  8
0
 10
331.05524987953009
 20
241.009360136575
 30
0.0
 11
352.05960776666382
 21
241.009360136575
 31
0.0
  0
LINE
  5
17BF8
  8
0
 10
298.05889194900419
 20
241.009360136575
 30
0.0
 11
319.05524977522202
 21
241.009360136575
 31
0.0
  0
ARC
  5
17BF9
  8
0
 10
331.05525538566951
 20
239.00935430259639
 30
0.0
 40
2.0000058339861551
 50
90.000157738810884
 51
179.99973553940029
  0
ARC
  5
17BFA
  8
0
 10
319.05524334254949
 20
239.00935337606151
 30
0.0
 40
2.0000067605238341
 50
0.0002910036563216
 51
89.999815718131714
  0
LINE
  5
17BFB
  8
0
 10
329.05524955170461
 20
237.00935948092391
 30
0.0
 11
329.05524955170461
 21
239.00936353403969
 31
0.0
  0
ARC
  5
17BFC
  8
0
 10
327.9083723804975
 20
517.07856492153837
 30
0.0
 40
280.07155364903281
 50
269.92162242762731
 51
270.23462363215123
  0
ARC
  5
17BFD
  8
0
 10
322.20212700097352
 20
517.07836449598972
 30
0.0
 40
280.07135322404531
 50
269.76537625585649
 51
270.07837768437071
  0
LINE
  5
17BFE
  8
0
 10
321.05525010304763
 20
239.00936353403969
 30
0.0
 11
321.05525010304763
 21
237.00935948092391
 31
0.0
  0
LINE
  5
17BFF
  8
0
 10
298.05889194900419
 20
246.007273246913
 30
0.0
 11
352.05960776666382
 21
246.007273246913
 31
0.0
  0
POLYLINE
  5
17C56
  8
0
 66
     1
 10
0.0
 20
0.0
 30
0.0
 70
   128
  0
VERTEX
  5
17F52
  8
0
 10
292.0588928281727
 20
244.4854583163922
 30
0.0
  0
VERTEX
  5
17F53
  8
0
 10
292.1328864067259
 20
244.95512801606111
 30
0.0
  0
VERTEX
  5
17F54
  8
0
 10
292.30660973185923
 20
245.3172485848134
 30
0.0
  0
VERTEX
  5
17F55
  8
0
 10
292.51918224687012
 20
245.5705310722058
 30
0.0
  0
VERTEX
  5
17F56
  8
0
 10
292.72949164802458
 20
245.7324768920605
 30
0.0
  0
VERTEX
  5
17F57
  8
0
 10
293.07283489102753
 20
245.87251800496031
 30
0.0
  0
VERTEX
  5
17F58
  8
0
 10
293.46195822650822
 20
245.9246199150746
 30
0.0
  0
VERTEX
  5
17F59
  8
0
 10
294.08362908357998
 20
245.95809537369661
 30
0.0
  0
VERTEX
  5
17F5A
  8
0
 10
295.03005584771063
 20
245.97827899653359
 30
0.0
  0
VERTEX
  5
17F5B
  8
0
 10
295.64636601204302
 20
245.98464924294399
 30
0.0
  0
VERTEX
  5
17F5C
  8
0
 10
296.36159939760591
 20
245.98900038201259
 30
0.0
  0
VERTEX
  5
17F5D
  8
0
 10
297.17043815249832
 20
245.9915484805768
 30
0.0
  0
VERTEX
  5
17F5E
  8
0
 10
298.05889194900419
 20
246.007273246913
 30
0.0
  0
SEQEND
  5
17F5F
  8
0
  0
LINE
  5
17C57
  8
0
 10
292.0588928281727
 20
242.54546123940401
 30
0.0
 11
292.0588928281727
 21
244.4854583163922
 31
0.0
  0
POLYLINE
  5
17C58
  8
0
 66
     1
 10
0.0
 20
0.0
 30
0.0
 70
   128
  0
VERTEX
  5
17F60
  8
0
 10
298.05889194900419
 20
241.009360136575
 30
0.0
  0
VERTEX
  5
17F61
  8
0
 10
297.17043815249832
 20
241.03937107521941
 30
0.0
  0
VERTEX
  5
17F62
  8
0
 10
296.36159939760591
 20
241.0419191737835
 30
0.0
  0
VERTEX
  5
17F63
  8
0
 10
295.64636601204302
 20
241.0462703128521
 30
0.0
  0
VERTEX
  5
17F64
  8
0
 10
295.03005584771063
 20
241.0526405592625
 30
0.0
  0
VERTEX
  5
17F65
  8
0
 10
294.08362908357998
 20
241.07282418209959
 30
0.0
  0
VERTEX
  5
17F66
  8
0
 10
293.46195822650822
 20
241.1062996407216
 30
0.0
  0
VERTEX
  5
17F67
  8
0
 10
293.07283489102753
 20
241.1584015508358
 30
0.0
  0
VERTEX
  5
17F68
  8
0
 10
292.72949164802458
 20
241.29844266373561
 30
0.0
  0
VERTEX
  5
17F69
  8
0
 10
292.51918224687012
 20
241.46038848359041
 30
0.0
  0
VERTEX
  5
17F6A
  8
0
 10
292.30660973185923
 20
241.7136709709828
 30
0.0
  0
VERTEX
  5
17F6B
  8
0
 10
292.1328864067259
 20
242.07579153973509
 30
0.0
  0
VERTEX
  5
17F6C
  8
0
 10
292.0588928281727
 20
242.54546123940401
 30
0.0
  0
SEQEND
  5
17F6D
  8
0
  0
LINE
  5
17C9F
  8
0
 10
328.20492043906552
 20
168.06995932606651
 30
0.0
 11
321.9056702414988
 21
168.0702354288095
 31
0.0
  0
POLYLINE
  5
17CA4
  8
0
 66
     1
 10
0.0
 20
0.0
 30
0.0
 70
   128
  0
VERTEX
  5
17F6E
  8
0
 10
317.75215528965907
 20
190.8849805616195
 30
0.0
  0
VERTEX
  5
17F6F
  8
0
 10
318.00231253767612
 20
190.45239406516109
 30
0.0
  0
SEQEND
  5
17F70
  8
0
  0
POLYLINE
  5
17CA5
  8
0
 66
     1
 10
0.0
 20
0.0
 30
0.0
 70
   128
  0
VERTEX
  5
17F71
  8
0
 10
332.55846316851392
 20
191.2136193657168
 30
0.0
  0
VERTEX
  5
17F72
  8
0
 10
332.6756142549425
 20
191.41609127511529
 30
0.0
  0
VERTEX
  5
17F73
  8
0
 10
332.8609786068439
 20
191.73617626083271
 30
0.0
  0
SEQEND
  5
17F74
  8
0
  0
LINE
  5
17CB0
  8
1
 10
325.0552498273758
 20
251.0072732469111
 30
0.0
 11
325.05524982737597
 21
161.00570569867091
 31
0.0
  0
LINE
  5
17CB1
  8
1
 10
311.60924965897038
 20
164.00570569867091
 30
0.0
 11
311.60924965897038
 21
171.005705724748
 31
0.0
  0
LINE
  5
17CB2
  8
1
 10
338.50924965897019
 20
164.00570569867091
 30
0.0
 11
338.50924965897019
 21
171.005705724748
 31
0.0
  0
ENDSEC
  0
EOF
