  0
SECTION
  2
HEADER
  9
$ACADVER
  1
AC1009
  9
$INSBASE
 10
45.226146141006772
 20
61.960554757430081
 30
0.0
  9
$EXTMIN
 10
0.0
 20
-2.960436562073669
 30
0.0
  9
$EXTMAX
 10
248.2705325680397
 20
115.8117408968089
 30
0.0
  9
$LIMMIN
 10
0.0
 20
0.0
  9
$LIMMAX
 10
390.0
 20
270.0
  9
$ORTHOMODE
 70
     1
  9
$REGENMODE
 70
     1
  9
$FILLMODE
 70
     1
  9
$QTEXTMODE
 70
     0
  9
$MIRRTEXT
 70
     1
  9
$DRAGMODE
 70
     2
  9
$LTSCALE
 40
5.0
  9
$OSMODE
 70
    55
  9
$ATTMODE
 70
     1
  9
$TEXTSIZE
 40
2.5
  9
$TRACEWID
 40
1.0
  9
$TEXTSTYLE
  7
STANDARD
  9
$CLAYER
  8
4
  9
$CELTYPE
  6
BYLAYER
  9
$CECOLOR
 62
   256
  9
$DIMSCALE
 40
1.1999999999999991
  9
$DIMASZ
 40
3.0
  9
$DIMEXO
 40
1.0
  9
$DIMDLI
 40
6.0
  9
$DIMRND
 40
0.0
  9
$DIMDLE
 40
0.0
  9
$DIMEXE
 40
1.0
  9
$DIMTP
 40
495.0
  9
$DIMTM
 40
0.0
  9
$DIMTXT
 40
3.2000000000000002
  9
$DIMCEN
 40
0.0
  9
$DIMTSZ
 40
0.0
  9
$DIMTOL
 70
     0
  9
$DIMLIM
 70
     0
  9
$DIMTIH
 70
     0
  9
$DIMTOH
 70
     0
  9
$DIMSE1
 70
     0
  9
$DIMSE2
 70
     0
  9
$DIMTAD
 70
     1
  9
$DIMZIN
 70
     8
  9
$DIMBLK
  1

  9
$DIMASO
 70
     0
  9
$DIMSHO
 70
     1
  9
$DIMPOST
  1

  9
$DIMAPOST
  1

  9
$DIMALT
 70
     0
  9
$DIMALTD
 70
     2
  9
$DIMALTF
 40
25.399999999999999
  9
$DIMLFAC
 40
1.0
  9
$DIMTOFL
 70
     1
  9
$DIMTVP
 40
0.0
  9
$DIMTIX
 70
     1
  9
$DIMSOXD
 70
     0
  9
$DIMSAH
 70
     0
  9
$DIMBLK1
  1

  9
$DIMBLK2
  1

  9
$DIMSTYLE
  2
ITM
  9
$DIMCLRD
 70
   256
  9
$DIMCLRE
 70
   256
  9
$DIMCLRT
 70
   256
  9
$DIMTFAC
 40
1.0
  9
$DIMGAP
 40
1.0
  9
$LUNITS
 70
     2
  9
$LUPREC
 70
     2
  9
$SKETCHINC
 40
1.0
  9
$FILLETRAD
 40
0.4
  9
$AUNITS
 70
     0
  9
$AUPREC
 70
     0
  9
$MENU
  1
.
  9
$ELEVATION
 40
0.0
  9
$PELEVATION
 40
0.0
  9
$THICKNESS
 40
0.0
  9
$LIMCHECK
 70
     0
  9
$BLIPMODE
 70
     0
  9
$CHAMFERA
 40
1.1999999999999991
  9
$CHAMFERB
 40
1.1999999999999991
  9
$SKPOLY
 70
     0
  9
$TDCREATE
 40
2453354.0921258219
  9
$TDUPDATE
 40
2456598.5623759138
  9
$TDINDWG
 40
513.3517166204
  9
$TDUSRTIMER
 40
513.35143864580004
  9
$USRTIMER
 70
     1
  9
$ANGBASE
 50
0.0
  9
$ANGDIR
 70
     0
  9
$PDMODE
 70
     0
  9
$PDSIZE
 40
0.0
  9
$PLINEWID
 40
0.0
  9
$COORDS
 70
     1
  9
$SPLFRAME
 70
     0
  9
$SPLINETYPE
 70
     6
  9
$SPLINESEGS
 70
     8
  9
$ATTDIA
 70
     0
  9
$ATTREQ
 70
     1
  9
$HANDLING
 70
     1
  9
$HANDSEED
  5
24B
  9
$SURFTAB1
 70
     6
  9
$SURFTAB2
 70
     6
  9
$SURFTYPE
 70
     6
  9
$SURFU
 70
     6
  9
$SURFV
 70
     6
  9
$UCSNAME
  2

  9
$UCSORG
 10
0.0
 20
0.0
 30
0.0
  9
$UCSXDIR
 10
1.0
 20
0.0
 30
0.0
  9
$UCSYDIR
 10
0.0
 20
1.0
 30
0.0
  9
$PUCSNAME
  2

  9
$PUCSORG
 10
0.0
 20
0.0
 30
0.0
  9
$PUCSXDIR
 10
1.0
 20
0.0
 30
0.0
  9
$PUCSYDIR
 10
0.0
 20
1.0
 30
0.0
  9
$USERI1
 70
     4
  9
$USERI2
 70
     1
  9
$USERI3
 70
     1
  9
$USERI4
 70
     0
  9
$USERI5
 70
     0
  9
$USERR1
 40
1.0
  9
$USERR2
 40
3.0
  9
$USERR3
 40
3.2000000000000002
  9
$USERR4
 40
3.0
  9
$USERR5
 40
10.0
  9
$WORLDVIEW
 70
     1
  9
$SHADEDGE
 70
     3
  9
$SHADEDIF
 70
    70
  9
$TILEMODE
 70
     1
  9
$MAXACTVP
 70
    16
  9
$PLIMCHECK
 70
     0
  9
$PEXTMIN
 10
0.0
 20
0.0
 30
0.0
  9
$PEXTMAX
 10
0.0
 20
0.0
 30
0.0
  9
$PLIMMIN
 10
0.0
 20
0.0
  9
$PLIMMAX
 10
12.0
 20
9.0
  9
$UNITMODE
 70
     0
  9
$VISRETAIN
 70
     0
  9
$PLINEGEN
 70
     0
  9
$PSLTSCALE
 70
     1
  0
ENDSEC
  0
SECTION
  2
TABLES
  0
TABLE
  2
VPORT
 70
     1
  0
VPORT
  2
*ACTIVE
 70
     0
 10
0.0
 20
0.0
 11
1.0
 21
1.0
 12
194.9940495262785
 22
197.0509055860143
 13
0.0
 23
0.0
 14
5.0
 24
5.0
 15
10.0
 25
10.0
 16
0.0
 26
0.0
 36
1.0
 17
0.0
 27
0.0
 37
0.0
 40
403.57315882993248
 41
1.7807262569832401
 42
50.0
 43
0.0
 44
0.0
 50
0.0
 51
0.0
 71
    16
 72
   500
 73
     1
 74
     1
 75
     0
 76
     0
 77
     0
 78
     1
  0
ENDTAB
  0
TABLE
  2
LTYPE
 70
     4
  0
LTYPE
  2
CONTINUOUS
 70
     0
  3
Solid line
 72
    65
 73
     0
 40
0.0
  0
LTYPE
  2
CENTER
 70
     0
  3
____ _ ____ _ ____ _ ____ _ ____ _ ____ _ ____
 72
    65
 73
     4
 40
2.0
 49
1.25
 49
-0.25
 49
0.25
 49
-0.25
  0
LTYPE
  2
HIDDEN
 70
     0
  3
_ _ _ _ _ _ _ _ _ _ _ _ _ _ _ _ _ _ _ _ _ _ _
 72
    65
 73
     2
 40
0.375
 49
0.25
 49
-0.125
  0
LTYPE
  2
PHANTOM2
 70
     0
  3
___ _ _ ___ _ _ ___ _ _ ___ _ _
 72
    65
 73
     6
 40
1.25
 49
0.625
 49
-0.125
 49
0.125
 49
-0.125
 49
0.125
 49
-0.125
  0
ENDTAB
  0
TABLE
  2
LAYER
 70
     5
  0
LAYER
  2
0
 70
     0
 62
     7
  6
CONTINUOUS
  0
LAYER
  2
1
 70
     0
 62
     1
  6
CENTER
  0
LAYER
  2
WAKU
 70
     0
 62
     5
  6
CONTINUOUS
  0
LAYER
  2
4
 70
     0
 62
     4
  6
CONTINUOUS
  0
LAYER
  2
2
 70
     0
 62
     2
  6
HIDDEN
  0
ENDTAB
  0
TABLE
  2
STYLE
 70
     3
  0
STYLE
  2
STANDARD
 70
     0
 40
0.0
 41
1.0
 50
0.0
 71
     0
 42
2.5
  3
ROMANS
  4
EXTFONT
  0
STYLE
  2
K
 70
     0
 40
0.0
 41
0.75
 50
0.0
 71
     0
 42
3.2000000000000002
  3
ROMANS.shx
  4
EXTFONT.shx
  0
STYLE
  2
STANDARD1
 70
     0
 40
0.0
 41
1.0
 50
0.0
 71
     0
 42
3.0
  3
txt
  4

  0
ENDTAB
  0
TABLE
  2
VIEW
 70
     0
  0
ENDTAB
  0
TABLE
  2
UCS
 70
     0
  0
ENDTAB
  0
TABLE
  2
APPID
 70
     3
  0
APPID
  2
ACAD
 70
     0
  0
APPID
  2
ACAD_MLEADERVER
 70
     0
  0
APPID
  2
ACAD_NAV_VCDISPLAY
 70
     0
  0
ENDTAB
  0
TABLE
  2
DIMSTYLE
 70
     2
  0
DIMSTYLE
  2
ITM
 70
     0
  3

  4

  5

  6

  7

 40
0.0
 41
2.5
 42
1.0
 43
6.0
 44
1.0
 45
0.0
 46
0.0
 47
495.0
 48
0.0
140
3.0
141
0.0
142
0.0
143
25.399999999999999
144
1.0
145
0.0
146
1.0
147
1.0
 71
     0
 72
     0
 73
     0
 74
     0
 75
     0
 76
     0
 77
     3
 78
     8
170
     0
171
     2
172
     1
173
     0
174
     0
175
     0
176
     0
177
     0
178
     0
  0
DIMSTYLE
  2
STANDARD
 70
     0
  3

  4

  5

  6

  7

 40
1.0
 41
0.18
 42
0.0625
 43
0.38
 44
0.18
 45
0.0
 46
0.0
 47
0.0
 48
0.0
140
0.18
141
0.09
142
0.0
143
25.399999999999999
144
1.0
145
0.0
146
1.0
147
0.09
 71
     0
 72
     0
 73
     1
 74
     1
 75
     0
 76
     0
 77
     0
 78
     0
170
     0
171
     2
172
     0
173
     0
174
     0
175
     0
176
     0
177
     0
178
     0
  0
ENDTAB
  0
ENDSEC
  0
SECTION
  2
BLOCKS
  0
BLOCK
  8
0
  2
$MODEL_SPACE
 70
     0
 10
0.0
 20
0.0
 30
0.0
  3
$MODEL_SPACE
  1

  0
ENDBLK
  5
12
  8
0
  0
BLOCK
 67
     1
  8
0
  2
$PAPER_SPACE
 70
     0
 10
0.0
 20
0.0
 30
0.0
  3
$PAPER_SPACE
  1

  0
ENDBLK
  5
19
 67
     1
  8
0
  0
BLOCK
  8
0
  2
ARROW1
 70
     0
 10
0.0
 20
0.0
 30
0.0
  3
ARROW1
  1

  0
SOLID
  5
4B
  8
WAKU
  6
CONTINUOUS
 62
     4
 10
-1.0
 20
0.1666666666666714
 30
0.0
 11
-1.0
 21
-0.1666666666666714
 31
0.0
 12
0.0
 22
0.0
 32
0.0
 13
0.0
 23
0.0
 33
0.0
  0
ENDBLK
  5
4D
  8
0
  0
ENDSEC
  0
SECTION
  2
ENTITIES
  0
CIRCLE
  5
74
  8
0
 10
221.3449394983503
 20
88.886147827119487
 30
0.0
 40
22.5
  0
CIRCLE
  5
75
  8
0
 10
221.3449394983503
 20
88.886147827119487
 30
0.0
 40
13.886218340478729
  0
LINE
  5
76
  8
1
 10
194.4193464286609
 20
88.886147827119487
 30
0.0
 11
248.2705325680397
 21
88.886147827119487
 31
0.0
  0
LINE
  5
79
  8
1
 10
221.3449394983503
 20
61.960554757430081
 30
0.0
 11
221.3449394983503
 21
115.8117408968089
 31
0.0
  0
LINE
  5
7A
  8
1
 10
92.327016235128553
 20
88.886147827119487
 30
0.0
 11
168.45111027054401
 21
88.886147827119487
 31
0.0
  0
LINE
  5
7B
  8
0
 10
160.1272240986091
 20
102.78614782711939
 30
0.0
 11
160.1272240986091
 21
74.98614782711951
 31
0.0
  0
LINE
  5
7C
  8
0
 10
154.62722409860919
 20
109.78614782711939
 30
0.0
 11
154.62722409860919
 21
67.986147827119552
 31
0.0
  0
LINE
  5
7D
  8
0
 10
133.1272240986093
 20
106.8861478271196
 30
0.0
 11
133.1272240986093
 21
70.886147827119345
 31
0.0
  0
LINE
  5
7E
  8
0
 10
126.5272240986089
 20
104.28614782711939
 30
0.0
 11
126.5272240986089
 21
73.48614782711951
 31
0.0
  0
LINE
  5
7F
  8
0
 10
115.5179029384543
 20
102.8861478271195
 30
0.0
 11
115.5179029384544
 21
74.886147827119487
 31
0.0
  0
LINE
  5
80
  8
0
 10
114.527224098609
 20
101.7499294866407
 30
0.0
 11
114.5272240986091
 21
76.022366167598207
 31
0.0
  0
ARC
  5
81
  8
0
 10
98.130406316042155
 20
89.521360424558509
 30
0.0
 40
63.399999999999558
 50
0.0
 51
12.07686742773843
  0
ARC
  5
82
  8
0
 10
98.130406316042453
 20
88.250935229680437
 30
0.0
 40
63.399999999999267
 50
347.92313257226158
 51
0.0000008537736463
  0
ARC
  5
83
  8
0
 10
152.34064183647121
 20
102.32883319258259
 30
0.0
 40
7.8000000000000274
 50
3.3611837633511219
 51
72.953269411385534
  0
ARC
  5
84
  8
0
 10
152.34064183647129
 20
75.443462461656338
 30
0.0
 40
7.8000000000000211
 50
287.04673058861442
 51
356.63881623664889
  0
ARC
  5
85
  8
0
 10
146.4172265577192
 20
89.50509511302694
 30
0.0
 40
21.87978882012386
 50
67.961345665726725
 51
127.4024635667751
  0
ARC
  5
86
  8
0
 10
123.8834212979678
 20
120.6742626287471
 30
0.0
 40
16.600000000000151
 50
279.16425006721431
 51
303.83861858088108
  0
ARC
  5
87
  8
0
 10
123.8834212979679
 20
57.098033025491908
 30
0.0
 40
16.600000000000069
 50
56.161381419118989
 51
80.835749932785617
  0
LINE
  5
88
  8
0
 10
126.5272240986089
 20
104.28614782711939
 30
0.0
 11
115.5179029384543
 21
102.8861478271195
 31
0.0
  0
LINE
  5
89
  8
0
 10
115.5179029384543
 20
102.8861478271195
 30
0.0
 11
114.527224098609
 21
101.7499294866407
 31
0.0
  0
LINE
  5
8A
  8
1
 10
45.226146141006772
 20
61.960554757430081
 30
0.0
 11
45.226146141006772
 21
115.8117408968089
 31
0.0
  0
LINE
  5
8B
  8
1
 10
18.300553071317381
 20
88.886147827119487
 30
0.0
 11
72.151739210696164
 21
88.886147827119487
 31
0.0
  0
CIRCLE
  5
8C
  8
0
 10
45.226146141006772
 20
88.886147827119487
 30
0.0
 40
14.0
  0
CIRCLE
  5
8D
  8
0
 10
45.226146141006772
 20
88.886147827119487
 30
0.0
 40
12.86378165952126
  0
CIRCLE
  5
8E
  8
0
 10
45.226146141006772
 20
88.886147827119487
 30
0.0
 40
22.5
  0
CIRCLE
  5
8F
  8
0
 10
221.3449394983503
 20
88.886147827119487
 30
0.0
 40
0.6352135421758192
  0
ARC
  5
90
  8
0
 10
146.4172265577192
 20
88.267200541212034
 30
0.0
 40
21.87978882012386
 50
232.59753643322489
 51
292.0386543342733
  0
LINE
  5
91
  8
0
 10
115.5179029384543
 20
74.886147827119487
 30
0.0
 11
114.527224098609
 21
76.022366167598221
 31
0.0
  0
LINE
  5
92
  8
0
 10
126.5272240986089
 20
73.48614782711951
 30
0.0
 11
115.5179029384543
 21
74.886147827119487
 31
0.0
  0
LINE
  5
93
  8
2
 10
148.527224098609
 20
94.886147827119487
 30
0.0
 11
114.527224098609
 21
94.886147827119487
 31
0.0
  0
LINE
  5
96
  8
2
 10
114.527224098609
 20
82.886147827119487
 30
0.0
 11
148.527224098609
 21
82.886147827119487
 31
0.0
  0
LINE
  5
97
  8
2
 10
155.32722409860901
 20
93.686147827119484
 30
0.0
 11
148.527224098609
 21
93.686147827119484
 31
0.0
  0
LINE
  5
98
  8
2
 10
148.527224098609
 20
84.086147827119476
 30
0.0
 11
155.32722409860901
 21
84.086147827119476
 31
0.0
  0
LINE
  5
99
  8
2
 10
114.527224098609
 20
94.886147827119487
 30
0.0
 11
114.527224098609
 21
82.886147827119487
 31
0.0
  0
LINE
  5
9A
  8
2
 10
148.527224098609
 20
94.886147827119487
 30
0.0
 11
148.527224098609
 21
82.886147827119487
 31
0.0
  0
LINE
  5
9B
  8
2
 10
155.32722409860901
 20
93.686147827119484
 30
0.0
 11
155.32722409860901
 21
84.086147827119476
 31
0.0
  0
LINE
  5
9C
  8
0
 10
161.53040631604171
 20
89.52136136929532
 30
0.0
 11
161.53040631604171
 21
88.250929561410231
 31
0.0
  0
POLYLINE
  5
9D
  8
0
 10
161.53040631604171
 20
89.52136042455848
 30
0.0
 66
     1
 70
     8
  0
VERTEX
  8
0
  5
1C9
 10
161.530
 20
89.5214
 30
0.000000
  70
    32
  0
VERTEX
  8
0
  5
1CA
 10
161.528
 20
89.5143
 30
0.000000
  70
    32
  0
VERTEX
  8
0
  5
1CB
 10
161.526
 20
89.5071
 30
0.000000
  70
    32
  0
VERTEX
  8
0
  5
1CC
 10
161.523
 20
89.4998
 30
0.000000
  70
    32
  0
VERTEX
  8
0
  5
1CD
 10
161.521
 20
89.4924
 30
0.000000
  70
    32
  0
VERTEX
  8
0
  5
1CE
 10
161.519
 20
89.4848
 30
0.000000
  70
    32
  0
VERTEX
  8
0
  5
1CF
 10
161.517
 20
89.4771
 30
0.000000
  70
    32
  0
VERTEX
  8
0
  5
1D0
 10
161.515
 20
89.4693
 30
0.000000
  70
    32
  0
VERTEX
  8
0
  5
1D1
 10
161.512
 20
89.4614
 30
0.000000
  70
    32
  0
VERTEX
  8
0
  5
1D2
 10
161.510
 20
89.4533
 30
0.000000
  70
    32
  0
VERTEX
  8
0
  5
1D3
 10
161.508
 20
89.4452
 30
0.000000
  70
    32
  0
VERTEX
  8
0
  5
1D4
 10
161.506
 20
89.4369
 30
0.000000
  70
    32
  0
VERTEX
  8
0
  5
1D5
 10
161.504
 20
89.4285
 30
0.000000
  70
    32
  0
VERTEX
  8
0
  5
1D6
 10
161.502
 20
89.4200
 30
0.000000
  70
    32
  0
VERTEX
  8
0
  5
1D7
 10
161.500
 20
89.4114
 30
0.000000
  70
    32
  0
VERTEX
  8
0
  5
1D8
 10
161.498
 20
89.4027
 30
0.000000
  70
    32
  0
VERTEX
  8
0
  5
1D9
 10
161.496
 20
89.3939
 30
0.000000
  70
    32
  0
VERTEX
  8
0
  5
1DA
 10
161.494
 20
89.3850
 30
0.000000
  70
    32
  0
VERTEX
  8
0
  5
1DB
 10
161.493
 20
89.3759
 30
0.000000
  70
    32
  0
VERTEX
  8
0
  5
1DC
 10
161.491
 20
89.3668
 30
0.000000
  70
    32
  0
VERTEX
  8
0
  5
1DD
 10
161.489
 20
89.3576
 30
0.000000
  70
    32
  0
VERTEX
  8
0
  5
1DE
 10
161.487
 20
89.3483
 30
0.000000
  70
    32
  0
VERTEX
  8
0
  5
1DF
 10
161.486
 20
89.3389
 30
0.000000
  70
    32
  0
VERTEX
  8
0
  5
1E0
 10
161.484
 20
89.3294
 30
0.000000
  70
    32
  0
VERTEX
  8
0
  5
1E1
 10
161.482
 20
89.3198
 30
0.000000
  70
    32
  0
VERTEX
  8
0
  5
1E2
 10
161.481
 20
89.3101
 30
0.000000
  70
    32
  0
VERTEX
  8
0
  5
1E3
 10
161.479
 20
89.3003
 30
0.000000
  70
    32
  0
VERTEX
  8
0
  5
1E4
 10
161.478
 20
89.2905
 30
0.000000
  70
    32
  0
VERTEX
  8
0
  5
1E5
 10
161.476
 20
89.2805
 30
0.000000
  70
    32
  0
VERTEX
  8
0
  5
1E6
 10
161.475
 20
89.2705
 30
0.000000
  70
    32
  0
VERTEX
  8
0
  5
1E7
 10
161.473
 20
89.2604
 30
0.000000
  70
    32
  0
VERTEX
  8
0
  5
1E8
 10
161.472
 20
89.2503
 30
0.000000
  70
    32
  0
VERTEX
  8
0
  5
1E9
 10
161.471
 20
89.2400
 30
0.000000
  70
    32
  0
VERTEX
  8
0
  5
1EA
 10
161.469
 20
89.2297
 30
0.000000
  70
    32
  0
VERTEX
  8
0
  5
1EB
 10
161.468
 20
89.2193
 30
0.000000
  70
    32
  0
VERTEX
  8
0
  5
1EC
 10
161.467
 20
89.2089
 30
0.000000
  70
    32
  0
VERTEX
  8
0
  5
1ED
 10
161.466
 20
89.1984
 30
0.000000
  70
    32
  0
VERTEX
  8
0
  5
1EE
 10
161.465
 20
89.1878
 30
0.000000
  70
    32
  0
VERTEX
  8
0
  5
1EF
 10
161.463
 20
89.1771
 30
0.000000
  70
    32
  0
VERTEX
  8
0
  5
1F0
 10
161.462
 20
89.1664
 30
0.000000
  70
    32
  0
VERTEX
  8
0
  5
1F1
 10
161.461
 20
89.1557
 30
0.000000
  70
    32
  0
VERTEX
  8
0
  5
1F2
 10
161.460
 20
89.1449
 30
0.000000
  70
    32
  0
VERTEX
  8
0
  5
1F3
 10
161.459
 20
89.1340
 30
0.000000
  70
    32
  0
VERTEX
  8
0
  5
1F4
 10
161.459
 20
89.1231
 30
0.000000
  70
    32
  0
VERTEX
  8
0
  5
1F5
 10
161.458
 20
89.1121
 30
0.000000
  70
    32
  0
VERTEX
  8
0
  5
1F6
 10
161.457
 20
89.1011
 30
0.000000
  70
    32
  0
VERTEX
  8
0
  5
1F7
 10
161.456
 20
89.0900
 30
0.000000
  70
    32
  0
VERTEX
  8
0
  5
1F8
 10
161.455
 20
89.0789
 30
0.000000
  70
    32
  0
VERTEX
  8
0
  5
1F9
 10
161.455
 20
89.0678
 30
0.000000
  70
    32
  0
VERTEX
  8
0
  5
1FA
 10
161.454
 20
89.0566
 30
0.000000
  70
    32
  0
VERTEX
  8
0
  5
1FB
 10
161.453
 20
89.0454
 30
0.000000
  70
    32
  0
VERTEX
  8
0
  5
1FC
 10
161.453
 20
89.0342
 30
0.000000
  70
    32
  0
VERTEX
  8
0
  5
1FD
 10
161.452
 20
89.0229
 30
0.000000
  70
    32
  0
VERTEX
  8
0
  5
1FE
 10
161.452
 20
89.0116
 30
0.000000
  70
    32
  0
VERTEX
  8
0
  5
1FF
 10
161.451
 20
89.0003
 30
0.000000
  70
    32
  0
VERTEX
  8
0
  5
200
 10
161.451
 20
88.9889
 30
0.000000
  70
    32
  0
VERTEX
  8
0
  5
201
 10
161.451
 20
88.9776
 30
0.000000
  70
    32
  0
VERTEX
  8
0
  5
202
 10
161.450
 20
88.9662
 30
0.000000
  70
    32
  0
VERTEX
  8
0
  5
203
 10
161.450
 20
88.9548
 30
0.000000
  70
    32
  0
VERTEX
  8
0
  5
204
 10
161.450
 20
88.9434
 30
0.000000
  70
    32
  0
VERTEX
  8
0
  5
205
 10
161.450
 20
88.9319
 30
0.000000
  70
    32
  0
VERTEX
  8
0
  5
206
 10
161.449
 20
88.9205
 30
0.000000
  70
    32
  0
VERTEX
  8
0
  5
207
 10
161.449
 20
88.9090
 30
0.000000
  70
    32
  0
VERTEX
  8
0
  5
208
 10
161.449
 20
88.8976
 30
0.000000
  70
    32
  0
VERTEX
  8
0
  5
209
 10
161.449
 20
88.8861
 30
0.000000
  70
    32
  0
VERTEX
  8
0
  5
20A
 10
161.449
 20
88.8747
 30
0.000000
  70
    32
  0
VERTEX
  8
0
  5
20B
 10
161.449
 20
88.8632
 30
0.000000
  70
    32
  0
VERTEX
  8
0
  5
20C
 10
161.449
 20
88.8518
 30
0.000000
  70
    32
  0
VERTEX
  8
0
  5
20D
 10
161.450
 20
88.8404
 30
0.000000
  70
    32
  0
VERTEX
  8
0
  5
20E
 10
161.450
 20
88.8289
 30
0.000000
  70
    32
  0
VERTEX
  8
0
  5
20F
 10
161.450
 20
88.8175
 30
0.000000
  70
    32
  0
VERTEX
  8
0
  5
210
 10
161.450
 20
88.8061
 30
0.000000
  70
    32
  0
VERTEX
  8
0
  5
211
 10
161.451
 20
88.7947
 30
0.000000
  70
    32
  0
VERTEX
  8
0
  5
212
 10
161.451
 20
88.7834
 30
0.000000
  70
    32
  0
VERTEX
  8
0
  5
213
 10
161.451
 20
88.7720
 30
0.000000
  70
    32
  0
VERTEX
  8
0
  5
214
 10
161.452
 20
88.7607
 30
0.000000
  70
    32
  0
VERTEX
  8
0
  5
215
 10
161.452
 20
88.7494
 30
0.000000
  70
    32
  0
VERTEX
  8
0
  5
216
 10
161.453
 20
88.7381
 30
0.000000
  70
    32
  0
VERTEX
  8
0
  5
217
 10
161.453
 20
88.7269
 30
0.000000
  70
    32
  0
VERTEX
  8
0
  5
218
 10
161.454
 20
88.7157
 30
0.000000
  70
    32
  0
VERTEX
  8
0
  5
219
 10
161.455
 20
88.7045
 30
0.000000
  70
    32
  0
VERTEX
  8
0
  5
21A
 10
161.455
 20
88.6933
 30
0.000000
  70
    32
  0
VERTEX
  8
0
  5
21B
 10
161.456
 20
88.6823
 30
0.000000
  70
    32
  0
VERTEX
  8
0
  5
21C
 10
161.457
 20
88.6712
 30
0.000000
  70
    32
  0
VERTEX
  8
0
  5
21D
 10
161.458
 20
88.6602
 30
0.000000
  70
    32
  0
VERTEX
  8
0
  5
21E
 10
161.459
 20
88.6492
 30
0.000000
  70
    32
  0
VERTEX
  8
0
  5
21F
 10
161.459
 20
88.6383
 30
0.000000
  70
    32
  0
VERTEX
  8
0
  5
220
 10
161.460
 20
88.6274
 30
0.000000
  70
    32
  0
VERTEX
  8
0
  5
221
 10
161.461
 20
88.6166
 30
0.000000
  70
    32
  0
VERTEX
  8
0
  5
222
 10
161.462
 20
88.6059
 30
0.000000
  70
    32
  0
VERTEX
  8
0
  5
223
 10
161.463
 20
88.5952
 30
0.000000
  70
    32
  0
VERTEX
  8
0
  5
224
 10
161.465
 20
88.5845
 30
0.000000
  70
    32
  0
VERTEX
  8
0
  5
225
 10
161.466
 20
88.5739
 30
0.000000
  70
    32
  0
VERTEX
  8
0
  5
226
 10
161.467
 20
88.5634
 30
0.000000
  70
    32
  0
VERTEX
  8
0
  5
227
 10
161.468
 20
88.5530
 30
0.000000
  70
    32
  0
VERTEX
  8
0
  5
228
 10
161.469
 20
88.5426
 30
0.000000
  70
    32
  0
VERTEX
  8
0
  5
229
 10
161.471
 20
88.5323
 30
0.000000
  70
    32
  0
VERTEX
  8
0
  5
22A
 10
161.472
 20
88.5220
 30
0.000000
  70
    32
  0
VERTEX
  8
0
  5
22B
 10
161.473
 20
88.5118
 30
0.000000
  70
    32
  0
VERTEX
  8
0
  5
22C
 10
161.475
 20
88.5018
 30
0.000000
  70
    32
  0
VERTEX
  8
0
  5
22D
 10
161.476
 20
88.4917
 30
0.000000
  70
    32
  0
VERTEX
  8
0
  5
22E
 10
161.478
 20
88.4818
 30
0.000000
  70
    32
  0
VERTEX
  8
0
  5
22F
 10
161.479
 20
88.4720
 30
0.000000
  70
    32
  0
VERTEX
  8
0
  5
230
 10
161.481
 20
88.4622
 30
0.000000
  70
    32
  0
VERTEX
  8
0
  5
231
 10
161.482
 20
88.4525
 30
0.000000
  70
    32
  0
VERTEX
  8
0
  5
232
 10
161.484
 20
88.4429
 30
0.000000
  70
    32
  0
VERTEX
  8
0
  5
233
 10
161.486
 20
88.4334
 30
0.000000
  70
    32
  0
VERTEX
  8
0
  5
234
 10
161.487
 20
88.4240
 30
0.000000
  70
    32
  0
VERTEX
  8
0
  5
235
 10
161.489
 20
88.4147
 30
0.000000
  70
    32
  0
VERTEX
  8
0
  5
236
 10
161.491
 20
88.4055
 30
0.000000
  70
    32
  0
VERTEX
  8
0
  5
237
 10
161.493
 20
88.3964
 30
0.000000
  70
    32
  0
VERTEX
  8
0
  5
238
 10
161.494
 20
88.3873
 30
0.000000
  70
    32
  0
VERTEX
  8
0
  5
239
 10
161.496
 20
88.3784
 30
0.000000
  70
    32
  0
VERTEX
  8
0
  5
23A
 10
161.498
 20
88.3696
 30
0.000000
  70
    32
  0
VERTEX
  8
0
  5
23B
 10
161.500
 20
88.3609
 30
0.000000
  70
    32
  0
VERTEX
  8
0
  5
23C
 10
161.502
 20
88.3523
 30
0.000000
  70
    32
  0
VERTEX
  8
0
  5
23D
 10
161.504
 20
88.3438
 30
0.000000
  70
    32
  0
VERTEX
  8
0
  5
23E
 10
161.506
 20
88.3354
 30
0.000000
  70
    32
  0
VERTEX
  8
0
  5
23F
 10
161.508
 20
88.3271
 30
0.000000
  70
    32
  0
VERTEX
  8
0
  5
240
 10
161.510
 20
88.3190
 30
0.000000
  70
    32
  0
VERTEX
  8
0
  5
241
 10
161.512
 20
88.3109
 30
0.000000
  70
    32
  0
VERTEX
  8
0
  5
242
 10
161.515
 20
88.3030
 30
0.000000
  70
    32
  0
VERTEX
  8
0
  5
243
 10
161.517
 20
88.2952
 30
0.000000
  70
    32
  0
VERTEX
  8
0
  5
244
 10
161.519
 20
88.2875
 30
0.000000
  70
    32
  0
VERTEX
  8
0
  5
245
 10
161.521
 20
88.2799
 30
0.000000
  70
    32
  0
VERTEX
  8
0
  5
246
 10
161.523
 20
88.2725
 30
0.000000
  70
    32
  0
VERTEX
  8
0
  5
247
 10
161.526
 20
88.2652
 30
0.000000
  70
    32
  0
VERTEX
  8
0
  5
248
 10
161.528
 20
88.2580
 30
0.000000
  70
    32
  0
VERTEX
  8
0
  5
249
 10
161.530
 20
88.2509
 30
0.000000
  70
    32
  0
SEQEND
  8
0
  5
24A
  0
CIRCLE
  5
9E
  8
0
 10
45.226146141006772
 20
88.886147827119487
 30
0.0
 40
6.0
  0
TEXT
  5
132
  8
0
 62
     3
 10
0.0
 20
0.0
 30
0.0
 40
10.0
  1
STG47N12-SOFT
  7
STANDARD1
  0
ENDSEC
  0
EOF
