  0
SECTION
  2
HEADER
  9
$ACADVER
  1
AC1009
  9
$INSBASE
 10
51.94118334640666
 20
41.10459531236495
 30
0.0
  9
$EXTMIN
 10
0.0
 20
-2.960436562073669
 30
0.0
  9
$EXTMAX
 10
263.27461337861791
 20
99.240110968377053
 30
17.0
  9
$LIMMIN
 10
0.0
 20
0.0
  9
$LIMMAX
 10
390.0
 20
270.0
  9
$ORTHOMODE
 70
     1
  9
$REGENMODE
 70
     1
  9
$FILLMODE
 70
     1
  9
$QTEXTMODE
 70
     0
  9
$MIRRTEXT
 70
     1
  9
$DRAGMODE
 70
     2
  9
$LTSCALE
 40
5.0
  9
$OSMODE
 70
    55
  9
$ATTMODE
 70
     1
  9
$TEXTSIZE
 40
2.5
  9
$TRACEWID
 40
1.0
  9
$TEXTSTYLE
  7
STANDARD
  9
$CLAYER
  8
4
  9
$CELTYPE
  6
BYLAYER
  9
$CECOLOR
 62
   256
  9
$DIMSCALE
 40
1.1999999999999991
  9
$DIMASZ
 40
3.0
  9
$DIMEXO
 40
1.0
  9
$DIMDLI
 40
6.0
  9
$DIMRND
 40
0.0
  9
$DIMDLE
 40
0.0
  9
$DIMEXE
 40
1.0
  9
$DIMTP
 40
495.0
  9
$DIMTM
 40
0.0
  9
$DIMTXT
 40
3.2000000000000002
  9
$DIMCEN
 40
0.0
  9
$DIMTSZ
 40
0.0
  9
$DIMTOL
 70
     0
  9
$DIMLIM
 70
     0
  9
$DIMTIH
 70
     0
  9
$DIMTOH
 70
     0
  9
$DIMSE1
 70
     0
  9
$DIMSE2
 70
     0
  9
$DIMTAD
 70
     1
  9
$DIMZIN
 70
     8
  9
$DIMBLK
  1

  9
$DIMASO
 70
     0
  9
$DIMSHO
 70
     1
  9
$DIMPOST
  1

  9
$DIMAPOST
  1

  9
$DIMALT
 70
     0
  9
$DIMALTD
 70
     2
  9
$DIMALTF
 40
25.399999999999999
  9
$DIMLFAC
 40
1.0
  9
$DIMTOFL
 70
     1
  9
$DIMTVP
 40
0.0
  9
$DIMTIX
 70
     1
  9
$DIMSOXD
 70
     0
  9
$DIMSAH
 70
     0
  9
$DIMBLK1
  1

  9
$DIMBLK2
  1

  9
$DIMSTYLE
  2
ITM
  9
$DIMCLRD
 70
   256
  9
$DIMCLRE
 70
   256
  9
$DIMCLRT
 70
   256
  9
$DIMTFAC
 40
1.0
  9
$DIMGAP
 40
1.0
  9
$LUNITS
 70
     2
  9
$LUPREC
 70
     2
  9
$SKETCHINC
 40
1.0
  9
$FILLETRAD
 40
0.4
  9
$AUNITS
 70
     0
  9
$AUPREC
 70
     0
  9
$MENU
  1
.
  9
$ELEVATION
 40
0.0
  9
$PELEVATION
 40
0.0
  9
$THICKNESS
 40
0.0
  9
$LIMCHECK
 70
     0
  9
$BLIPMODE
 70
     0
  9
$CHAMFERA
 40
1.1999999999999991
  9
$CHAMFERB
 40
1.1999999999999991
  9
$SKPOLY
 70
     0
  9
$TDCREATE
 40
2453354.0921258219
  9
$TDUPDATE
 40
2456598.5624694559
  9
$TDINDWG
 40
513.37114502309998
  9
$TDUSRTIMER
 40
513.37086704859996
  9
$USRTIMER
 70
     1
  9
$ANGBASE
 50
0.0
  9
$ANGDIR
 70
     0
  9
$PDMODE
 70
     0
  9
$PDSIZE
 40
0.0
  9
$PLINEWID
 40
0.0
  9
$COORDS
 70
     1
  9
$SPLFRAME
 70
     0
  9
$SPLINETYPE
 70
     6
  9
$SPLINESEGS
 70
     8
  9
$ATTDIA
 70
     0
  9
$ATTREQ
 70
     1
  9
$HANDLING
 70
     1
  9
$HANDSEED
  5
252
  9
$SURFTAB1
 70
     6
  9
$SURFTAB2
 70
     6
  9
$SURFTYPE
 70
     6
  9
$SURFU
 70
     6
  9
$SURFV
 70
     6
  9
$UCSNAME
  2

  9
$UCSORG
 10
0.0
 20
0.0
 30
0.0
  9
$UCSXDIR
 10
1.0
 20
0.0
 30
0.0
  9
$UCSYDIR
 10
0.0
 20
1.0
 30
0.0
  9
$PUCSNAME
  2

  9
$PUCSORG
 10
0.0
 20
0.0
 30
0.0
  9
$PUCSXDIR
 10
1.0
 20
0.0
 30
0.0
  9
$PUCSYDIR
 10
0.0
 20
1.0
 30
0.0
  9
$USERI1
 70
     4
  9
$USERI2
 70
     1
  9
$USERI3
 70
     1
  9
$USERI4
 70
     0
  9
$USERI5
 70
     0
  9
$USERR1
 40
1.0
  9
$USERR2
 40
3.0
  9
$USERR3
 40
3.2000000000000002
  9
$USERR4
 40
3.0
  9
$USERR5
 40
10.0
  9
$WORLDVIEW
 70
     1
  9
$SHADEDGE
 70
     3
  9
$SHADEDIF
 70
    70
  9
$TILEMODE
 70
     1
  9
$MAXACTVP
 70
    16
  9
$PLIMCHECK
 70
     0
  9
$PEXTMIN
 10
0.0
 20
0.0
 30
0.0
  9
$PEXTMAX
 10
0.0
 20
0.0
 30
0.0
  9
$PLIMMIN
 10
0.0
 20
0.0
  9
$PLIMMAX
 10
12.0
 20
9.0
  9
$UNITMODE
 70
     0
  9
$VISRETAIN
 70
     0
  9
$PLINEGEN
 70
     0
  9
$PSLTSCALE
 70
     1
  0
ENDSEC
  0
SECTION
  2
TABLES
  0
TABLE
  2
VPORT
 70
     1
  0
VPORT
  2
*ACTIVE
 70
     0
 10
0.0
 20
0.0
 11
1.0
 21
1.0
 12
194.9940495262785
 22
197.0509055860143
 13
0.0
 23
0.0
 14
5.0
 24
5.0
 15
10.0
 25
10.0
 16
0.0
 26
0.0
 36
1.0
 17
0.0
 27
0.0
 37
0.0
 40
403.57315882993248
 41
1.7807262569832401
 42
50.0
 43
0.0
 44
0.0
 50
0.0
 51
0.0
 71
    16
 72
   500
 73
     1
 74
     1
 75
     0
 76
     0
 77
     0
 78
     1
  0
ENDTAB
  0
TABLE
  2
LTYPE
 70
     4
  0
LTYPE
  2
CONTINUOUS
 70
     0
  3
Solid line
 72
    65
 73
     0
 40
0.0
  0
LTYPE
  2
CENTER
 70
     0
  3
____ _ ____ _ ____ _ ____ _ ____ _ ____ _ ____
 72
    65
 73
     4
 40
2.0
 49
1.25
 49
-0.25
 49
0.25
 49
-0.25
  0
LTYPE
  2
HIDDEN
 70
     0
  3
_ _ _ _ _ _ _ _ _ _ _ _ _ _ _ _ _ _ _ _ _ _ _
 72
    65
 73
     2
 40
0.375
 49
0.25
 49
-0.125
  0
LTYPE
  2
PHANTOM2
 70
     0
  3
___ _ _ ___ _ _ ___ _ _ ___ _ _
 72
    65
 73
     6
 40
1.25
 49
0.625
 49
-0.125
 49
0.125
 49
-0.125
 49
0.125
 49
-0.125
  0
ENDTAB
  0
TABLE
  2
LAYER
 70
     5
  0
LAYER
  2
0
 70
     0
 62
     7
  6
CONTINUOUS
  0
LAYER
  2
1
 70
     0
 62
     1
  6
CENTER
  0
LAYER
  2
WAKU
 70
     0
 62
     5
  6
CONTINUOUS
  0
LAYER
  2
4
 70
     0
 62
     4
  6
CONTINUOUS
  0
LAYER
  2
2
 70
     0
 62
     2
  6
HIDDEN
  0
ENDTAB
  0
TABLE
  2
STYLE
 70
     3
  0
STYLE
  2
STANDARD
 70
     0
 40
0.0
 41
1.0
 50
0.0
 71
     0
 42
2.5
  3
ROMANS
  4
EXTFONT
  0
STYLE
  2
K
 70
     0
 40
0.0
 41
0.75
 50
0.0
 71
     0
 42
3.2000000000000002
  3
ROMANS.shx
  4
EXTFONT.shx
  0
STYLE
  2
STANDARD1
 70
     0
 40
0.0
 41
1.0
 50
0.0
 71
     0
 42
3.0
  3
txt
  4

  0
ENDTAB
  0
TABLE
  2
VIEW
 70
     0
  0
ENDTAB
  0
TABLE
  2
UCS
 70
     0
  0
ENDTAB
  0
TABLE
  2
APPID
 70
     3
  0
APPID
  2
ACAD
 70
     0
  0
APPID
  2
ACAD_MLEADERVER
 70
     0
  0
APPID
  2
ACAD_NAV_VCDISPLAY
 70
     0
  0
ENDTAB
  0
TABLE
  2
DIMSTYLE
 70
     2
  0
DIMSTYLE
  2
ITM
 70
     0
  3

  4

  5

  6

  7

 40
0.0
 41
2.5
 42
1.0
 43
6.0
 44
1.0
 45
0.0
 46
0.0
 47
495.0
 48
0.0
140
3.0
141
0.0
142
0.0
143
25.399999999999999
144
1.0
145
0.0
146
1.0
147
1.0
 71
     0
 72
     0
 73
     0
 74
     0
 75
     0
 76
     0
 77
     3
 78
     8
170
     0
171
     2
172
     1
173
     0
174
     0
175
     0
176
     0
177
     0
178
     0
  0
DIMSTYLE
  2
STANDARD
 70
     0
  3

  4

  5

  6

  7

 40
1.0
 41
0.18
 42
0.0625
 43
0.38
 44
0.18
 45
0.0
 46
0.0
 47
0.0
 48
0.0
140
0.18
141
0.09
142
0.0
143
25.399999999999999
144
1.0
145
0.0
146
1.0
147
0.09
 71
     0
 72
     0
 73
     1
 74
     1
 75
     0
 76
     0
 77
     0
 78
     0
170
     0
171
     2
172
     0
173
     0
174
     0
175
     0
176
     0
177
     0
178
     0
  0
ENDTAB
  0
ENDSEC
  0
SECTION
  2
BLOCKS
  0
BLOCK
  8
0
  2
$MODEL_SPACE
 70
     0
 10
0.0
 20
0.0
 30
0.0
  3
$MODEL_SPACE
  1

  0
ENDBLK
  5
12
  8
0
  0
BLOCK
 67
     1
  8
0
  2
$PAPER_SPACE
 70
     0
 10
0.0
 20
0.0
 30
0.0
  3
$PAPER_SPACE
  1

  0
ENDBLK
  5
19
 67
     1
  8
0
  0
BLOCK
  8
0
  2
ARROW1
 70
     0
 10
0.0
 20
0.0
 30
0.0
  3
ARROW1
  1

  0
SOLID
  5
4B
  8
WAKU
  6
CONTINUOUS
 62
     4
 10
-1.0
 20
0.1666666666666714
 30
0.0
 11
-1.0
 21
-0.1666666666666714
 31
0.0
 12
0.0
 22
0.0
 32
0.0
 13
0.0
 23
0.0
 33
0.0
  0
ENDBLK
  5
4D
  8
0
  0
ENDSEC
  0
SECTION
  2
ENTITIES
  0
CIRCLE
  5
74
  8
0
 10
51.94118334640666
 20
70.172353140371001
 30
0.0
 40
22.500001208459889
  0
CIRCLE
  5
75
  8
0
 10
51.94118334640666
 20
70.172353140371001
 30
0.0
 40
11.5
  0
CIRCLE
  5
76
  8
0
 10
51.94118334640666
 20
70.172353140371001
 30
0.0
 40
9.5000000000000018
  0
LINE
  5
77
  8
1
 10
22.873425518400609
 20
70.172353140371001
 30
0.0
 11
81.008941174412712
 21
70.172353140371001
 31
0.0
  0
LINE
  5
7A
  8
1
 10
51.94118334640666
 20
41.10459531236495
 30
0.0
 11
51.94118334640666
 21
99.240110968377053
 31
0.0
  0
LINE
  5
7B
  8
1
 10
99.57636959124693
 20
70.172353140370944
 30
0.0
 11
181.43931503489051
 21
70.172353140371001
 31
0.0
  0
LINE
  5
7C
  8
0
 10
108.153387674706
 20
60.672353140371001
 30
0.0
 11
108.153387674706
 21
79.672353140371001
 31
0.0
  0
LINE
  5
7D
  8
0
 10
109.8818198521887
 20
58.672353140371001
 30
0.0
 11
109.8818198521887
 21
81.672353140371001
 31
0.0
  0
LINE
  5
7E
  8
0
 10
137.11123257343641
 20
55.419485911939887
 30
0.0
 11
137.11123257343641
 21
84.925220368802115
 31
0.0
  0
LINE
  5
7F
  8
0
 10
144.63388749822499
 20
52.465092795521173
 30
0.0
 11
144.63388749822499
 21
87.87961348522083
 31
0.0
  0
LINE
  5
80
  8
0
 10
165.31128538802321
 20
48.392632604639289
 30
0.0
 11
165.31128538802321
 21
91.952073676102714
 31
0.0
  0
LINE
  5
81
  8
0
 10
171.1593359509167
 20
54.195740898559507
 30
0.0
 11
171.1593359509167
 21
86.148965382182496
 31
0.0
  0
LINE
  5
82
  8
0
 10
109.8818198521887
 20
81.672353140371001
 30
0.0
 11
108.153387674706
 21
79.672353140371001
 31
0.0
  0
LINE
  5
83
  8
0
 10
108.153387674706
 20
60.672353140371001
 30
0.0
 11
109.8818198521887
 21
58.672353140371001
 31
0.0
  0
LINE
  5
84
  8
0
 10
137.11123257343641
 20
84.925220368802115
 30
0.0
 11
109.8818198521887
 21
81.672353140371001
 31
0.0
  0
LINE
  5
85
  8
0
 10
109.8818198521887
 20
58.672353140371001
 30
0.0
 11
137.11123257343641
 21
55.419485911939887
 31
0.0
  0
ARC
  5
86
  8
0
 10
135.21334261112381
 20
39.532446738734507
 30
0.0
 40
16.000000000000242
 50
53.92923151304506
 51
83.187642775595037
  0
ARC
  5
87
  8
0
 10
135.21334261112381
 20
100.8122595420075
 30
0.0
 40
16.00000000000022
 50
276.81235722440499
 51
306.07076848695488
  0
ARC
  5
88
  8
0
 10
159.35349572517831
 20
72.672371561619229
 30
0.0
 40
25.000019629708149
 50
233.92924488707919
 51
283.78689919626601
  0
ARC
  5
89
  8
0
 10
159.35349572517831
 20
67.672334719122773
 30
0.0
 40
25.000019629708142
 50
76.213100803733965
 51
126.07075511292081
  0
ARC
  5
8A
  8
0
 10
163.40477425550691
 20
56.16213333538969
 30
0.0
 40
7.9999953939699022
 50
283.78705431795117
 51
345.77093135633697
  0
ARC
  5
8B
  8
0
 10
163.40477425550691
 20
84.182572945352263
 30
0.0
 40
7.9999953939699253
 50
14.229068643663
 51
76.212945682048769
  0
ARC
  5
8C
  8
0
 10
108.152559941994
 20
70.172404596021408
 30
0.0
 40
65.000827732732319
 50
345.77137467530008
 51
0.0000546534465977
  0
ARC
  5
8D
  8
0
 10
108.1525599419938
 20
70.172301684720523
 30
0.0
 40
65.000827732732503
 50
0.0000453545916955
 51
14.228625324696729
  0
POINT
  5
8E
  8
1
 10
234.20685555061189
 20
70.172353140371001
 30
17.0
  0
LINE
  5
8F
  8
1
 10
234.20685555061189
 20
41.10459531236495
 30
0.0
 11
234.20685555061189
 21
99.240110968377053
 31
0.0
  0
LINE
  5
90
  8
1
 10
205.13909772260581
 20
70.172353140371001
 30
0.0
 11
263.27461337861791
 21
70.172353140371001
 31
0.0
  0
CIRCLE
  5
91
  8
0
 10
234.20685555061189
 20
70.172353140371001
 30
0.0
 40
15.97661224181148
  0
CIRCLE
  5
92
  8
0
 10
234.20685555061189
 20
70.172353140371001
 30
0.0
 40
22.500001208459889
  0
POLYLINE
  5
93
  8
0
 10
173.15027537932099
 20
70.808378620798862
 30
0.0
 66
     1
 70
     8
  0
VERTEX
  8
0
  5
1D0
 10
173.150
 20
70.8084
 30
0.000000
  70
    32
  0
VERTEX
  8
0
  5
1D1
 10
173.148
 20
70.8013
 30
0.000000
  70
    32
  0
VERTEX
  8
0
  5
1D2
 10
173.146
 20
70.7941
 30
0.000000
  70
    32
  0
VERTEX
  8
0
  5
1D3
 10
173.143
 20
70.7868
 30
0.000000
  70
    32
  0
VERTEX
  8
0
  5
1D4
 10
173.141
 20
70.7794
 30
0.000000
  70
    32
  0
VERTEX
  8
0
  5
1D5
 10
173.139
 20
70.7718
 30
0.000000
  70
    32
  0
VERTEX
  8
0
  5
1D6
 10
173.137
 20
70.7641
 30
0.000000
  70
    32
  0
VERTEX
  8
0
  5
1D7
 10
173.134
 20
70.7563
 30
0.000000
  70
    32
  0
VERTEX
  8
0
  5
1D8
 10
173.132
 20
70.7484
 30
0.000000
  70
    32
  0
VERTEX
  8
0
  5
1D9
 10
173.130
 20
70.7403
 30
0.000000
  70
    32
  0
VERTEX
  8
0
  5
1DA
 10
173.128
 20
70.7322
 30
0.000000
  70
    32
  0
VERTEX
  8
0
  5
1DB
 10
173.126
 20
70.7239
 30
0.000000
  70
    32
  0
VERTEX
  8
0
  5
1DC
 10
173.124
 20
70.7155
 30
0.000000
  70
    32
  0
VERTEX
  8
0
  5
1DD
 10
173.122
 20
70.7070
 30
0.000000
  70
    32
  0
VERTEX
  8
0
  5
1DE
 10
173.120
 20
70.6984
 30
0.000000
  70
    32
  0
VERTEX
  8
0
  5
1DF
 10
173.118
 20
70.6897
 30
0.000000
  70
    32
  0
VERTEX
  8
0
  5
1E0
 10
173.116
 20
70.6809
 30
0.000000
  70
    32
  0
VERTEX
  8
0
  5
1E1
 10
173.114
 20
70.6720
 30
0.000000
  70
    32
  0
VERTEX
  8
0
  5
1E2
 10
173.113
 20
70.6630
 30
0.000000
  70
    32
  0
VERTEX
  8
0
  5
1E3
 10
173.111
 20
70.6538
 30
0.000000
  70
    32
  0
VERTEX
  8
0
  5
1E4
 10
173.109
 20
70.6446
 30
0.000000
  70
    32
  0
VERTEX
  8
0
  5
1E5
 10
173.107
 20
70.6353
 30
0.000000
  70
    32
  0
VERTEX
  8
0
  5
1E6
 10
173.106
 20
70.6259
 30
0.000000
  70
    32
  0
VERTEX
  8
0
  5
1E7
 10
173.104
 20
70.6164
 30
0.000000
  70
    32
  0
VERTEX
  8
0
  5
1E8
 10
173.102
 20
70.6068
 30
0.000000
  70
    32
  0
VERTEX
  8
0
  5
1E9
 10
173.101
 20
70.5971
 30
0.000000
  70
    32
  0
VERTEX
  8
0
  5
1EA
 10
173.099
 20
70.5874
 30
0.000000
  70
    32
  0
VERTEX
  8
0
  5
1EB
 10
173.098
 20
70.5775
 30
0.000000
  70
    32
  0
VERTEX
  8
0
  5
1EC
 10
173.096
 20
70.5676
 30
0.000000
  70
    32
  0
VERTEX
  8
0
  5
1ED
 10
173.095
 20
70.5576
 30
0.000000
  70
    32
  0
VERTEX
  8
0
  5
1EE
 10
173.093
 20
70.5475
 30
0.000000
  70
    32
  0
VERTEX
  8
0
  5
1EF
 10
173.092
 20
70.5373
 30
0.000000
  70
    32
  0
VERTEX
  8
0
  5
1F0
 10
173.091
 20
70.5270
 30
0.000000
  70
    32
  0
VERTEX
  8
0
  5
1F1
 10
173.089
 20
70.5167
 30
0.000000
  70
    32
  0
VERTEX
  8
0
  5
1F2
 10
173.088
 20
70.5064
 30
0.000000
  70
    32
  0
VERTEX
  8
0
  5
1F3
 10
173.087
 20
70.4959
 30
0.000000
  70
    32
  0
VERTEX
  8
0
  5
1F4
 10
173.086
 20
70.4854
 30
0.000000
  70
    32
  0
VERTEX
  8
0
  5
1F5
 10
173.084
 20
70.4748
 30
0.000000
  70
    32
  0
VERTEX
  8
0
  5
1F6
 10
173.083
 20
70.4642
 30
0.000000
  70
    32
  0
VERTEX
  8
0
  5
1F7
 10
173.082
 20
70.4535
 30
0.000000
  70
    32
  0
VERTEX
  8
0
  5
1F8
 10
173.081
 20
70.4427
 30
0.000000
  70
    32
  0
VERTEX
  8
0
  5
1F9
 10
173.080
 20
70.4319
 30
0.000000
  70
    32
  0
VERTEX
  8
0
  5
1FA
 10
173.079
 20
70.4210
 30
0.000000
  70
    32
  0
VERTEX
  8
0
  5
1FB
 10
173.078
 20
70.4101
 30
0.000000
  70
    32
  0
VERTEX
  8
0
  5
1FC
 10
173.078
 20
70.3991
 30
0.000000
  70
    32
  0
VERTEX
  8
0
  5
1FD
 10
173.077
 20
70.3881
 30
0.000000
  70
    32
  0
VERTEX
  8
0
  5
1FE
 10
173.076
 20
70.3771
 30
0.000000
  70
    32
  0
VERTEX
  8
0
  5
1FF
 10
173.075
 20
70.3660
 30
0.000000
  70
    32
  0
VERTEX
  8
0
  5
200
 10
173.075
 20
70.3548
 30
0.000000
  70
    32
  0
VERTEX
  8
0
  5
201
 10
173.074
 20
70.3436
 30
0.000000
  70
    32
  0
VERTEX
  8
0
  5
202
 10
173.073
 20
70.3324
 30
0.000000
  70
    32
  0
VERTEX
  8
0
  5
203
 10
173.073
 20
70.3212
 30
0.000000
  70
    32
  0
VERTEX
  8
0
  5
204
 10
173.072
 20
70.3099
 30
0.000000
  70
    32
  0
VERTEX
  8
0
  5
205
 10
173.072
 20
70.2986
 30
0.000000
  70
    32
  0
VERTEX
  8
0
  5
206
 10
173.071
 20
70.2873
 30
0.000000
  70
    32
  0
VERTEX
  8
0
  5
207
 10
173.071
 20
70.2760
 30
0.000000
  70
    32
  0
VERTEX
  8
0
  5
208
 10
173.071
 20
70.2646
 30
0.000000
  70
    32
  0
VERTEX
  8
0
  5
209
 10
173.070
 20
70.2532
 30
0.000000
  70
    32
  0
VERTEX
  8
0
  5
20A
 10
173.070
 20
70.2418
 30
0.000000
  70
    32
  0
VERTEX
  8
0
  5
20B
 10
173.070
 20
70.2304
 30
0.000000
  70
    32
  0
VERTEX
  8
0
  5
20C
 10
173.070
 20
70.2190
 30
0.000000
  70
    32
  0
VERTEX
  8
0
  5
20D
 10
173.069
 20
70.2075
 30
0.000000
  70
    32
  0
VERTEX
  8
0
  5
20E
 10
173.069
 20
70.1961
 30
0.000000
  70
    32
  0
VERTEX
  8
0
  5
20F
 10
173.069
 20
70.1846
 30
0.000000
  70
    32
  0
VERTEX
  8
0
  5
210
 10
173.069
 20
70.1732
 30
0.000000
  70
    32
  0
VERTEX
  8
0
  5
211
 10
173.069
 20
70.1617
 30
0.000000
  70
    32
  0
VERTEX
  8
0
  5
212
 10
173.069
 20
70.1503
 30
0.000000
  70
    32
  0
VERTEX
  8
0
  5
213
 10
173.069
 20
70.1388
 30
0.000000
  70
    32
  0
VERTEX
  8
0
  5
214
 10
173.070
 20
70.1274
 30
0.000000
  70
    32
  0
VERTEX
  8
0
  5
215
 10
173.070
 20
70.1159
 30
0.000000
  70
    32
  0
VERTEX
  8
0
  5
216
 10
173.070
 20
70.1045
 30
0.000000
  70
    32
  0
VERTEX
  8
0
  5
217
 10
173.070
 20
70.0931
 30
0.000000
  70
    32
  0
VERTEX
  8
0
  5
218
 10
173.071
 20
70.0817
 30
0.000000
  70
    32
  0
VERTEX
  8
0
  5
219
 10
173.071
 20
70.0704
 30
0.000000
  70
    32
  0
VERTEX
  8
0
  5
21A
 10
173.071
 20
70.0590
 30
0.000000
  70
    32
  0
VERTEX
  8
0
  5
21B
 10
173.072
 20
70.0477
 30
0.000000
  70
    32
  0
VERTEX
  8
0
  5
21C
 10
173.072
 20
70.0364
 30
0.000000
  70
    32
  0
VERTEX
  8
0
  5
21D
 10
173.073
 20
70.0251
 30
0.000000
  70
    32
  0
VERTEX
  8
0
  5
21E
 10
173.073
 20
70.0139
 30
0.000000
  70
    32
  0
VERTEX
  8
0
  5
21F
 10
173.074
 20
70.0027
 30
0.000000
  70
    32
  0
VERTEX
  8
0
  5
220
 10
173.075
 20
69.9915
 30
0.000000
  70
    32
  0
VERTEX
  8
0
  5
221
 10
173.075
 20
69.9804
 30
0.000000
  70
    32
  0
VERTEX
  8
0
  5
222
 10
173.076
 20
69.9693
 30
0.000000
  70
    32
  0
VERTEX
  8
0
  5
223
 10
173.077
 20
69.9582
 30
0.000000
  70
    32
  0
VERTEX
  8
0
  5
224
 10
173.078
 20
69.9472
 30
0.000000
  70
    32
  0
VERTEX
  8
0
  5
225
 10
173.078
 20
69.9362
 30
0.000000
  70
    32
  0
VERTEX
  8
0
  5
226
 10
173.079
 20
69.9253
 30
0.000000
  70
    32
  0
VERTEX
  8
0
  5
227
 10
173.080
 20
69.9144
 30
0.000000
  70
    32
  0
VERTEX
  8
0
  5
228
 10
173.081
 20
69.9036
 30
0.000000
  70
    32
  0
VERTEX
  8
0
  5
229
 10
173.082
 20
69.8929
 30
0.000000
  70
    32
  0
VERTEX
  8
0
  5
22A
 10
173.083
 20
69.8822
 30
0.000000
  70
    32
  0
VERTEX
  8
0
  5
22B
 10
173.084
 20
69.8715
 30
0.000000
  70
    32
  0
VERTEX
  8
0
  5
22C
 10
173.086
 20
69.8609
 30
0.000000
  70
    32
  0
VERTEX
  8
0
  5
22D
 10
173.087
 20
69.8504
 30
0.000000
  70
    32
  0
VERTEX
  8
0
  5
22E
 10
173.088
 20
69.8400
 30
0.000000
  70
    32
  0
VERTEX
  8
0
  5
22F
 10
173.089
 20
69.8296
 30
0.000000
  70
    32
  0
VERTEX
  8
0
  5
230
 10
173.091
 20
69.8193
 30
0.000000
  70
    32
  0
VERTEX
  8
0
  5
231
 10
173.092
 20
69.8090
 30
0.000000
  70
    32
  0
VERTEX
  8
0
  5
232
 10
173.093
 20
69.7989
 30
0.000000
  70
    32
  0
VERTEX
  8
0
  5
233
 10
173.095
 20
69.7888
 30
0.000000
  70
    32
  0
VERTEX
  8
0
  5
234
 10
173.096
 20
69.7788
 30
0.000000
  70
    32
  0
VERTEX
  8
0
  5
235
 10
173.098
 20
69.7688
 30
0.000000
  70
    32
  0
VERTEX
  8
0
  5
236
 10
173.099
 20
69.7590
 30
0.000000
  70
    32
  0
VERTEX
  8
0
  5
237
 10
173.101
 20
69.7492
 30
0.000000
  70
    32
  0
VERTEX
  8
0
  5
238
 10
173.102
 20
69.7395
 30
0.000000
  70
    32
  0
VERTEX
  8
0
  5
239
 10
173.104
 20
69.7299
 30
0.000000
  70
    32
  0
VERTEX
  8
0
  5
23A
 10
173.106
 20
69.7204
 30
0.000000
  70
    32
  0
VERTEX
  8
0
  5
23B
 10
173.107
 20
69.7110
 30
0.000000
  70
    32
  0
VERTEX
  8
0
  5
23C
 10
173.109
 20
69.7017
 30
0.000000
  70
    32
  0
VERTEX
  8
0
  5
23D
 10
173.111
 20
69.6925
 30
0.000000
  70
    32
  0
VERTEX
  8
0
  5
23E
 10
173.113
 20
69.6834
 30
0.000000
  70
    32
  0
VERTEX
  8
0
  5
23F
 10
173.114
 20
69.6743
 30
0.000000
  70
    32
  0
VERTEX
  8
0
  5
240
 10
173.116
 20
69.6654
 30
0.000000
  70
    32
  0
VERTEX
  8
0
  5
241
 10
173.118
 20
69.6566
 30
0.000000
  70
    32
  0
VERTEX
  8
0
  5
242
 10
173.120
 20
69.6479
 30
0.000000
  70
    32
  0
VERTEX
  8
0
  5
243
 10
173.122
 20
69.6393
 30
0.000000
  70
    32
  0
VERTEX
  8
0
  5
244
 10
173.124
 20
69.6308
 30
0.000000
  70
    32
  0
VERTEX
  8
0
  5
245
 10
173.126
 20
69.6224
 30
0.000000
  70
    32
  0
VERTEX
  8
0
  5
246
 10
173.128
 20
69.6141
 30
0.000000
  70
    32
  0
VERTEX
  8
0
  5
247
 10
173.130
 20
69.6060
 30
0.000000
  70
    32
  0
VERTEX
  8
0
  5
248
 10
173.132
 20
69.5979
 30
0.000000
  70
    32
  0
VERTEX
  8
0
  5
249
 10
173.134
 20
69.5900
 30
0.000000
  70
    32
  0
VERTEX
  8
0
  5
24A
 10
173.137
 20
69.5822
 30
0.000000
  70
    32
  0
VERTEX
  8
0
  5
24B
 10
173.139
 20
69.5745
 30
0.000000
  70
    32
  0
VERTEX
  8
0
  5
24C
 10
173.141
 20
69.5670
 30
0.000000
  70
    32
  0
VERTEX
  8
0
  5
24D
 10
173.143
 20
69.5595
 30
0.000000
  70
    32
  0
VERTEX
  8
0
  5
24E
 10
173.146
 20
69.5522
 30
0.000000
  70
    32
  0
VERTEX
  8
0
  5
24F
 10
173.148
 20
69.5450
 30
0.000000
  70
    32
  0
VERTEX
  8
0
  5
250
 10
173.150
 20
69.5379
 30
0.000000
  70
    32
  0
SEQEND
  8
0
  5
251
  0
CIRCLE
  5
94
  8
0
 10
234.20685555061189
 20
70.172353140371001
 30
0.0
 40
0.6352135421758192
  0
CIRCLE
  5
95
  8
0
 10
51.94118334640666
 20
70.172353140371001
 30
0.0
 40
5.0
  0
LINE
  5
96
  8
2
 10
168.15338767470601
 20
74.172353140371001
 30
0.0
 11
168.15338767470601
 21
66.172353140371001
 31
0.0
  0
LINE
  5
99
  8
2
 10
158.15338767470601
 20
75.172353140371001
 30
0.0
 11
158.15338767470601
 21
65.172353140371001
 31
0.0
  0
LINE
  5
9A
  8
2
 10
108.153387674706
 20
65.172353140371001
 30
0.0
 11
108.153387674706
 21
75.172353140371001
 31
0.0
  0
LINE
  5
9B
  8
2
 10
158.15338767470601
 20
66.172353140371001
 30
0.0
 11
168.15338767470601
 21
66.172353140371001
 31
0.0
  0
LINE
  5
9C
  8
2
 10
168.15338767470601
 20
74.172353140371001
 30
0.0
 11
158.15338767470601
 21
74.172353140371001
 31
0.0
  0
LINE
  5
9D
  8
2
 10
108.153387674706
 20
65.172353140371001
 30
0.0
 11
158.15338767470601
 21
65.172353140371001
 31
0.0
  0
LINE
  5
9E
  8
2
 10
158.15338767470601
 20
75.172353140371001
 30
0.0
 11
108.153387674706
 21
75.172353140371001
 31
0.0
  0
LINE
  5
9F
  8
2
 10
171.6277919649302
 20
84.172466599180296
 30
0.0
 11
169.6277919649302
 21
84.172466599180296
 31
0.0
  0
LINE
  5
A0
  8
2
 10
169.6277919649302
 20
56.172466599180296
 30
0.0
 11
169.6277919649302
 21
84.172466599180296
 31
0.0
  0
LINE
  5
A1
  8
2
 10
171.6277919649302
 20
84.172466599180296
 30
0.0
 11
169.6277919649302
 21
84.172466599180296
 31
0.0
  0
LINE
  5
A2
  8
2
 10
169.6277919649302
 20
56.172466599180296
 30
0.0
 11
171.6277919649302
 21
56.172466599180296
 31
0.0
  0
LINE
  5
A3
  8
2
 10
169.6277919649302
 20
56.172466599180296
 30
0.0
 11
171.6277919649302
 21
56.172466599180296
 31
0.0
  0
LINE
  5
A4
  8
0
 10
171.6277919649302
 20
56.172466599180296
 30
0.0
 11
171.6277919649302
 21
84.172466599180296
 31
0.0
  0
CIRCLE
  5
A5
  8
0
 10
234.20685555061189
 20
70.172353140371001
 30
0.0
 40
14.00011345880929
  0
TEXT
  5
139
  8
0
 62
     3
 10
0.0
 20
0.0
 30
0.0
 40
10.0
  1
STG65N10T-SOFT
  7
STANDARD1
  0
ENDSEC
  0
EOF
