  0
SECTION
  2
HEADER
  9
$ACADVER
  1
AC1009
  9
$INSBASE
 10
0.0
 20
0.0
 30
0.0
  9
$EXTMIN
 10
0.0
 20
-2.960436562073669
 30
0.0
  9
$EXTMAX
 10
160.0
 20
131.99999999986281
 30
0.0
  9
$LIMMIN
 10
0.0
 20
0.0
  9
$LIMMAX
 10
375.0
 20
270.0
  9
$ORTHOMODE
 70
     1
  9
$REGENMODE
 70
     1
  9
$FILLMODE
 70
     1
  9
$QTEXTMODE
 70
     0
  9
$MIRRTEXT
 70
     0
  9
$DRAGMODE
 70
     2
  9
$LTSCALE
 40
10.0
  9
$OSMODE
 70
    55
  9
$ATTMODE
 70
     1
  9
$TEXTSIZE
 40
4.000000000000048
  9
$TRACEWID
 40
0.05
  9
$TEXTSTYLE
  7
STANDARD
  9
$CLAYER
  8
0
  9
$CELTYPE
  6
BYLAYER
  9
$CECOLOR
 62
   256
  9
$DIMSCALE
 40
1.0
  9
$DIMASZ
 40
3.0
  9
$DIMEXO
 40
2.0
  9
$DIMDLI
 40
0.38
  9
$DIMRND
 40
0.0
  9
$DIMDLE
 40
0.0
  9
$DIMEXE
 40
2.0
  9
$DIMTP
 40
0.0
  9
$DIMTM
 40
0.0
  9
$DIMTXT
 40
3.2000000000000002
  9
$DIMCEN
 40
0.0
  9
$DIMTSZ
 40
0.0
  9
$DIMTOL
 70
     0
  9
$DIMLIM
 70
     0
  9
$DIMTIH
 70
     0
  9
$DIMTOH
 70
     0
  9
$DIMSE1
 70
     0
  9
$DIMSE2
 70
     0
  9
$DIMTAD
 70
     1
  9
$DIMZIN
 70
     0
  9
$DIMBLK
  1

  9
$DIMASO
 70
     0
  9
$DIMSHO
 70
     0
  9
$DIMPOST
  1

  9
$DIMAPOST
  1

  9
$DIMALT
 70
     0
  9
$DIMALTD
 70
     2
  9
$DIMALTF
 40
25.399999999999999
  9
$DIMLFAC
 40
1.0
  9
$DIMTOFL
 70
     0
  9
$DIMTVP
 40
1.6000000000000001
  9
$DIMTIX
 70
     1
  9
$DIMSOXD
 70
     0
  9
$DIMSAH
 70
     0
  9
$DIMBLK1
  1

  9
$DIMBLK2
  1

  9
$DIMSTYLE
  2
STANDARD
  9
$DIMCLRD
 70
     4
  9
$DIMCLRE
 70
     4
  9
$DIMCLRT
 70
     4
  9
$DIMTFAC
 40
1.0
  9
$DIMGAP
 40
0.09
  9
$LUNITS
 70
     2
  9
$LUPREC
 70
     1
  9
$SKETCHINC
 40
0.1
  9
$FILLETRAD
 40
22.0
  9
$AUNITS
 70
     0
  9
$AUPREC
 70
     0
  9
$MENU
  1
E:\r13\win\SUPPORT\ACAD
  9
$ELEVATION
 40
0.0
  9
$PELEVATION
 40
0.0
  9
$THICKNESS
 40
0.0
  9
$LIMCHECK
 70
     0
  9
$BLIPMODE
 70
     0
  9
$CHAMFERA
 40
1.1999999999999991
  9
$CHAMFERB
 40
1.1999999999999991
  9
$SKPOLY
 70
     0
  9
$TDCREATE
 40
2449954.6020138888
  9
$TDUPDATE
 40
2456598.5628616209
  9
$TDINDWG
 40
0.4495937847
  9
$TDUSRTIMER
 40
0.4495937847
  9
$USRTIMER
 70
     1
  9
$ANGBASE
 50
0.0
  9
$ANGDIR
 70
     0
  9
$PDMODE
 70
     0
  9
$PDSIZE
 40
0.0
  9
$PLINEWID
 40
0.0
  9
$COORDS
 70
     1
  9
$SPLFRAME
 70
     0
  9
$SPLINETYPE
 70
     6
  9
$SPLINESEGS
 70
     8
  9
$ATTDIA
 70
     0
  9
$ATTREQ
 70
     1
  9
$HANDLING
 70
     1
  9
$HANDSEED
  5
2598
  9
$SURFTAB1
 70
     6
  9
$SURFTAB2
 70
     6
  9
$SURFTYPE
 70
     6
  9
$SURFU
 70
     6
  9
$SURFV
 70
     6
  9
$UCSNAME
  2

  9
$UCSORG
 10
0.0
 20
0.0
 30
0.0
  9
$UCSXDIR
 10
1.0
 20
0.0
 30
0.0
  9
$UCSYDIR
 10
0.0
 20
1.0
 30
0.0
  9
$PUCSNAME
  2

  9
$PUCSORG
 10
0.0
 20
0.0
 30
0.0
  9
$PUCSXDIR
 10
1.0
 20
0.0
 30
0.0
  9
$PUCSYDIR
 10
0.0
 20
1.0
 30
0.0
  9
$USERI1
 70
     0
  9
$USERI2
 70
     1
  9
$USERI3
 70
     0
  9
$USERI4
 70
     0
  9
$USERI5
 70
     0
  9
$USERR1
 40
0.0
  9
$USERR2
 40
0.0
  9
$USERR3
 40
0.0
  9
$USERR4
 40
0.0
  9
$USERR5
 40
0.0
  9
$WORLDVIEW
 70
     1
  9
$SHADEDGE
 70
     3
  9
$SHADEDIF
 70
    70
  9
$TILEMODE
 70
     1
  9
$MAXACTVP
 70
    16
  9
$PLIMCHECK
 70
     0
  9
$PEXTMIN
 10
1.0000000000000000E+020
 20
1.0000000000000000E+020
 30
1.0000000000000000E+020
  9
$PEXTMAX
 10
-1.0000000000000000E+020
 20
-1.0000000000000000E+020
 30
-1.0000000000000000E+020
  9
$PLIMMIN
 10
0.0
 20
0.0
  9
$PLIMMAX
 10
12.0
 20
9.0
  9
$UNITMODE
 70
     0
  9
$VISRETAIN
 70
     0
  9
$PLINEGEN
 70
     0
  9
$PSLTSCALE
 70
     0
  0
ENDSEC
  0
SECTION
  2
TABLES
  0
TABLE
  2
VPORT
 70
     1
  0
VPORT
  2
*ACTIVE
 70
     0
 10
0.0
 20
0.0
 11
1.0
 21
1.0
 12
187.4942783906524
 22
197.0509055860143
 13
0.0
 23
0.0
 14
10.0
 24
10.0
 15
10.0
 25
10.0
 16
0.0
 26
0.0
 36
1.0
 17
0.0
 27
0.0
 37
0.0
 40
403.57315882993248
 41
1.7807262569832401
 42
50.0
 43
0.0
 44
0.0
 50
0.0
 51
0.0
 71
     0
 72
   500
 73
     1
 74
     0
 75
     0
 76
     0
 77
     0
 78
     2
  0
ENDTAB
  0
TABLE
  2
LTYPE
 70
     4
  0
LTYPE
  2
CONTINUOUS
 70
     0
  3
Solid Line
 72
    65
 73
     0
 40
0.0
  0
LTYPE
  2
CENTER
 70
     0
  3
____ _ ____ _ ____ _ ____ _ ____ _ ____ _ ____
 72
    65
 73
     4
 40
2.0
 49
1.25
 49
-0.25
 49
0.25
 49
-0.25
  0
LTYPE
  2
HIDDEN
 70
     0
  3
_ _ _ _ _ _ _ _ _ _ _ _ _ _ _ _ _ _ _ _ _ _ _
 72
    65
 73
     2
 40
0.375
 49
0.25
 49
-0.125
  0
LTYPE
  2
PHANTOM2
 70
     0
  3
___ _ _ ___ _ _ ___ _ _ ___ _ _
 72
    65
 73
     6
 40
1.25
 49
0.625
 49
-0.125
 49
0.125
 49
-0.125
 49
0.125
 49
-0.125
  0
ENDTAB
  0
TABLE
  2
LAYER
 70
     5
  0
LAYER
  2
0
 70
     0
 62
     7
  6
CONTINUOUS
  0
LAYER
  2
1
 70
     0
 62
     1
  6
CENTER
  0
LAYER
  2
3
 70
     0
 62
     3
  6
CONTINUOUS
  0
LAYER
  2
2
 70
     0
 62
     2
  6
HIDDEN
  0
LAYER
  2
DEFPOINTS
 70
     0
 62
     7
  6
CONTINUOUS
  0
ENDTAB
  0
TABLE
  2
STYLE
 70
     2
  0
STYLE
  2
STANDARD
 70
     0
 40
0.0
 41
1.0
 50
0.0
 71
     0
 42
4.000000000000048
  3
SIMPLEX
  4
BIGFONT
  0
STYLE
  2
STANDARD1
 70
     0
 40
0.0
 41
1.0
 50
0.0
 71
     0
 42
3.0
  3
txt
  4

  0
ENDTAB
  0
TABLE
  2
VIEW
 70
     1
  0
VIEW
  2
ALL
 70
     0
 40
270.0
 10
220.78595317725751
 20
135.0
 41
441.57190635451502
 11
0.0
 21
0.0
 31
1.0
 12
0.0
 22
0.0
 32
0.0
 42
50.0
 43
0.0
 44
0.0
 50
0.0
 71
     0
  0
ENDTAB
  0
TABLE
  2
UCS
 70
     0
  0
ENDTAB
  0
TABLE
  2
APPID
 70
     7
  0
APPID
  2
ACAD
 70
     0
  0
APPID
  2
GENIUS_GENODEF_13
 70
     0
  0
APPID
  2
GENIUS_GENOBJ-N-CEN_13
 70
     0
  0
APPID
  2
GENIUS_GENCEN_19
 70
     0
  0
APPID
  2
ACAD_EXEMPT_FROM_CAD_STANDARDS
 70
     0
  0
APPID
  2
ACAD_MLEADERVER
 70
     0
  0
APPID
  2
ACAD_NAV_VCDISPLAY
 70
     0
  0
ENDTAB
  0
TABLE
  2
DIMSTYLE
 70
     1
  0
DIMSTYLE
  2
STANDARD
 70
     0
  3

  4

  5

  6

  7

 40
1.0
 41
0.18
 42
0.0625
 43
0.38
 44
0.18
 45
0.0
 46
0.0
 47
0.0
 48
0.0
140
0.18
141
0.09
142
0.0
143
25.399999999999999
144
1.0
145
0.0
146
1.0
147
0.09
 71
     0
 72
     0
 73
     1
 74
     1
 75
     0
 76
     0
 77
     0
 78
     0
170
     0
171
     2
172
     0
173
     0
174
     0
175
     0
176
     0
177
     0
178
     0
  0
ENDTAB
  0
ENDSEC
  0
SECTION
  2
BLOCKS
  0
BLOCK
  8
0
  2
$MODEL_SPACE
 70
     0
 10
0.0
 20
0.0
 30
0.0
  3
$MODEL_SPACE
  1

  0
ENDBLK
  5
1126
  8
0
  0
BLOCK
 67
     1
  8
0
  2
$PAPER_SPACE
 70
     0
 10
0.0
 20
0.0
 30
0.0
  3
$PAPER_SPACE
  1

  0
ENDBLK
  5
1124
 67
     1
  8
0
  0
ENDSEC
  0
SECTION
  2
ENTITIES
  0
LINE
  5
1E14
  8
2
 10
153.32349999999991
 20
35.600000000000009
 30
0.0
 11
149.99999999999989
 21
37.518823619651727
 31
0.0
  0
LINE
  5
1E15
  8
2
 10
149.99999999999989
 20
37.518823619651727
 30
0.0
 11
146.6765
 21
35.600000000000009
 31
0.0
  0
LINE
  5
1E16
  8
2
 10
153.32349999999991
 20
20.676500000000001
 30
0.0
 11
153.32349999999991
 21
35.600000000000009
 31
0.0
  0
LINE
  5
1E17
  8
2
 10
146.6765
 20
35.600000000000009
 30
0.0
 11
146.6765
 21
20.676500000000001
 31
0.0
  0
LINE
  5
1E18
  8
2
 10
153.99999999999989
 20
20.000000000000011
 30
0.0
 11
153.32349999999991
 21
20.676500000000011
 31
0.0
  0
LINE
  5
1E19
  8
2
 10
146.6765
 20
20.676500000000011
 30
0.0
 11
145.99999999999989
 21
20.000000000000011
 31
0.0
  0
LINE
  5
1EC7
  8
2
 10
153.32349999999991
 20
35.600000000000009
 30
0.0
 11
146.6765
 21
35.600000000000009
 31
0.0
  0
LINE
  5
1EC8
  8
2
 10
153.32349999999991
 20
20.676500000000001
 30
0.0
 11
146.6765
 21
20.676500000000001
 31
0.0
  0
LINE
  5
1EC9
  8
2
 10
153.99999999999989
 20
20.000000000000011
 30
0.0
 11
153.99999999999989
 21
33.000000000000007
 31
0.0
  0
LINE
  5
1ECA
  8
2
 10
153.99999999999989
 20
33.000000000000007
 30
0.0
 11
145.99999999999989
 21
33.000000000000021
 31
0.0
  0
LINE
  5
1ECB
  8
2
 10
145.99999999999989
 20
20.000000000000011
 30
0.0
 11
145.99999999999989
 21
33.000000000000021
 31
0.0
  0
LINE
  5
1FC4
  8
2
 10
63.999999999999972
 20
33.000000000000007
 30
0.0
 11
55.999999999999972
 21
33.000000000000021
 31
0.0
  0
LINE
  5
1FC5
  8
2
 10
63.999999999999972
 20
20.000000000000011
 30
0.0
 11
63.999999999999972
 21
33.000000000000007
 31
0.0
  0
LINE
  5
1FC6
  8
2
 10
63.323499999999939
 20
35.600000000000009
 30
0.0
 11
56.676499999999997
 21
35.600000000000009
 31
0.0
  0
LINE
  5
1FC7
  8
2
 10
63.323499999999939
 20
20.676500000000001
 30
0.0
 11
63.323499999999939
 21
35.600000000000009
 31
0.0
  0
LINE
  5
1FC8
  8
2
 10
63.323499999999939
 20
35.600000000000009
 30
0.0
 11
59.999999999999972
 21
37.518823619651727
 31
0.0
  0
LINE
  5
1FC9
  8
2
 10
55.999999999999972
 20
20.000000000000011
 30
0.0
 11
55.999999999999972
 21
33.000000000000021
 31
0.0
  0
LINE
  5
1FCA
  8
2
 10
56.676499999999997
 20
35.600000000000009
 30
0.0
 11
56.676499999999997
 21
20.676500000000001
 31
0.0
  0
LINE
  5
1FCB
  8
2
 10
59.999999999999972
 20
37.518823619651727
 30
0.0
 11
56.676499999999997
 21
35.600000000000009
 31
0.0
  0
LINE
  5
1FCC
  8
2
 10
63.323499999999939
 20
20.676500000000001
 30
0.0
 11
56.676499999999997
 21
20.676500000000001
 31
0.0
  0
LINE
  5
1FCD
  8
2
 10
56.676499999999997
 20
20.676500000000011
 30
0.0
 11
55.999999999999972
 21
20.000000000000011
 31
0.0
  0
LINE
  5
1FCE
  8
2
 10
63.999999999999972
 20
20.000000000000011
 30
0.0
 11
63.323499999999939
 21
20.676500000000011
 31
0.0
  0
LINE
  5
228E
  8
0
 10
19.999999996961549
 20
121.4815869631289
 30
0.0
 11
19.999999996961549
 21
112.5184130365965
 31
0.0
  0
LINE
  5
228F
  8
0
 10
99.999999996961463
 20
121.48158696312881
 30
0.0
 11
99.999999996961463
 21
112.5184130365965
 31
0.0
  0
LINE
  5
2290
  8
1
 10
14.99999999696154
 20
116.99999999986269
 30
0.0
 11
104.99999999696141
 21
116.99999999986269
 31
0.0
  0
LINE
  5
2291
  8
1
 10
59.999999996961542
 20
101.9999999998626
 30
0.0
 11
59.999999996961542
 21
131.99999999986281
 31
0.0
  0
LINE
  5
2292
  8
2
 10
155.99999999999989
 20
66.5
 30
0.0
 11
155.99999999999989
 21
67.0
 31
0.0
  0
LINE
  5
2293
  8
2
 10
143.99999999999989
 20
67.0
 30
0.0
 11
143.99999999999989
 21
66.5
 31
0.0
  0
LINE
  5
2294
  8
0
 10
160.0
 20
67.000000000000171
 30
0.0
 11
139.99999999999969
 21
67.000000000000171
 31
0.0
  0
LINE
  5
2295
  8
0
 10
142.16431107048399
 20
51.829995539314112
 30
0.0
 11
157.83568892951581
 21
51.829995539314112
 31
0.0
  0
LINE
  5
2296
  8
0
 10
160.0
 20
25.5
 30
0.0
 11
160.0
 21
67.000000000000171
 31
0.0
  0
LINE
  5
2297
  8
0
 10
139.99999999999969
 20
67.000000000000171
 30
0.0
 11
139.99999999999969
 21
25.5
 31
0.0
  0
LINE
  5
229B
  8
2
 10
155.99999999999989
 20
66.5
 30
0.0
 11
143.99999999999989
 21
66.5
 31
0.0
  0
LINE
  5
229C
  8
0
 10
142.24168462626221
 20
65.260263153969461
 30
0.0
 11
157.75831537373759
 21
65.260263153969461
 31
0.0
  0
POLYLINE
  5
229D
  8
0
 66
     1
 10
0.0
 20
0.0
 30
0.0
  0
VERTEX
  5
2468
  8
0
 10
142.03975362366921
 20
65.337396569351199
 30
0.0
  0
VERTEX
  5
2469
  8
0
 10
142.0424524532315
 20
65.335264346895599
 30
0.0
  0
VERTEX
  5
246A
  8
0
 10
142.0483437176818
 20
65.330991674961524
 30
0.0
  0
VERTEX
  5
246B
  8
0
 10
142.05489588849511
 20
65.326709344184451
 30
0.0
  0
VERTEX
  5
246C
  8
0
 10
142.05842072153271
 20
65.324565049522562
 30
0.0
  0
VERTEX
  5
246D
  8
0
 10
142.06211180193321
 20
65.322418931930002
 30
0.0
  0
VERTEX
  5
246E
  8
0
 10
142.0699937484446
 20
65.318122018000281
 30
0.0
  0
VERTEX
  5
246F
  8
0
 10
142.07854348151079
 20
65.313820181322001
 30
0.0
  0
VERTEX
  5
2470
  8
0
 10
142.0877622487628
 20
65.309514987665395
 30
0.0
  0
VERTEX
  5
2471
  8
0
 10
142.09765095926491
 20
65.305207924515003
 30
0.0
  0
VERTEX
  5
2472
  8
0
 10
142.10820991939539
 20
65.30090053035417
 30
0.0
  0
VERTEX
  5
2473
  8
0
 10
142.11374068132801
 20
65.298747197473631
 30
0.0
  0
VERTEX
  5
2474
  8
0
 10
142.1194388643865
 20
65.296594368723106
 30
0.0
  0
VERTEX
  5
2475
  8
0
 10
142.13133699314761
 20
65.292291009253915
 30
0.0
  0
VERTEX
  5
2476
  8
0
 10
142.14390297313619
 20
65.287992024308664
 30
0.0
  0
VERTEX
  5
2477
  8
0
 10
142.15713494739461
 20
65.283698985652904
 30
0.0
  0
VERTEX
  5
2478
  8
0
 10
142.17103054374931
 20
65.279413461161084
 30
0.0
  0
VERTEX
  5
2479
  8
0
 10
142.1855868861806
 20
65.275137011550839
 30
0.0
  0
VERTEX
  5
247A
  8
0
 10
142.19311180393859
 20
65.273002674796203
 30
0.0
  0
VERTEX
  5
247B
  8
0
 10
142.2008006083762
 20
65.270871187144735
 30
0.0
  0
VERTEX
  5
247C
  8
0
 10
142.21666786949419
 20
65.266617524656908
 30
0.0
  0
VERTEX
  5
247D
  8
0
 10
142.23318437216369
 20
65.262377544004778
 30
0.0
  0
VERTEX
  5
247E
  8
0
 10
142.24168462626221
 20
65.260263153969447
 30
0.0
  0
SEQEND
  5
247F
  8
0
  0
POLYLINE
  5
229E
  8
0
 66
     1
 10
0.0
 20
0.0
 30
0.0
  0
VERTEX
  5
2480
  8
0
 10
142.16431107048399
 20
51.829995539314112
 30
0.0
  0
VERTEX
  5
2481
  8
0
 10
142.15053002046159
 20
51.830445755965407
 30
0.0
  0
VERTEX
  5
2482
  8
0
 10
142.12481085378931
 20
51.834121685592692
 30
0.0
  0
VERTEX
  5
2483
  8
0
 10
142.10168699908891
 20
51.841645094623502
 30
0.0
  0
VERTEX
  5
2484
  8
0
 10
142.09114153831069
 20
51.8468963625497
 30
0.0
  0
SEQEND
  5
2485
  8
0
  0
POLYLINE
  5
229F
  8
0
 66
     1
 10
0.0
 20
0.0
 30
0.0
  0
VERTEX
  5
2486
  8
0
 10
142.09114153831069
 20
51.84689636254955
 30
0.0
  0
VERTEX
  5
2487
  8
0
 10
142.08040468943679
 20
51.853196952747652
 30
0.0
  0
VERTEX
  5
2488
  8
0
 10
142.061545545195
 20
51.86576098941137
 30
0.0
  0
VERTEX
  5
2489
  8
0
 10
142.0461563704884
 20
51.878255601890601
 30
0.0
  0
VERTEX
  5
248A
  8
0
 10
142.03975362366921
 20
51.88446942692886
 30
0.0
  0
SEQEND
  5
248B
  8
0
  0
POLYLINE
  5
22A0
  8
0
 66
     1
 10
0.0
 20
0.0
 30
0.0
  0
VERTEX
  5
248C
  8
0
 10
157.96024637633059
 20
65.337396569351199
 30
0.0
  0
VERTEX
  5
248D
  8
0
 10
158.56744628157551
 20
65.831968257068866
 30
0.0
  0
VERTEX
  5
248E
  8
0
 10
159.4758425678155
 20
66.572433734319588
 30
0.0
  0
VERTEX
  5
248F
  8
0
 10
159.94129526642001
 20
66.952102160523054
 30
0.0
  0
VERTEX
  5
2490
  8
0
 10
160.0
 20
67.000000000000171
 30
0.0
  0
SEQEND
  5
2491
  8
0
  0
POLYLINE
  5
22A1
  8
0
 66
     1
 10
0.0
 20
0.0
 30
0.0
  0
VERTEX
  5
2492
  8
0
 10
159.98651124377449
 20
25.500000000000011
 30
0.0
  0
VERTEX
  5
2493
  8
0
 10
159.98552961340181
 20
25.530503367733601
 30
0.0
  0
VERTEX
  5
2494
  8
0
 10
159.98346614959021
 20
25.594335544916671
 30
0.0
  0
VERTEX
  5
2495
  8
0
 10
159.98127056893881
 20
25.661832217537182
 30
0.0
  0
VERTEX
  5
2496
  8
0
 10
159.98012384231541
 20
25.696914509235061
 30
0.0
  0
VERTEX
  5
2497
  8
0
 10
159.9789448411876
 20
25.73286382877134
 30
0.0
  0
VERTEX
  5
2498
  8
0
 10
159.97649113858131
 20
25.807294550387901
 30
0.0
  0
VERTEX
  5
2499
  8
0
 10
159.97391182611719
 20
25.884983216481839
 30
0.0
  0
VERTEX
  5
249A
  8
0
 10
159.97120945232331
 20
25.96578421148644
 30
0.0
  0
VERTEX
  5
249B
  8
0
 10
159.96838641852059
 20
26.049557827011022
 30
0.0
  0
VERTEX
  5
249C
  8
0
 10
159.96544512630811
 20
26.136166104884239
 30
0.0
  0
VERTEX
  5
249D
  8
0
 10
159.96393101557391
 20
26.180486834463501
 30
0.0
  0
VERTEX
  5
249E
  8
0
 10
159.9623884185811
 20
26.225460298997611
 30
0.0
  0
VERTEX
  5
249F
  8
0
 10
159.95921929417989
 20
26.317289889752011
 30
0.0
  0
VERTEX
  5
24A0
  8
0
 10
159.9559409051331
 20
26.411503079191739
 30
0.0
  0
VERTEX
  5
24A1
  8
0
 10
159.94365512489659
 20
26.757812968116351
 30
0.0
  0
VERTEX
  5
24A2
  8
0
 10
159.93221035332789
 20
27.071428571428569
 30
0.0
  0
SEQEND
  5
24A3
  8
0
  0
LINE
  5
22A2
  8
0
 10
159.93221035332789
 20
27.071428571428569
 30
0.0
 11
159.93221035332789
 21
42.130000000000003
 31
0.0
  0
POLYLINE
  5
22A3
  8
0
 66
     1
 10
0.0
 20
0.0
 30
0.0
  0
VERTEX
  5
24A4
  8
0
 10
159.93221035332789
 20
42.130000000000003
 30
0.0
  0
VERTEX
  5
24A5
  8
0
 10
159.9322061540141
 20
42.177658561804627
 30
0.0
  0
VERTEX
  5
24A6
  8
0
 10
159.932172664685
 20
42.272770668192003
 30
0.0
  0
VERTEX
  5
24A7
  8
0
 10
159.9321059447185
 20
42.367610695762217
 30
0.0
  0
VERTEX
  5
24A8
  8
0
 10
159.9320602026441
 20
42.414929141697677
 30
0.0
  0
VERTEX
  5
24A9
  8
0
 10
159.9320062458541
 20
42.462180114590552
 30
0.0
  0
VERTEX
  5
24AA
  8
0
 10
159.93187380130959
 20
42.556480341701658
 30
0.0
  0
VERTEX
  5
24AB
  8
0
 10
159.93170882623909
 20
42.650512760396872
 30
0.0
  0
VERTEX
  5
24AC
  8
0
 10
159.93151151812589
 20
42.744278737441341
 30
0.0
  0
VERTEX
  5
24AD
  8
0
 10
159.93128205711611
 20
42.837779637758253
 30
0.0
  0
VERTEX
  5
24AE
  8
0
 10
159.93102060630329
 20
42.9310168363602
 30
0.0
  0
VERTEX
  5
24AF
  8
0
 10
159.93087793108521
 20
42.977536982241432
 30
0.0
  0
VERTEX
  5
24B0
  8
0
 10
159.93072731197159
 20
43.023991727332529
 30
0.0
  0
VERTEX
  5
24B1
  8
0
 10
159.9304023038049
 20
43.116705729766828
 30
0.0
  0
VERTEX
  5
24B2
  8
0
 10
159.93004569507141
 20
43.209160290623402
 30
0.0
  0
VERTEX
  5
24B3
  8
0
 10
159.9296575827897
 20
43.301356884575242
 30
0.0
  0
VERTEX
  5
24B4
  8
0
 10
159.9292380478862
 20
43.393297010953148
 30
0.0
  0
VERTEX
  5
24B5
  8
0
 10
159.92878715534809
 20
43.484982187968882
 30
0.0
  0
VERTEX
  5
24B6
  8
0
 10
159.92854996595401
 20
43.530729648080687
 30
0.0
  0
VERTEX
  5
24B7
  8
0
 10
159.92830495437821
 20
43.576413944440823
 30
0.0
  0
VERTEX
  5
24B8
  8
0
 10
159.92779147855899
 20
43.667593809284448
 30
0.0
  0
VERTEX
  5
24B9
  8
0
 10
159.92724674602741
 20
43.758523299056023
 30
0.0
  0
VERTEX
  5
24BA
  8
0
 10
159.92696265998521
 20
43.803894620393692
 30
0.0
  0
VERTEX
  5
24BB
  8
0
 10
159.9266707596648
 20
43.849203903856129
 30
0.0
  0
VERTEX
  5
24BC
  8
0
 10
159.9260635073058
 20
43.939637071906759
 30
0.0
  0
VERTEX
  5
24BD
  8
0
 10
159.9254249648248
 20
44.029823799714698
 30
0.0
  0
VERTEX
  5
24BE
  8
0
 10
159.92509414411521
 20
44.074798763790007
 30
0.0
  0
VERTEX
  5
24BF
  8
0
 10
159.92475582036221
 20
44.119669854376241
 30
0.0
  0
VERTEX
  5
24C0
  8
0
 10
159.9240567669261
 20
44.209096229042849
 30
0.0
  0
VERTEX
  5
24C1
  8
0
 10
159.92332801188229
 20
44.298094575217569
 30
0.0
  0
VERTEX
  5
24C2
  8
0
 10
159.9225697643657
 20
44.386656585339047
 30
0.0
  0
VERTEX
  5
24C3
  8
0
 10
159.92178223561871
 20
44.474773995207201
 30
0.0
  0
VERTEX
  5
24C4
  8
0
 10
159.9209656393507
 20
44.562438583906207
 30
0.0
  0
VERTEX
  5
24C5
  8
0
 10
159.92054650845
 20
44.606098512629252
 30
0.0
  0
VERTEX
  5
24C6
  8
0
 10
159.92012019212601
 20
44.649642171681933
 30
0.0
  0
VERTEX
  5
24C7
  8
0
 10
159.91924611377661
 20
44.736376616200197
 30
0.0
  0
VERTEX
  5
24C8
  8
0
 10
159.91834362784419
 20
44.82263380758161
 30
0.0
  0
VERTEX
  5
24C9
  8
0
 10
159.91496454863571
 20
45.120659071685253
 30
0.0
  0
VERTEX
  5
24CA
  8
0
 10
159.90839894941519
 20
45.616732976792619
 30
0.0
  0
VERTEX
  5
24CB
  8
0
 10
159.90085745193079
 20
46.095598270307157
 30
0.0
  0
VERTEX
  5
24CC
  8
0
 10
159.89215258349239
 20
46.567332958934053
 30
0.0
  0
VERTEX
  5
24CD
  8
0
 10
159.88734029821561
 20
46.800415579138473
 30
0.0
  0
VERTEX
  5
24CE
  8
0
 10
159.88221213253209
 20
47.031342347664364
 30
0.0
  0
VERTEX
  5
24CF
  8
0
 10
159.87097992838619
 20
47.485823240833341
 30
0.0
  0
VERTEX
  5
24D0
  8
0
 10
159.85839982518641
 20
47.92894557462526
 30
0.0
  0
VERTEX
  5
24D1
  8
0
 10
159.8444174908004
 20
48.358845342440091
 30
0.0
  0
VERTEX
  5
24D2
  8
0
 10
159.82898242007849
 20
48.773632262026887
 30
0.0
  0
VERTEX
  5
24D3
  8
0
 10
159.81199797325951
 20
49.172552925333321
 30
0.0
  0
VERTEX
  5
24D4
  8
0
 10
159.80286630248381
 20
49.366291052305577
 30
0.0
  0
VERTEX
  5
24D5
  8
0
 10
159.79329281469481
 20
49.555873530698861
 30
0.0
  0
VERTEX
  5
24D6
  8
0
 10
159.7727768033208
 20
49.921474027567633
 30
0.0
  0
VERTEX
  5
24D7
  8
0
 10
159.7503637016859
 20
50.267149851412
 30
0.0
  0
VERTEX
  5
24D8
  8
0
 10
159.73841935815679
 20
50.431823567671358
 30
0.0
  0
SEQEND
  5
24D9
  8
0
  0
POLYLINE
  5
22A4
  8
0
 66
     1
 10
0.0
 20
0.0
 30
0.0
  0
VERTEX
  5
24DA
  8
0
 10
159.73841935817791
 20
50.431823568743511
 30
0.0
  0
VERTEX
  5
24DB
  8
0
 10
159.73247072191731
 20
50.56670091125514
 30
0.0
  0
VERTEX
  5
24DC
  8
0
 10
159.71994013795549
 20
50.829385358286309
 30
0.0
  0
VERTEX
  5
24DD
  8
0
 10
159.70655738289329
 20
51.081594785345921
 30
0.0
  0
VERTEX
  5
24DE
  8
0
 10
159.69954468403211
 20
51.203401515012672
 30
0.0
  0
VERTEX
  5
24DF
  8
0
 10
159.6923174277436
 20
51.322159317802367
 30
0.0
  0
VERTEX
  5
24E0
  8
0
 10
159.67721969211459
 20
51.55002429891784
 30
0.0
  0
VERTEX
  5
24E1
  8
0
 10
159.66126817895761
 20
51.764250157371229
 30
0.0
  0
VERTEX
  5
24E2
  8
0
 10
159.64447376274649
 20
51.96398649242434
 30
0.0
  0
VERTEX
  5
24E3
  8
0
 10
159.62685420325619
 20
52.148484998129092
 30
0.0
  0
VERTEX
  5
24E4
  8
0
 10
159.60843372085299
 20
52.317111340291042
 30
0.0
  0
VERTEX
  5
24E5
  8
0
 10
159.598930599238
 20
52.395320799630241
 30
0.0
  0
VERTEX
  5
24E6
  8
0
 10
159.58923571712961
 20
52.469400886116269
 30
0.0
  0
VERTEX
  5
24E7
  8
0
 10
159.56929020528409
 20
52.604972592031537
 30
0.0
  0
VERTEX
  5
24E8
  8
0
 10
159.54864164907789
 20
52.723493260907041
 30
0.0
  0
VERTEX
  5
24E9
  8
0
 10
159.52734265191879
 20
52.824745559735611
 30
0.0
  0
VERTEX
  5
24EA
  8
0
 10
159.50545303758221
 20
52.908635724154692
 30
0.0
  0
VERTEX
  5
24EB
  8
0
 10
159.48303917393909
 20
52.975195176983391
 30
0.0
  0
VERTEX
  5
24EC
  8
0
 10
159.47165862241951
 20
53.002018377119981
 30
0.0
  0
VERTEX
  5
24ED
  8
0
 10
159.46017573235909
 20
53.024575066974023
 30
0.0
  0
VERTEX
  5
24EE
  8
0
 10
159.43694629403851
 20
53.057050997261371
 30
0.0
  0
VERTEX
  5
24EF
  8
0
 10
159.41344206090781
 20
53.073031153300661
 30
0.0
  0
VERTEX
  5
24F0
  8
0
 10
159.40161708532389
 20
53.075000000000003
 30
0.0
  0
SEQEND
  5
24F1
  8
0
  0
POLYLINE
  5
22A5
  8
0
 66
     1
 10
0.0
 20
0.0
 30
0.0
  0
VERTEX
  5
24F2
  8
0
 10
159.40161708532389
 20
53.074999999999989
 30
0.0
  0
VERTEX
  5
24F3
  8
0
 10
159.2176944269211
 20
52.978626320573987
 30
0.0
  0
VERTEX
  5
24F4
  8
0
 10
158.78022726216111
 20
52.660530307995288
 30
0.0
  0
VERTEX
  5
24F5
  8
0
 10
158.2543663360434
 20
52.181526007741127
 30
0.0
  0
VERTEX
  5
24F6
  8
0
 10
157.96024637633059
 20
51.88446942692886
 30
0.0
  0
SEQEND
  5
24F7
  8
0
  0
POLYLINE
  5
22A6
  8
0
 66
     1
 10
0.0
 20
0.0
 30
0.0
  0
VERTEX
  5
24F8
  8
0
 10
140.59838291467571
 20
53.075000000000003
 30
0.0
  0
VERTEX
  5
24F9
  8
0
 10
140.5865579390844
 20
53.07303115329816
 30
0.0
  0
VERTEX
  5
24FA
  8
0
 10
140.56305370593881
 20
53.057050997238392
 30
0.0
  0
VERTEX
  5
24FB
  8
0
 10
140.5398242676039
 20
53.024575066909172
 30
0.0
  0
VERTEX
  5
24FC
  8
0
 10
140.52834137753661
 20
53.002018377025983
 30
0.0
  0
VERTEX
  5
24FD
  8
0
 10
140.51696082601021
 20
52.97519517685469
 30
0.0
  0
VERTEX
  5
24FE
  8
0
 10
140.49454696235409
 20
52.908635723939867
 30
0.0
  0
VERTEX
  5
24FF
  8
0
 10
140.4726573480055
 20
52.82474555941242
 30
0.0
  0
VERTEX
  5
2500
  8
0
 10
140.45135835083511
 20
52.723493260453552
 30
0.0
  0
VERTEX
  5
2501
  8
0
 10
140.43070979461891
 20
52.604972591426531
 30
0.0
  0
VERTEX
  5
2502
  8
0
 10
140.41076428276449
 20
52.469400885339368
 30
0.0
  0
VERTEX
  5
2503
  8
0
 10
140.40106940065201
 20
52.395320798760167
 30
0.0
  0
VERTEX
  5
2504
  8
0
 10
140.39156627903321
 20
52.317111339323162
 30
0.0
  0
VERTEX
  5
2505
  8
0
 10
140.37314579662331
 20
52.148484996951709
 30
0.0
  0
VERTEX
  5
2506
  8
0
 10
140.35552623712761
 20
51.963986491021132
 30
0.0
  0
VERTEX
  5
2507
  8
0
 10
140.33873182091219
 20
51.764250155727922
 30
0.0
  0
VERTEX
  5
2508
  8
0
 10
140.322780307752
 20
51.550024297022418
 30
0.0
  0
VERTEX
  5
2509
  8
0
 10
140.30768257212111
 20
51.322159315645287
 30
0.0
  0
VERTEX
  5
250A
  8
0
 10
140.30045531583201
 20
51.20340151272265
 30
0.0
  0
VERTEX
  5
250B
  8
0
 10
140.29344261697059
 20
51.081594782921862
 30
0.0
  0
VERTEX
  5
250C
  8
0
 10
140.28005986190871
 20
50.82938535559083
 30
0.0
  0
VERTEX
  5
250D
  8
0
 10
140.267529277948
 20
50.566700908285149
 30
0.0
  0
VERTEX
  5
250E
  8
0
 10
140.2615806416882
 20
50.431823565636371
 30
0.0
  0
SEQEND
  5
250F
  8
0
  0
POLYLINE
  5
22A7
  8
0
 66
     1
 10
0.0
 20
0.0
 30
0.0
  0
VERTEX
  5
2510
  8
0
 10
140.26158064168851
 20
50.431823565622373
 30
0.0
  0
VERTEX
  5
2511
  8
0
 10
140.24999789594631
 20
50.272322392771962
 30
0.0
  0
VERTEX
  5
2512
  8
0
 10
140.22802825563261
 20
49.934799303887857
 30
0.0
  0
VERTEX
  5
2513
  8
0
 10
140.2076284224417
 20
49.573436948865293
 30
0.0
  0
VERTEX
  5
2514
  8
0
 10
140.198033449847
 20
49.384676490493213
 30
0.0
  0
VERTEX
  5
2515
  8
0
 10
140.1888683139756
 20
49.191510344184188
 30
0.0
  0
VERTEX
  5
2516
  8
0
 10
140.17179049783101
 20
48.792996960927432
 30
0.0
  0
VERTEX
  5
2517
  8
0
 10
140.1563192739506
 20
48.37995688105336
 30
0.0
  0
VERTEX
  5
2518
  8
0
 10
140.14237738630979
 20
47.954424013531359
 30
0.0
  0
VERTEX
  5
2519
  8
0
 10
140.12988738645711
 20
47.518400225875652
 30
0.0
  0
VERTEX
  5
251A
  8
0
 10
140.11877287630301
 20
47.073857112166301
 30
0.0
  0
VERTEX
  5
251B
  8
0
 10
140.11370810596671
 20
46.849001237951761
 30
0.0
  0
VERTEX
  5
251C
  8
0
 10
140.1089594611648
 20
46.622742683386008
 30
0.0
  0
VERTEX
  5
251D
  8
0
 10
140.1002063541996
 20
46.157302791349807
 30
0.0
  0
VERTEX
  5
251E
  8
0
 10
140.09238814729
 20
45.670590325190993
 30
0.0
  0
VERTEX
  5
251F
  8
0
 10
140.08556774705741
 20
45.164525479949148
 30
0.0
  0
VERTEX
  5
2520
  8
0
 10
140.08207010053439
 20
44.861144165115128
 30
0.0
  0
VERTEX
  5
2521
  8
0
 10
140.08113745260991
 20
44.773427044226189
 30
0.0
  0
VERTEX
  5
2522
  8
0
 10
140.0802347803598
 20
44.685265544553943
 30
0.0
  0
VERTEX
  5
2523
  8
0
 10
140.07979474096311
 20
44.641020964834581
 30
0.0
  0
VERTEX
  5
2524
  8
0
 10
140.07936226200439
 20
44.596668670318763
 30
0.0
  0
VERTEX
  5
2525
  8
0
 10
140.07852007187481
 20
44.507645469094008
 30
0.0
  0
VERTEX
  5
2526
  8
0
 10
140.07770838080751
 20
44.418205034151377
 30
0.0
  0
VERTEX
  5
2527
  8
0
 10
140.07692735650971
 20
44.328356505029397
 30
0.0
  0
VERTEX
  5
2528
  8
0
 10
140.07617716389689
 20
44.238109065877183
 30
0.0
  0
VERTEX
  5
2529
  8
0
 10
140.07545826374701
 20
44.147510451485637
 30
0.0
  0
VERTEX
  5
252A
  8
0
 10
140.07511075371229
 20
44.102104666255507
 30
0.0
  0
VERTEX
  5
252B
  8
0
 10
140.0747712022756
 20
44.05662813039568
 30
0.0
  0
VERTEX
  5
252C
  8
0
 10
140.0741159678459
 20
43.965462479337127
 30
0.0
  0
VERTEX
  5
252D
  8
0
 10
140.0734925543338
 20
43.874012796760177
 30
0.0
  0
VERTEX
  5
252E
  8
0
 10
140.07319278231239
 20
43.828181207046548
 30
0.0
  0
VERTEX
  5
252F
  8
0
 10
140.07290096955859
 20
43.782278319406139
 30
0.0
  0
VERTEX
  5
2530
  8
0
 10
140.07234123558121
 20
43.690258240329122
 30
0.0
  0
VERTEX
  5
2531
  8
0
 10
140.0718133889763
 20
43.597951726039241
 30
0.0
  0
VERTEX
  5
2532
  8
0
 10
140.07156143889819
 20
43.551690791910659
 30
0.0
  0
VERTEX
  5
2533
  8
0
 10
140.0713174810802
 20
43.505357932404927
 30
0.0
  0
VERTEX
  5
2534
  8
0
 10
140.0708535782174
 20
43.412476018941838
 30
0.0
  0
VERTEX
  5
2535
  8
0
 10
140.07042176190811
 20
43.319305161115238
 30
0.0
  0
VERTEX
  5
2536
  8
0
 10
140.07002212906161
 20
43.225844560291037
 30
0.0
  0
VERTEX
  5
2537
  8
0
 10
140.06965479216089
 20
43.13209345099164
 30
0.0
  0
VERTEX
  5
2538
  8
0
 10
140.06931987944429
 20
43.038051105144802
 30
0.0
  0
VERTEX
  5
2539
  8
0
 10
140.0691646265831
 20
42.990920501532287
 30
0.0
  0
VERTEX
  5
253A
  8
0
 10
140.06901753509121
 20
42.943716833059149
 30
0.0
  0
VERTEX
  5
253B
  8
0
 10
140.0687479194209
 20
42.84908998091808
 30
0.0
  0
VERTEX
  5
253C
  8
0
 10
140.0685112091119
 20
42.754169924654327
 30
0.0
  0
VERTEX
  5
253D
  8
0
 10
140.0683075974531
 20
42.658956060149293
 30
0.0
  0
VERTEX
  5
253E
  8
0
 10
140.06813729463411
 20
42.563447789793003
 30
0.0
  0
VERTEX
  5
253F
  8
0
 10
140.06800052808839
 20
42.467644505539383
 30
0.0
  0
VERTEX
  5
2540
  8
0
 10
140.06794479680349
 20
42.419632035421031
 30
0.0
  0
VERTEX
  5
2541
  8
0
 10
140.06789754289491
 20
42.371545568695247
 30
0.0
  0
VERTEX
  5
2542
  8
0
 10
140.06782860225201
 20
42.275150286785703
 30
0.0
  0
VERTEX
  5
2543
  8
0
 10
140.06779398802971
 20
42.178457887941398
 30
0.0
  0
VERTEX
  5
2544
  8
0
 10
140.06778964667191
 20
42.130000000000003
 30
0.0
  0
SEQEND
  5
2545
  8
0
  0
LINE
  5
22A8
  8
0
 10
140.06778964667191
 20
42.130000000000003
 30
0.0
 11
140.06778964667191
 21
27.071428571428569
 31
0.0
  0
POLYLINE
  5
22A9
  8
0
 66
     1
 10
0.0
 20
0.0
 30
0.0
  0
VERTEX
  5
2546
  8
0
 10
140.06778964667191
 20
27.071428571428569
 30
0.0
  0
VERTEX
  5
2547
  8
0
 10
140.05634487510321
 20
26.757812968116351
 30
0.0
  0
VERTEX
  5
2548
  8
0
 10
140.0440590948667
 20
26.41150307919175
 30
0.0
  0
VERTEX
  5
2549
  8
0
 10
140.0407807058198
 20
26.317289889752011
 30
0.0
  0
VERTEX
  5
254A
  8
0
 10
140.03761158141859
 20
26.225460298997611
 30
0.0
  0
VERTEX
  5
254B
  8
0
 10
140.03606898442581
 20
26.180486834463512
 30
0.0
  0
VERTEX
  5
254C
  8
0
 10
140.0345548736916
 20
26.13616610488425
 30
0.0
  0
VERTEX
  5
254D
  8
0
 10
140.03161358147921
 20
26.04955782701099
 30
0.0
  0
VERTEX
  5
254E
  8
0
 10
140.02879054767649
 20
25.965784211486419
 30
0.0
  0
VERTEX
  5
254F
  8
0
 10
140.02608817388261
 20
25.884983216481821
 30
0.0
  0
VERTEX
  5
2550
  8
0
 10
140.02350886141841
 20
25.807294550387919
 30
0.0
  0
VERTEX
  5
2551
  8
0
 10
140.02105515881209
 20
25.732863828771372
 30
0.0
  0
VERTEX
  5
2552
  8
0
 10
140.01987615768439
 20
25.696914509235029
 30
0.0
  0
VERTEX
  5
2553
  8
0
 10
140.01872943106099
 20
25.66183221753715
 30
0.0
  0
VERTEX
  5
2554
  8
0
 10
140.01653385040959
 20
25.594335544916689
 30
0.0
  0
VERTEX
  5
2555
  8
0
 10
140.01447038659791
 20
25.530503367733619
 30
0.0
  0
VERTEX
  5
2556
  8
0
 10
140.01348875622531
 20
25.499999999999989
 30
0.0
  0
SEQEND
  5
2557
  8
0
  0
POLYLINE
  5
22AA
  8
0
 66
     1
 10
0.0
 20
0.0
 30
0.0
  0
VERTEX
  5
2558
  8
0
 10
142.03975362366921
 20
65.33739656935154
 30
0.0
  0
VERTEX
  5
2559
  8
0
 10
141.43255371842429
 20
65.83196825706915
 30
0.0
  0
VERTEX
  5
255A
  8
0
 10
140.52415743218421
 20
66.572433734319702
 30
0.0
  0
VERTEX
  5
255B
  8
0
 10
140.05870473357979
 20
66.952102160523054
 30
0.0
  0
VERTEX
  5
255C
  8
0
 10
139.99999999999969
 20
67.000000000000171
 30
0.0
  0
SEQEND
  5
255D
  8
0
  0
LINE
  5
22AB
  8
0
 10
142.03975362366899
 20
65.337396569351199
 30
0.0
 11
142.03975362366899
 21
51.884469426928831
 31
0.0
  0
POLYLINE
  5
22AC
  8
0
 66
     1
 10
0.0
 20
0.0
 30
0.0
  0
VERTEX
  5
255E
  8
0
 10
142.0397536236689
 20
51.88446942692886
 30
0.0
  0
VERTEX
  5
255F
  8
0
 10
141.7456336639562
 20
52.181526007741127
 30
0.0
  0
VERTEX
  5
2560
  8
0
 10
141.2197727378385
 20
52.660530307995288
 30
0.0
  0
VERTEX
  5
2561
  8
0
 10
140.7823055730785
 20
52.978626320573987
 30
0.0
  0
VERTEX
  5
2562
  8
0
 10
140.59838291467571
 20
53.074999999999989
 30
0.0
  0
SEQEND
  5
2563
  8
0
  0
POLYLINE
  5
22AD
  8
0
 66
     1
 10
0.0
 20
0.0
 30
0.0
  0
VERTEX
  5
2564
  8
0
 10
157.90885846168919
 20
51.8468963625497
 30
0.0
  0
VERTEX
  5
2565
  8
0
 10
157.898313000911
 20
51.841645094623502
 30
0.0
  0
VERTEX
  5
2566
  8
0
 10
157.87518914621049
 20
51.834121685592692
 30
0.0
  0
VERTEX
  5
2567
  8
0
 10
157.8494699795383
 20
51.830445755965407
 30
0.0
  0
VERTEX
  5
2568
  8
0
 10
157.83568892951581
 20
51.829995539314112
 30
0.0
  0
SEQEND
  5
2569
  8
0
  0
POLYLINE
  5
22AE
  8
0
 66
     1
 10
0.0
 20
0.0
 30
0.0
  0
VERTEX
  5
256A
  8
0
 10
157.75831537373759
 20
65.260263153969447
 30
0.0
  0
VERTEX
  5
256B
  8
0
 10
157.76681562783611
 20
65.262377544004778
 30
0.0
  0
VERTEX
  5
256C
  8
0
 10
157.78333213050561
 20
65.266617524656851
 30
0.0
  0
VERTEX
  5
256D
  8
0
 10
157.79919939162369
 20
65.270871187144678
 30
0.0
  0
VERTEX
  5
256E
  8
0
 10
157.80688819606129
 20
65.273002674796203
 30
0.0
  0
VERTEX
  5
256F
  8
0
 10
157.81441311381931
 20
65.275137011550839
 30
0.0
  0
VERTEX
  5
2570
  8
0
 10
157.8289694562506
 20
65.279413461161084
 30
0.0
  0
VERTEX
  5
2571
  8
0
 10
157.8428650526053
 20
65.283698985652904
 30
0.0
  0
VERTEX
  5
2572
  8
0
 10
157.85609702686381
 20
65.287992024308664
 30
0.0
  0
VERTEX
  5
2573
  8
0
 10
157.86866300685239
 20
65.292291009253972
 30
0.0
  0
VERTEX
  5
2574
  8
0
 10
157.8805611356135
 20
65.296594368723163
 30
0.0
  0
VERTEX
  5
2575
  8
0
 10
157.8862593186721
 20
65.298747197473674
 30
0.0
  0
VERTEX
  5
2576
  8
0
 10
157.89179008060461
 20
65.300900530354227
 30
0.0
  0
VERTEX
  5
2577
  8
0
 10
157.90234904073509
 20
65.305207924515059
 30
0.0
  0
VERTEX
  5
2578
  8
0
 10
157.91223775123731
 20
65.309514987665523
 30
0.0
  0
VERTEX
  5
2579
  8
0
 10
157.92145651848921
 20
65.313820181322114
 30
0.0
  0
VERTEX
  5
257A
  8
0
 10
157.9300062515554
 20
65.318122018000324
 30
0.0
  0
VERTEX
  5
257B
  8
0
 10
157.9378881980667
 20
65.322418931930031
 30
0.0
  0
VERTEX
  5
257C
  8
0
 10
157.9415792784672
 20
65.324565049522619
 30
0.0
  0
VERTEX
  5
257D
  8
0
 10
157.9451041115048
 20
65.326709344184451
 30
0.0
  0
VERTEX
  5
257E
  8
0
 10
157.951656282318
 20
65.330991674961524
 30
0.0
  0
VERTEX
  5
257F
  8
0
 10
157.9575475467683
 20
65.335264346895599
 30
0.0
  0
VERTEX
  5
2580
  8
0
 10
157.96024637633059
 20
65.337396569351199
 30
0.0
  0
SEQEND
  5
2581
  8
0
  0
LINE
  5
22AF
  8
0
 10
157.96024637633059
 20
65.337396569351199
 30
0.0
 11
157.96024637633059
 21
51.88446942692886
 31
0.0
  0
POLYLINE
  5
22B0
  8
0
 66
     1
 10
0.0
 20
0.0
 30
0.0
  0
VERTEX
  5
2582
  8
0
 10
157.96024637633059
 20
51.88446942692886
 30
0.0
  0
VERTEX
  5
2583
  8
0
 10
157.9538436295114
 20
51.878255601890601
 30
0.0
  0
VERTEX
  5
2584
  8
0
 10
157.9384544548048
 20
51.86576098941137
 30
0.0
  0
VERTEX
  5
2585
  8
0
 10
157.91959531056301
 20
51.853196952747652
 30
0.0
  0
VERTEX
  5
2586
  8
0
 10
157.90885846168919
 20
51.84689636254955
 30
0.0
  0
SEQEND
  5
2587
  8
0
  0
LINE
  5
22B1
  8
0
 10
160.0
 20
25.5
 30
0.0
 11
139.9999999999998
 21
25.5
 31
0.0
  0
LINE
  5
22B6
  8
1
 10
149.99999999999989
 20
72.000000000000085
 30
0.0
 11
149.99999999999989
 21
15.0
 31
0.0
  0
LINE
  5
22B7
  8
2
 10
65.999999999999986
 20
66.5
 30
0.0
 11
65.999999999999986
 21
66.95609521002126
 31
0.0
  0
LINE
  5
22B8
  8
2
 10
53.999999999999979
 20
66.956095210206797
 30
0.0
 11
53.999999999999979
 21
66.5
 31
0.0
  0
LINE
  5
22B9
  8
0
 10
155.99999999999989
 20
20.0
 30
0.0
 11
155.99999999999989
 21
20.199999999999999
 31
0.0
  0
LINE
  5
22BA
  8
0
 10
143.99999999999989
 20
20.199999999999999
 30
0.0
 11
143.99999999999989
 21
20.0
 31
0.0
  0
LINE
  5
22C1
  8
2
 10
65.999999999999986
 20
66.5
 30
0.0
 11
53.999999999999979
 21
66.5
 31
0.0
  0
LINE
  5
22C2
  8
0
 10
143.99999999999989
 20
20.0
 30
0.0
 11
155.99999999999989
 21
20.0
 31
0.0
  0
LINE
  5
22C3
  8
0
 10
69.999999999999986
 20
27.07142857142858
 30
0.0
 11
69.999999999999986
 21
43.075000000000003
 31
0.0
  0
LINE
  5
22C4
  8
0
 10
49.999999999999993
 20
43.074999999998887
 30
0.0
 11
49.999999999999993
 21
27.07142857142858
 31
0.0
  0
LINE
  5
22C5
  8
0
 10
20.0
 20
54.330299612837713
 30
0.0
 11
20.0
 21
62.770871305469711
 31
0.0
  0
LINE
  5
22C6
  8
0
 10
99.999999999999986
 20
54.330299612837862
 30
0.0
 11
99.999999999999915
 21
62.77087130546947
 31
0.0
  0
POLYLINE
  5
22C7
  8
0
 66
     1
 10
0.0
 20
0.0
 30
0.0
  0
VERTEX
  5
2588
  8
0
 10
40.000000000013557
 20
53.075000000000671
 30
0.0
  0
VERTEX
  5
2589
  8
0
 10
37.135123440428799
 20
52.978626320574733
 30
0.0
  0
VERTEX
  5
258A
  8
0
 10
31.45842621255245
 20
52.660530307996027
 30
0.0
  0
VERTEX
  5
258B
  8
0
 10
25.86939701857581
 20
52.181526007741518
 30
0.0
  0
VERTEX
  5
258C
  8
0
 10
23.114087201691671
 20
51.884469426929002
 30
0.0
  0
SEQEND
  5
258D
  8
0
  0
POLYLINE
  5
22C8
  8
0
 66
     1
 10
0.0
 20
0.0
 30
0.0
  0
VERTEX
  5
258E
  8
0
 10
96.88591279830834
 20
51.88446942692886
 30
0.0
  0
VERTEX
  5
258F
  8
0
 10
94.130602981426435
 20
52.181526007741127
 30
0.0
  0
VERTEX
  5
2590
  8
0
 10
88.541573787454524
 20
52.660530307995288
 30
0.0
  0
VERTEX
  5
2591
  8
0
 10
82.864876559582981
 20
52.978626320573987
 30
0.0
  0
VERTEX
  5
2592
  8
0
 10
80.000000000000696
 20
53.074999999999989
 30
0.0
  0
SEQEND
  5
2593
  8
0
  0
LINE
  5
22C9
  8
0
 10
143.3249999999999
 20
20.199999999999999
 30
0.0
 11
156.6749999999999
 21
20.199999999999999
 31
0.0
  0
LINE
  5
22CA
  8
0
 10
142.54959791458089
 20
25.5
 30
0.0
 11
142.54959791458089
 21
21.024999999999999
 31
0.0
  0
LINE
  5
22D6
  8
0
 10
157.450402085419
 20
21.024999999999999
 30
0.0
 11
157.450402085419
 21
25.5
 31
0.0
  0
LINE
  5
22DC
  8
1
 10
59.999999999999993
 20
71.99999999986278
 30
0.0
 11
59.999999999999972
 21
15.0
 31
0.0
  0
LINE
  5
22DD
  8
0
 10
142.54959791458089
 20
21.024999999999999
 30
0.0
 11
143.3249999999999
 21
20.199999999999999
 31
0.0
  0
LINE
  5
22DE
  8
0
 10
157.450402085419
 20
21.024999999999999
 30
0.0
 11
156.6749999999999
 21
20.199999999999999
 31
0.0
  0
LINE
  5
22E2
  8
0
 10
67.450402085419029
 20
21.024999999999999
 30
0.0
 11
66.674999999999955
 21
20.199999999999999
 31
0.0
  0
LINE
  5
22E3
  8
0
 10
52.549597914580907
 20
21.024999999999999
 30
0.0
 11
53.324999999999967
 21
20.199999999999999
 31
0.0
  0
LINE
  5
22E5
  8
0
 10
67.450402085419029
 20
21.024999999999999
 30
0.0
 11
67.450402085419029
 21
25.5
 31
0.0
  0
LINE
  5
22F1
  8
0
 10
52.549597914580907
 20
25.5
 30
0.0
 11
52.549597914580907
 21
21.024999999999999
 31
0.0
  0
LINE
  5
22F2
  8
0
 10
53.324999999999967
 20
20.199999999999999
 30
0.0
 11
66.674999999999955
 21
20.199999999999999
 31
0.0
  0
LINE
  5
22F3
  8
0
 10
53.999999999999972
 20
20.0
 30
0.0
 11
65.999999999999972
 21
20.0
 31
0.0
  0
LINE
  5
22F6
  8
0
 10
53.999999999999972
 20
20.199999999999999
 30
0.0
 11
53.999999999999972
 21
20.0
 31
0.0
  0
LINE
  5
22F7
  8
0
 10
65.999999999999972
 20
20.0
 30
0.0
 11
65.999999999999972
 21
20.199999999999999
 31
0.0
  0
LINE
  5
22F8
  8
0
 10
51.571428571428548
 20
25.500000000000011
 30
0.0
 11
68.428571428571416
 21
25.500000000000011
 31
0.0
  0
ARC
  5
22F9
  8
0
 10
59.999999996960931
 20
-207.5333333334643
 30
0.0
 40
334.53333333332711
 50
83.669650268394605
 51
96.330349731605395
  0
ARC
  5
22FA
  8
0
 10
59.999999996960931
 20
441.53333333318972
 30
0.0
 40
334.53333333332711
 50
263.66965026839478
 51
276.33034973160511
  0
ARC
  5
22FB
  8
0
 10
96.499999996960554
 20
121.48158696312549
 30
0.0
 40
3.5000000000035252
 50
359.9999999015684
 51
83.669650268394605
  0
ARC
  5
22FC
  8
0
 10
96.499999996960554
 20
112.5184130365999
 30
0.0
 40
3.5000000000035252
 50
276.33034973160528
 51
0.0000000984329258
  0
ARC
  5
22FD
  8
0
 10
23.499999996962529
 20
121.48158696312549
 30
0.0
 40
3.5000000000035252
 50
96.330349731606006
 51
180.0000000984316
  0
ARC
  5
22FE
  8
0
 10
23.499999996962529
 20
112.5184130365999
 30
0.0
 40
3.5000000000035252
 50
179.99999990156701
 51
263.66965026839398
  0
CIRCLE
  5
22FF
  8
0
 10
59.999999996961542
 20
116.99999999986269
 30
0.0
 40
6.0
  0
ARC
  5
2300
  8
0
 10
22.505577889926428
 20
62.7657851363563
 30
0.0
 40
2.5055830522264588
 50
95.396394875753344
 51
179.88369324897599
  0
ARC
  5
2301
  8
0
 10
59.999999996961499
 20
-342.99999996651951
 30
0.0
 40
409.99999996638229
 50
84.719911875297996
 51
95.280088124702004
  0
ARC
  5
2302
  8
0
 10
97.494422110073486
 20
62.7657851363563
 30
0.0
 40
2.5055830522264588
 50
0.1163067510239549
 51
84.603605124246457
  0
LINE
  5
2303
  8
0
 10
49.999999999999993
 20
27.07142857142858
 30
0.0
 11
51.571428571428548
 21
25.500000000000011
 31
0.0
  0
LINE
  5
2304
  8
0
 10
69.999999999999986
 20
27.07142857142858
 30
0.0
 11
68.428571428571416
 21
25.500000000000011
 31
0.0
  0
ARC
  5
2305
  8
0
 10
80.007628999165107
 20
43.07165388975497
 30
0.0
 40
10.00762955856105
 50
132.65425135412801
 51
179.9808428162458
  0
ARC
  5
2306
  8
0
 10
80.011907660308935
 20
43.04448604618355
 30
0.0
 40
10.030521021865241
 50
90.068018285224582
 51
132.5670758851488
  0
ARC
  5
2307
  8
0
 10
39.992371000834872
 20
43.07165388975497
 30
0.0
 40
10.00762955856105
 50
0.0191571837542382
 51
47.345748645872263
  0
ARC
  5
2308
  8
0
 10
39.98809233969105
 20
43.04448604618355
 30
0.0
 40
10.030521021865241
 50
47.432924114850813
 51
89.931981714774778
  0
LINE
  5
2309
  8
0
 10
49.999999999999993
 20
27.07142857142858
 30
0.0
 11
69.999999999999986
 21
27.07142857142858
 31
0.0
  0
LINE
  5
230A
  8
0
 10
159.93221035332789
 20
27.07142857142858
 30
0.0
 11
140.06778964667191
 21
27.07142857142858
 31
0.0
  0
ARC
  5
230B
  8
0
 10
22.500135302666141
 20
54.330147575934419
 30
0.0
 40
2.5001353072889341
 50
179.99651575941959
 51
276.66252524161342
  0
ARC
  5
230C
  8
0
 10
97.499864697333834
 20
54.330147575934561
 30
0.0
 40
2.5001353072889341
 50
263.33747475838658
 51
0.0034842405805607
  0
LINE
  5
230D
  8
0
 10
96.88591279830834
 20
51.88446942692886
 30
0.0
 11
97.20979619617853
 21
51.846896316116037
 31
0.0
  0
LINE
  5
230E
  8
0
 10
23.114087201691621
 20
51.88446942692886
 30
0.0
 11
22.790203803821431
 21
51.846896316116037
 31
0.0
  0
LINE
  5
2358
  8
3
 10
66.809777075337891
 20
20.34339797279975
 30
0.0
 11
66.809777075337891
 21
25.5
 31
0.0
  0
LINE
  5
2359
  8
3
 10
65.775021912237364
 20
20.199999999999999
 30
0.0
 11
65.775021912237364
 21
25.5
 31
0.0
  0
LINE
  5
235A
  8
3
 10
64.985102807365124
 20
20.199999999999999
 30
0.0
 11
64.985102807365124
 21
25.5
 31
0.0
  0
LINE
  5
235B
  8
3
 10
64.04371387627485
 20
20.199999999999999
 30
0.0
 11
64.04371387627485
 21
25.5
 31
0.0
  0
LINE
  5
235C
  8
3
 10
62.979458745271899
 20
20.199999999999999
 30
0.0
 11
62.979458745271899
 21
25.5
 31
0.0
  0
LINE
  5
235D
  8
3
 10
61.824674267972732
 20
20.199999999999999
 30
0.0
 11
61.824674267972732
 21
25.5
 31
0.0
  0
LINE
  5
235E
  8
3
 10
60.614447986370962
 20
20.199999999999999
 30
0.0
 11
60.614447986370962
 21
25.5
 31
0.0
  0
LINE
  5
235F
  8
3
 10
59.385552013628981
 20
20.199999999999999
 30
0.0
 11
59.385552013628981
 21
25.5
 31
0.0
  0
LINE
  5
2360
  8
3
 10
58.175325732027197
 20
20.199999999999999
 30
0.0
 11
58.175325732027197
 21
25.5
 31
0.0
  0
LINE
  5
2361
  8
3
 10
57.02054125472803
 20
20.199999999999999
 30
0.0
 11
57.02054125472803
 21
25.5
 31
0.0
  0
LINE
  5
2362
  8
3
 10
55.956286123725093
 20
20.199999999999999
 30
0.0
 11
55.956286123725093
 21
25.5
 31
0.0
  0
LINE
  5
2363
  8
3
 10
55.014897192634812
 20
20.199999999999999
 30
0.0
 11
55.014897192634812
 21
25.5
 31
0.0
  0
LINE
  5
2364
  8
3
 10
54.22497808776258
 20
20.199999999999999
 30
0.0
 11
54.22497808776258
 21
25.5
 31
0.0
  0
LINE
  5
2365
  8
3
 10
53.610530101391582
 20
20.199999999999999
 30
0.0
 11
53.610530101391582
 21
25.5
 31
0.0
  0
LINE
  5
2366
  8
3
 10
53.190222924662038
 20
20.34339797279976
 30
0.0
 11
53.190222924662038
 21
25.5
 31
0.0
  0
LINE
  5
2367
  8
3
 10
66.389469898608354
 20
20.199999999999999
 30
0.0
 11
66.389469898608354
 21
25.5
 31
0.0
  0
LINE
  5
237D
  8
3
 10
156.80977707533791
 20
20.34339797279975
 30
0.0
 11
156.80977707533791
 21
25.5
 31
0.0
  0
LINE
  5
237E
  8
3
 10
155.77502191223729
 20
20.199999999999999
 30
0.0
 11
155.77502191223729
 21
25.5
 31
0.0
  0
LINE
  5
237F
  8
3
 10
154.98510280736511
 20
20.199999999999999
 30
0.0
 11
154.98510280736511
 21
25.5
 31
0.0
  0
LINE
  5
2380
  8
3
 10
154.04371387627481
 20
20.199999999999999
 30
0.0
 11
154.04371387627481
 21
25.5
 31
0.0
  0
LINE
  5
2381
  8
3
 10
152.9794587452719
 20
20.199999999999999
 30
0.0
 11
152.9794587452719
 21
25.5
 31
0.0
  0
LINE
  5
2382
  8
3
 10
151.82467426797271
 20
20.199999999999999
 30
0.0
 11
151.82467426797271
 21
25.5
 31
0.0
  0
LINE
  5
2383
  8
3
 10
150.61444798637089
 20
20.199999999999999
 30
0.0
 11
150.61444798637089
 21
25.5
 31
0.0
  0
LINE
  5
2384
  8
3
 10
149.38555201362891
 20
20.199999999999999
 30
0.0
 11
149.38555201362891
 21
25.5
 31
0.0
  0
LINE
  5
2385
  8
3
 10
148.1753257320272
 20
20.199999999999999
 30
0.0
 11
148.1753257320272
 21
25.5
 31
0.0
  0
LINE
  5
2386
  8
3
 10
147.02054125472799
 20
20.199999999999999
 30
0.0
 11
147.02054125472799
 21
25.5
 31
0.0
  0
LINE
  5
2387
  8
3
 10
145.95628612372511
 20
20.199999999999999
 30
0.0
 11
145.95628612372511
 21
25.5
 31
0.0
  0
LINE
  5
2388
  8
3
 10
145.01489719263481
 20
20.199999999999999
 30
0.0
 11
145.01489719263481
 21
25.5
 31
0.0
  0
LINE
  5
2389
  8
3
 10
144.22497808776259
 20
20.199999999999999
 30
0.0
 11
144.22497808776259
 21
25.5
 31
0.0
  0
LINE
  5
238A
  8
3
 10
143.6105301013915
 20
20.199999999999999
 30
0.0
 11
143.6105301013915
 21
25.5
 31
0.0
  0
LINE
  5
238B
  8
3
 10
143.19022292466201
 20
20.34339797279976
 30
0.0
 11
143.19022292466201
 21
25.5
 31
0.0
  0
LINE
  5
238C
  8
3
 10
156.3894698986083
 20
20.199999999999999
 30
0.0
 11
156.3894698986083
 21
25.5
 31
0.0
  0
TEXT
  5
2408
  8
0
 62
     3
 10
0.0
 20
0.0
 30
0.0
 40
10.0
  1
STH80N-M8
  7
STANDARD1
  0
ENDSEC
  0
EOF
