  0
SECTION
  2
HEADER
  9
$ACADVER
  1
AC1009
  9
$INSBASE
 10
0.0
 20
0.0
 30
0.0
  9
$EXTMIN
 10
0.0
 20
-2.960436562073669
 30
0.0
  9
$EXTMAX
 10
190.00000000000011
 20
165.00000000000011
 30
0.0
  9
$LIMMIN
 10
0.0
 20
0.0
  9
$LIMMAX
 10
375.0
 20
270.0
  9
$ORTHOMODE
 70
     1
  9
$REGENMODE
 70
     1
  9
$FILLMODE
 70
     1
  9
$QTEXTMODE
 70
     0
  9
$MIRRTEXT
 70
     0
  9
$DRAGMODE
 70
     2
  9
$LTSCALE
 40
10.0
  9
$OSMODE
 70
    55
  9
$ATTMODE
 70
     1
  9
$TEXTSIZE
 40
2.0
  9
$TRACEWID
 40
0.05
  9
$TEXTSTYLE
  7
STANDARD
  9
$CLAYER
  8
0
  9
$CELTYPE
  6
BYLAYER
  9
$CECOLOR
 62
   256
  9
$DIMSCALE
 40
1.0
  9
$DIMASZ
 40
2.5
  9
$DIMEXO
 40
2.0
  9
$DIMDLI
 40
0.38
  9
$DIMRND
 40
0.0
  9
$DIMDLE
 40
0.0
  9
$DIMEXE
 40
2.0
  9
$DIMTP
 40
0.0
  9
$DIMTM
 40
0.0
  9
$DIMTXT
 40
3.0
  9
$DIMCEN
 40
0.09
  9
$DIMTSZ
 40
0.0
  9
$DIMTOL
 70
     0
  9
$DIMLIM
 70
     0
  9
$DIMTIH
 70
     0
  9
$DIMTOH
 70
     0
  9
$DIMSE1
 70
     0
  9
$DIMSE2
 70
     0
  9
$DIMTAD
 70
     1
  9
$DIMZIN
 70
     0
  9
$DIMBLK
  1

  9
$DIMASO
 70
     1
  9
$DIMSHO
 70
     0
  9
$DIMPOST
  1

  9
$DIMAPOST
  1

  9
$DIMALT
 70
     0
  9
$DIMALTD
 70
     2
  9
$DIMALTF
 40
25.399999999999999
  9
$DIMLFAC
 40
1.0
  9
$DIMTOFL
 70
     0
  9
$DIMTVP
 40
1.6000000000000001
  9
$DIMTIX
 70
     1
  9
$DIMSOXD
 70
     0
  9
$DIMSAH
 70
     0
  9
$DIMBLK1
  1

  9
$DIMBLK2
  1

  9
$DIMSTYLE
  2
STANDARD
  9
$DIMCLRD
 70
     0
  9
$DIMCLRE
 70
     0
  9
$DIMCLRT
 70
     0
  9
$DIMTFAC
 40
1.0
  9
$DIMGAP
 40
0.09
  9
$LUNITS
 70
     2
  9
$LUPREC
 70
     1
  9
$SKETCHINC
 40
0.1
  9
$FILLETRAD
 40
2.5
  9
$AUNITS
 70
     0
  9
$AUPREC
 70
     0
  9
$MENU
  1
E:\r13\win\SUPPORT\ACAD
  9
$ELEVATION
 40
0.0
  9
$PELEVATION
 40
0.0
  9
$THICKNESS
 40
0.0
  9
$LIMCHECK
 70
     0
  9
$BLIPMODE
 70
     0
  9
$CHAMFERA
 40
0.0
  9
$CHAMFERB
 40
0.0
  9
$SKPOLY
 70
     0
  9
$TDCREATE
 40
2448650.5678784722
  9
$TDUPDATE
 40
2456598.5647804402
  9
$TDINDWG
 40
0.1147812384
  9
$TDUSRTIMER
 40
0.1147812384
  9
$USRTIMER
 70
     1
  9
$ANGBASE
 50
0.0
  9
$ANGDIR
 70
     0
  9
$PDMODE
 70
     0
  9
$PDSIZE
 40
0.0
  9
$PLINEWID
 40
0.0
  9
$COORDS
 70
     1
  9
$SPLFRAME
 70
     0
  9
$SPLINETYPE
 70
     6
  9
$SPLINESEGS
 70
     8
  9
$ATTDIA
 70
     0
  9
$ATTREQ
 70
     1
  9
$HANDLING
 70
     1
  9
$HANDSEED
  5
1D9D
  9
$SURFTAB1
 70
     6
  9
$SURFTAB2
 70
     6
  9
$SURFTYPE
 70
     6
  9
$SURFU
 70
     6
  9
$SURFV
 70
     6
  9
$UCSNAME
  2

  9
$UCSORG
 10
0.0
 20
0.0
 30
0.0
  9
$UCSXDIR
 10
1.0
 20
0.0
 30
0.0
  9
$UCSYDIR
 10
0.0
 20
1.0
 30
0.0
  9
$PUCSNAME
  2

  9
$PUCSORG
 10
0.0
 20
0.0
 30
0.0
  9
$PUCSXDIR
 10
1.0
 20
0.0
 30
0.0
  9
$PUCSYDIR
 10
0.0
 20
1.0
 30
0.0
  9
$USERI1
 70
     0
  9
$USERI2
 70
     1
  9
$USERI3
 70
     1
  9
$USERI4
 70
     0
  9
$USERI5
 70
     0
  9
$USERR1
 40
0.0
  9
$USERR2
 40
0.0
  9
$USERR3
 40
0.0
  9
$USERR4
 40
0.0
  9
$USERR5
 40
0.0
  9
$WORLDVIEW
 70
     1
  9
$SHADEDGE
 70
     3
  9
$SHADEDIF
 70
    70
  9
$TILEMODE
 70
     1
  9
$MAXACTVP
 70
    16
  9
$PLIMCHECK
 70
     0
  9
$PEXTMIN
 10
1.0000000000000000E+020
 20
1.0000000000000000E+020
 30
1.0000000000000000E+020
  9
$PEXTMAX
 10
-1.0000000000000000E+020
 20
-1.0000000000000000E+020
 30
-1.0000000000000000E+020
  9
$PLIMMIN
 10
0.0
 20
0.0
  9
$PLIMMAX
 10
12.0
 20
9.0
  9
$UNITMODE
 70
     0
  9
$VISRETAIN
 70
     0
  9
$PLINEGEN
 70
     1
  9
$PSLTSCALE
 70
     0
  0
ENDSEC
  0
SECTION
  2
TABLES
  0
TABLE
  2
VPORT
 70
     1
  0
VPORT
  2
*ACTIVE
 70
     0
 10
0.0
 20
0.0
 11
1.0
 21
1.0
 12
187.4942783906524
 22
197.0509055860143
 13
0.0
 23
0.0
 14
10.0
 24
10.0
 15
10.0
 25
10.0
 16
0.0
 26
0.0
 36
1.0
 17
0.0
 27
0.0
 37
0.0
 40
403.57315882993248
 41
1.7807262569832401
 42
50.0
 43
0.0
 44
0.0
 50
0.0
 51
0.0
 71
     0
 72
   500
 73
     1
 74
     0
 75
     0
 76
     0
 77
     0
 78
     2
  0
ENDTAB
  0
TABLE
  2
LTYPE
 70
     4
  0
LTYPE
  2
CONTINUOUS
 70
     0
  3
Solid Line
 72
    65
 73
     0
 40
0.0
  0
LTYPE
  2
CENTER
 70
     0
  3
____ _ ____ _ ____ _ ____ _ ____ _ ____ _ ____
 72
    65
 73
     4
 40
2.0
 49
1.25
 49
-0.25
 49
0.25
 49
-0.25
  0
LTYPE
  2
HIDDEN
 70
     0
  3
_ _ _ _ _ _ _ _ _ _ _ _ _ _ _ _ _ _ _ _ _ _ _
 72
    65
 73
     2
 40
0.375
 49
0.25
 49
-0.125
  0
LTYPE
  2
PHANTOM2
 70
     0
  3
___ _ _ ___ _ _ ___ _ _ ___ _ _
 72
    65
 73
     6
 40
1.25
 49
0.625
 49
-0.125
 49
0.125
 49
-0.125
 49
0.125
 49
-0.125
  0
ENDTAB
  0
TABLE
  2
LAYER
 70
     5
  0
LAYER
  2
0
 70
     0
 62
     7
  6
CONTINUOUS
  0
LAYER
  2
1
 70
     0
 62
     1
  6
CENTER
  0
LAYER
  2
2
 70
     0
 62
     2
  6
HIDDEN
  0
LAYER
  2
3
 70
     0
 62
     3
  6
CONTINUOUS
  0
LAYER
  2
DEFPOINTS
 70
     0
 62
     7
  6
CONTINUOUS
  0
ENDTAB
  0
TABLE
  2
STYLE
 70
     2
  0
STYLE
  2
STANDARD
 70
     0
 40
0.0
 41
1.0
 50
0.0
 71
     0
 42
2.0
  3
TXT
  4
BIGFONT
  0
STYLE
  2
STANDARD1
 70
     0
 40
0.0
 41
1.0
 50
0.0
 71
     0
 42
3.0
  3
txt
  4

  0
ENDTAB
  0
TABLE
  2
VIEW
 70
     1
  0
VIEW
  2
ALL
 70
     0
 40
270.0
 10
220.99159663865549
 20
135.0
 41
0.0
 11
0.0
 21
0.0
 31
1.0
 12
0.0
 22
0.0
 32
0.0
 42
0.0
 43
0.0
 44
0.0
 50
0.0
 71
     0
  0
ENDTAB
  0
TABLE
  2
UCS
 70
     0
  0
ENDTAB
  0
TABLE
  2
APPID
 70
     9
  0
APPID
  2
ACAD
 70
     0
  0
APPID
  2
GENIUS_GENODEF_13
 70
     0
  0
APPID
  2
GENIUS_GENOBJ-N-CEN_13
 70
     0
  0
APPID
  2
GENIUS_GENCEN_19
 70
     0
  0
APPID
  2
ACAD_EXEMPT_FROM_CAD_STANDARDS
 70
     0
  0
APPID
  2
ACAD_DSTYLE_DIMJAG
 70
     0
  0
APPID
  2
ACAD_DSTYLE_DIMTALN
 70
     0
  0
APPID
  2
ACAD_MLEADERVER
 70
     0
  0
APPID
  2
ACAD_NAV_VCDISPLAY
 70
     0
  0
ENDTAB
  0
TABLE
  2
DIMSTYLE
 70
     1
  0
DIMSTYLE
  2
STANDARD
 70
     0
  3

  4

  5

  6

  7

 40
1.0
 41
0.18
 42
0.0625
 43
0.38
 44
0.18
 45
0.0
 46
0.0
 47
0.0
 48
0.0
140
0.18
141
0.09
142
0.0
143
25.399999999999999
144
1.0
145
0.0
146
1.0
147
0.09
 71
     0
 72
     0
 73
     1
 74
     1
 75
     0
 76
     0
 77
     0
 78
     0
170
     0
171
     2
172
     0
173
     0
174
     0
175
     0
176
     0
177
     0
178
     0
  0
ENDTAB
  0
ENDSEC
  0
SECTION
  2
BLOCKS
  0
BLOCK
  8
0
  2
$MODEL_SPACE
 70
     0
 10
0.0
 20
0.0
 30
0.0
  3
$MODEL_SPACE
  1

  0
ENDBLK
  5
217
  8
0
  0
BLOCK
 67
     1
  8
0
  2
$PAPER_SPACE
 70
     0
 10
0.0
 20
0.0
 30
0.0
  3
$PAPER_SPACE
  1

  0
ENDBLK
  5
215
 67
     1
  8
0
  0
ENDSEC
  0
SECTION
  2
ENTITIES
  0
LINE
  5
17A0
  8
0
 10
183.99999999999989
 20
33.766999999999662
 30
0.0
 11
183.99999999999989
 21
52.999999999999659
 31
0.0
  0
LINE
  5
17A1
  8
0
 10
175.99999999999989
 20
52.999999999999659
 30
0.0
 11
175.99999999999989
 21
33.766999999999662
 31
0.0
  0
LINE
  5
17A2
  8
0
 10
183.23299999999989
 20
32.999999999999659
 30
0.0
 11
183.99999999999989
 21
33.766999999999662
 31
0.0
  0
LINE
  5
17A3
  8
0
 10
175.99999999999989
 20
33.766999999999662
 30
0.0
 11
176.76699999999991
 21
32.999999999999659
 31
0.0
  0
LINE
  5
1851
  8
0
 10
175.99999999999989
 20
33.766999999999662
 30
0.0
 11
183.99999999999989
 21
33.766999999999662
 31
0.0
  0
LINE
  5
1852
  8
0
 10
176.76699999999991
 20
32.999999999999659
 30
0.0
 11
183.23299999999989
 21
32.999999999999659
 31
0.0
  0
LINE
  5
1853
  8
3
 10
183.23299999999989
 20
32.999999999999659
 30
0.0
 11
183.23299999999989
 21
51.399999999999658
 31
0.0
  0
LINE
  5
1854
  8
3
 10
183.99999999999989
 20
52.999999999999659
 30
0.0
 11
183.23299999999989
 21
51.399999999999658
 31
0.0
  0
LINE
  5
1855
  8
0
 10
183.99999999999989
 20
51.399999999999658
 30
0.0
 11
175.99999999999989
 21
51.399999999999658
 31
0.0
  0
LINE
  5
1856
  8
3
 10
176.76699999999991
 20
32.999999999999659
 30
0.0
 11
176.76699999999991
 21
51.399999999999658
 31
0.0
  0
LINE
  5
1857
  8
3
 10
175.99999999999989
 20
52.999999999999659
 30
0.0
 11
176.76699999999991
 21
51.399999999999658
 31
0.0
  0
LINE
  5
1858
  8
1
 10
180.0
 20
105.0
 30
0.0
 11
179.99999999999989
 21
27.999999999999659
 31
0.0
  0
LINE
  5
1878
  8
0
 10
93.999999999999986
 20
33.766999999999832
 30
0.0
 11
93.999999999999986
 21
52.999999999999822
 31
0.0
  0
LINE
  5
1879
  8
0
 10
85.999999999999986
 20
52.999999999999822
 30
0.0
 11
85.999999999999986
 21
33.766999999999832
 31
0.0
  0
LINE
  5
187A
  8
0
 10
93.23299999999999
 20
32.999999999999829
 30
0.0
 11
93.999999999999986
 21
33.766999999999832
 31
0.0
  0
LINE
  5
187B
  8
0
 10
85.999999999999986
 20
33.766999999999832
 30
0.0
 11
86.766999999999982
 21
32.999999999999829
 31
0.0
  0
LINE
  5
192C
  8
0
 10
85.999999999999986
 20
33.766999999999832
 30
0.0
 11
93.999999999999986
 21
33.766999999999832
 31
0.0
  0
LINE
  5
192D
  8
0
 10
86.766999999999982
 20
32.999999999999829
 30
0.0
 11
93.23299999999999
 21
32.999999999999829
 31
0.0
  0
LINE
  5
192E
  8
3
 10
93.23299999999999
 20
32.999999999999829
 30
0.0
 11
93.23299999999999
 21
51.399999999999828
 31
0.0
  0
LINE
  5
192F
  8
3
 10
93.999999999999986
 20
52.999999999999822
 30
0.0
 11
93.23299999999999
 21
51.399999999999828
 31
0.0
  0
LINE
  5
1930
  8
0
 10
93.999999999999986
 20
51.399999999999828
 30
0.0
 11
85.999999999999986
 21
51.399999999999828
 31
0.0
  0
LINE
  5
1931
  8
3
 10
86.766999999999982
 20
32.999999999999829
 30
0.0
 11
86.766999999999982
 21
51.399999999999828
 31
0.0
  0
LINE
  5
1932
  8
3
 10
85.999999999999986
 20
52.999999999999829
 30
0.0
 11
86.766999999999982
 21
51.399999999999828
 31
0.0
  0
LINE
  5
1933
  8
1
 10
89.999999999999986
 20
105.0
 30
0.0
 11
89.999999999999986
 21
27.999999999999829
 31
0.0
  0
LINE
  5
1A96
  8
0
 10
49.999999999999943
 20
154.48158696326621
 30
0.0
 11
49.999999999999943
 21
145.5184130367337
 31
0.0
  0
LINE
  5
1A97
  8
0
 10
129.99999999999989
 20
154.48158696326621
 30
0.0
 11
129.99999999999989
 21
145.51841303673379
 31
0.0
  0
LINE
  5
1A98
  8
1
 10
44.999999999999943
 20
150.0
 30
0.0
 11
134.99999999999989
 21
150.0
 31
0.0
  0
LINE
  5
1A99
  8
1
 10
89.999999999999943
 20
134.99999999999989
 30
0.0
 11
89.999999999999943
 21
165.00000000000011
 31
0.0
  0
LINE
  5
1A9A
  8
2
 10
186.0
 20
99.499999999999829
 30
0.0
 11
186.0
 21
99.999999999999844
 31
0.0
  0
LINE
  5
1A9B
  8
2
 10
174.0
 20
99.999999999999844
 30
0.0
 11
174.0
 21
99.499999999999829
 31
0.0
  0
LINE
  5
1A9C
  8
0
 10
190.00000000000011
 20
100.0
 30
0.0
 11
169.9999999999998
 21
100.0
 31
0.0
  0
LINE
  5
1A9D
  8
0
 10
172.1643110704841
 20
84.829995539313941
 30
0.0
 11
187.8356889295159
 21
84.829995539313941
 31
0.0
  0
LINE
  5
1A9E
  8
0
 10
190.00000000000011
 20
58.499999999999829
 30
0.0
 11
190.00000000000011
 21
100.0
 31
0.0
  0
LINE
  5
1A9F
  8
0
 10
169.9999999999998
 20
100.0
 30
0.0
 11
169.9999999999998
 21
58.499999999999829
 31
0.0
  0
LINE
  5
1AA0
  8
2
 10
186.0
 20
99.499999999999829
 30
0.0
 11
174.0
 21
99.499999999999829
 31
0.0
  0
LINE
  5
1AA1
  8
0
 10
172.2416846262623
 20
98.260263153969305
 30
0.0
 11
187.7583153737377
 21
98.260263153969305
 31
0.0
  0
POLYLINE
  5
1AA2
  8
0
 66
     1
 10
0.0
 20
0.0
 30
0.0
  0
VERTEX
  5
1C6D
  8
0
 10
172.0397536236693
 20
98.337396569351029
 30
0.0
  0
VERTEX
  5
1C6E
  8
0
 10
172.04245245323159
 20
98.335264346895428
 30
0.0
  0
VERTEX
  5
1C6F
  8
0
 10
172.04834371768189
 20
98.330991674961354
 30
0.0
  0
VERTEX
  5
1C70
  8
0
 10
172.0548958884952
 20
98.326709344184295
 30
0.0
  0
VERTEX
  5
1C71
  8
0
 10
172.05842072153271
 20
98.324565049522406
 30
0.0
  0
VERTEX
  5
1C72
  8
0
 10
172.06211180193321
 20
98.322418931929846
 30
0.0
  0
VERTEX
  5
1C73
  8
0
 10
172.0699937484446
 20
98.318122018000125
 30
0.0
  0
VERTEX
  5
1C74
  8
0
 10
172.07854348151079
 20
98.31382018132183
 30
0.0
  0
VERTEX
  5
1C75
  8
0
 10
172.0877622487628
 20
98.309514987665224
 30
0.0
  0
VERTEX
  5
1C76
  8
0
 10
172.097650959265
 20
98.305207924514832
 30
0.0
  0
VERTEX
  5
1C77
  8
0
 10
172.10820991939551
 20
98.300900530353999
 30
0.0
  0
VERTEX
  5
1C78
  8
0
 10
172.11374068132801
 20
98.29874719747346
 30
0.0
  0
VERTEX
  5
1C79
  8
0
 10
172.11943886438661
 20
98.296594368722936
 30
0.0
  0
VERTEX
  5
1C7A
  8
0
 10
172.13133699314761
 20
98.292291009253745
 30
0.0
  0
VERTEX
  5
1C7B
  8
0
 10
172.14390297313631
 20
98.287992024308494
 30
0.0
  0
VERTEX
  5
1C7C
  8
0
 10
172.15713494739461
 20
98.283698985652734
 30
0.0
  0
VERTEX
  5
1C7D
  8
0
 10
172.1710305437494
 20
98.279413461160914
 30
0.0
  0
VERTEX
  5
1C7E
  8
0
 10
172.1855868861806
 20
98.275137011550669
 30
0.0
  0
VERTEX
  5
1C7F
  8
0
 10
172.19311180393859
 20
98.273002674796032
 30
0.0
  0
VERTEX
  5
1C80
  8
0
 10
172.2008006083762
 20
98.270871187144564
 30
0.0
  0
VERTEX
  5
1C81
  8
0
 10
172.2166678694943
 20
98.266617524656752
 30
0.0
  0
VERTEX
  5
1C82
  8
0
 10
172.23318437216381
 20
98.262377544004607
 30
0.0
  0
VERTEX
  5
1C83
  8
0
 10
172.2416846262623
 20
98.260263153969277
 30
0.0
  0
SEQEND
  5
1C84
  8
0
  0
POLYLINE
  5
1AA3
  8
0
 66
     1
 10
0.0
 20
0.0
 30
0.0
  0
VERTEX
  5
1C85
  8
0
 10
172.1643110704841
 20
84.829995539313941
 30
0.0
  0
VERTEX
  5
1C86
  8
0
 10
172.15053002046159
 20
84.830445755965243
 30
0.0
  0
VERTEX
  5
1C87
  8
0
 10
172.1248108537894
 20
84.834121685592535
 30
0.0
  0
VERTEX
  5
1C88
  8
0
 10
172.10168699908891
 20
84.841645094623331
 30
0.0
  0
VERTEX
  5
1C89
  8
0
 10
172.09114153831069
 20
84.846896362549529
 30
0.0
  0
SEQEND
  5
1C8A
  8
0
  0
POLYLINE
  5
1AA4
  8
0
 66
     1
 10
0.0
 20
0.0
 30
0.0
  0
VERTEX
  5
1C8B
  8
0
 10
172.09114153831069
 20
84.846896362549387
 30
0.0
  0
VERTEX
  5
1C8C
  8
0
 10
172.0804046894369
 20
84.853196952747481
 30
0.0
  0
VERTEX
  5
1C8D
  8
0
 10
172.06154554519509
 20
84.865760989411186
 30
0.0
  0
VERTEX
  5
1C8E
  8
0
 10
172.04615637048849
 20
84.878255601890416
 30
0.0
  0
VERTEX
  5
1C8F
  8
0
 10
172.0397536236693
 20
84.884469426928689
 30
0.0
  0
SEQEND
  5
1C90
  8
0
  0
POLYLINE
  5
1AA5
  8
0
 66
     1
 10
0.0
 20
0.0
 30
0.0
  0
VERTEX
  5
1C91
  8
0
 10
187.9602463763307
 20
98.337396569351029
 30
0.0
  0
VERTEX
  5
1C92
  8
0
 10
188.56744628157551
 20
98.831968257068695
 30
0.0
  0
VERTEX
  5
1C93
  8
0
 10
189.47584256781559
 20
99.572433734319432
 30
0.0
  0
VERTEX
  5
1C94
  8
0
 10
189.94129526642001
 20
99.952102160522884
 30
0.0
  0
VERTEX
  5
1C95
  8
0
 10
190.00000000000011
 20
100.0
 30
0.0
  0
SEQEND
  5
1C96
  8
0
  0
POLYLINE
  5
1AA6
  8
0
 66
     1
 10
0.0
 20
0.0
 30
0.0
  0
VERTEX
  5
1C97
  8
0
 10
189.98651124377449
 20
58.499999999999829
 30
0.0
  0
VERTEX
  5
1C98
  8
0
 10
189.98552961340181
 20
58.530503367733431
 30
0.0
  0
VERTEX
  5
1C99
  8
0
 10
189.98346614959021
 20
58.594335544916497
 30
0.0
  0
VERTEX
  5
1C9A
  8
0
 10
189.98127056893881
 20
58.661832217537011
 30
0.0
  0
VERTEX
  5
1C9B
  8
0
 10
189.98012384231541
 20
58.696914509234887
 30
0.0
  0
VERTEX
  5
1C9C
  8
0
 10
189.97894484118771
 20
58.732863828771173
 30
0.0
  0
VERTEX
  5
1C9D
  8
0
 10
189.97649113858131
 20
58.807294550387731
 30
0.0
  0
VERTEX
  5
1C9E
  8
0
 10
189.97391182611719
 20
58.884983216481672
 30
0.0
  0
VERTEX
  5
1C9F
  8
0
 10
189.97120945232331
 20
58.965784211486273
 30
0.0
  0
VERTEX
  5
1CA0
  8
0
 10
189.96838641852059
 20
59.049557827010851
 30
0.0
  0
VERTEX
  5
1CA1
  8
0
 10
189.9654451263082
 20
59.136166104884069
 30
0.0
  0
VERTEX
  5
1CA2
  8
0
 10
189.96393101557391
 20
59.180486834463331
 30
0.0
  0
VERTEX
  5
1CA3
  8
0
 10
189.96238841858121
 20
59.225460298997433
 30
0.0
  0
VERTEX
  5
1CA4
  8
0
 10
189.95921929418
 20
59.317289889751841
 30
0.0
  0
VERTEX
  5
1CA5
  8
0
 10
189.9559409051331
 20
59.411503079191569
 30
0.0
  0
VERTEX
  5
1CA6
  8
0
 10
189.94365512489671
 20
59.757812968116177
 30
0.0
  0
VERTEX
  5
1CA7
  8
0
 10
189.93221035332789
 20
60.071428571428399
 30
0.0
  0
SEQEND
  5
1CA8
  8
0
  0
LINE
  5
1AA7
  8
0
 10
189.93221035332789
 20
60.071428571428399
 30
0.0
 11
189.93221035332789
 21
75.129999999999825
 31
0.0
  0
POLYLINE
  5
1AA8
  8
0
 66
     1
 10
0.0
 20
0.0
 30
0.0
  0
VERTEX
  5
1CA9
  8
0
 10
189.93221035332789
 20
75.129999999999825
 30
0.0
  0
VERTEX
  5
1CAA
  8
0
 10
189.9322061540141
 20
75.177658561804463
 30
0.0
  0
VERTEX
  5
1CAB
  8
0
 10
189.932172664685
 20
75.272770668191839
 30
0.0
  0
VERTEX
  5
1CAC
  8
0
 10
189.93210594471859
 20
75.367610695762053
 30
0.0
  0
VERTEX
  5
1CAD
  8
0
 10
189.9320602026441
 20
75.414929141697513
 30
0.0
  0
VERTEX
  5
1CAE
  8
0
 10
189.9320062458541
 20
75.462180114590382
 30
0.0
  0
VERTEX
  5
1CAF
  8
0
 10
189.93187380130959
 20
75.556480341701487
 30
0.0
  0
VERTEX
  5
1CB0
  8
0
 10
189.9317088262392
 20
75.650512760396708
 30
0.0
  0
VERTEX
  5
1CB1
  8
0
 10
189.931511518126
 20
75.744278737441164
 30
0.0
  0
VERTEX
  5
1CB2
  8
0
 10
189.93128205711611
 20
75.837779637758075
 30
0.0
  0
VERTEX
  5
1CB3
  8
0
 10
189.93102060630341
 20
75.93101683636003
 30
0.0
  0
VERTEX
  5
1CB4
  8
0
 10
189.93087793108529
 20
75.977536982241261
 30
0.0
  0
VERTEX
  5
1CB5
  8
0
 10
189.93072731197171
 20
76.023991727332344
 30
0.0
  0
VERTEX
  5
1CB6
  8
0
 10
189.93040230380501
 20
76.116705729766664
 30
0.0
  0
VERTEX
  5
1CB7
  8
0
 10
189.93004569507141
 20
76.209160290623231
 30
0.0
  0
VERTEX
  5
1CB8
  8
0
 10
189.9296575827897
 20
76.301356884575071
 30
0.0
  0
VERTEX
  5
1CB9
  8
0
 10
189.92923804788629
 20
76.393297010952978
 30
0.0
  0
VERTEX
  5
1CBA
  8
0
 10
189.92878715534809
 20
76.484982187968711
 30
0.0
  0
VERTEX
  5
1CBB
  8
0
 10
189.92854996595409
 20
76.530729648080523
 30
0.0
  0
VERTEX
  5
1CBC
  8
0
 10
189.92830495437821
 20
76.57641394444066
 30
0.0
  0
VERTEX
  5
1CBD
  8
0
 10
189.9277914785591
 20
76.667593809284284
 30
0.0
  0
VERTEX
  5
1CBE
  8
0
 10
189.92724674602749
 20
76.758523299055852
 30
0.0
  0
VERTEX
  5
1CBF
  8
0
 10
189.92696265998529
 20
76.803894620393521
 30
0.0
  0
VERTEX
  5
1CC0
  8
0
 10
189.9266707596648
 20
76.849203903855965
 30
0.0
  0
VERTEX
  5
1CC1
  8
0
 10
189.9260635073058
 20
76.939637071906589
 30
0.0
  0
VERTEX
  5
1CC2
  8
0
 10
189.9254249648248
 20
77.029823799714535
 30
0.0
  0
VERTEX
  5
1CC3
  8
0
 10
189.92509414411521
 20
77.074798763789843
 30
0.0
  0
VERTEX
  5
1CC4
  8
0
 10
189.92475582036229
 20
77.11966985437607
 30
0.0
  0
VERTEX
  5
1CC5
  8
0
 10
189.92405676692621
 20
77.209096229042686
 30
0.0
  0
VERTEX
  5
1CC6
  8
0
 10
189.9233280118824
 20
77.298094575217405
 30
0.0
  0
VERTEX
  5
1CC7
  8
0
 10
189.92256976436579
 20
77.386656585338883
 30
0.0
  0
VERTEX
  5
1CC8
  8
0
 10
189.92178223561871
 20
77.47477399520703
 30
0.0
  0
VERTEX
  5
1CC9
  8
0
 10
189.9209656393507
 20
77.562438583906044
 30
0.0
  0
VERTEX
  5
1CCA
  8
0
 10
189.92054650845
 20
77.606098512629089
 30
0.0
  0
VERTEX
  5
1CCB
  8
0
 10
189.92012019212601
 20
77.649642171681762
 30
0.0
  0
VERTEX
  5
1CCC
  8
0
 10
189.91924611377661
 20
77.736376616200033
 30
0.0
  0
VERTEX
  5
1CCD
  8
0
 10
189.91834362784431
 20
77.82263380758144
 30
0.0
  0
VERTEX
  5
1CCE
  8
0
 10
189.91496454863579
 20
78.120659071685083
 30
0.0
  0
VERTEX
  5
1CCF
  8
0
 10
189.90839894941519
 20
78.616732976792449
 30
0.0
  0
VERTEX
  5
1CD0
  8
0
 10
189.9008574519309
 20
79.095598270306994
 30
0.0
  0
VERTEX
  5
1CD1
  8
0
 10
189.8921525834925
 20
79.567332958933889
 30
0.0
  0
VERTEX
  5
1CD2
  8
0
 10
189.88734029821561
 20
79.800415579138303
 30
0.0
  0
VERTEX
  5
1CD3
  8
0
 10
189.8822121325322
 20
80.031342347664179
 30
0.0
  0
VERTEX
  5
1CD4
  8
0
 10
189.8709799283863
 20
80.485823240833184
 30
0.0
  0
VERTEX
  5
1CD5
  8
0
 10
189.8583998251865
 20
80.928945574625089
 30
0.0
  0
VERTEX
  5
1CD6
  8
0
 10
189.8444174908004
 20
81.358845342439921
 30
0.0
  0
VERTEX
  5
1CD7
  8
0
 10
189.8289824200786
 20
81.773632262026723
 30
0.0
  0
VERTEX
  5
1CD8
  8
0
 10
189.81199797325951
 20
82.172552925333136
 30
0.0
  0
VERTEX
  5
1CD9
  8
0
 10
189.80286630248381
 20
82.366291052305414
 30
0.0
  0
VERTEX
  5
1CDA
  8
0
 10
189.79329281469481
 20
82.555873530698676
 30
0.0
  0
VERTEX
  5
1CDB
  8
0
 10
189.77277680332091
 20
82.921474027567456
 30
0.0
  0
VERTEX
  5
1CDC
  8
0
 10
189.7503637016859
 20
83.26714985141183
 30
0.0
  0
VERTEX
  5
1CDD
  8
0
 10
189.7384193581569
 20
83.431823567671188
 30
0.0
  0
SEQEND
  5
1CDE
  8
0
  0
POLYLINE
  5
1AA9
  8
0
 66
     1
 10
0.0
 20
0.0
 30
0.0
  0
VERTEX
  5
1CDF
  8
0
 10
189.73841935817799
 20
83.431823568743354
 30
0.0
  0
VERTEX
  5
1CE0
  8
0
 10
189.73247072191731
 20
83.566700911254969
 30
0.0
  0
VERTEX
  5
1CE1
  8
0
 10
189.71994013795549
 20
83.829385358286146
 30
0.0
  0
VERTEX
  5
1CE2
  8
0
 10
189.70655738289341
 20
84.081594785345743
 30
0.0
  0
VERTEX
  5
1CE3
  8
0
 10
189.69954468403219
 20
84.203401515012501
 30
0.0
  0
VERTEX
  5
1CE4
  8
0
 10
189.6923174277436
 20
84.322159317802203
 30
0.0
  0
VERTEX
  5
1CE5
  8
0
 10
189.6772196921147
 20
84.550024298917677
 30
0.0
  0
VERTEX
  5
1CE6
  8
0
 10
189.66126817895761
 20
84.764250157371066
 30
0.0
  0
VERTEX
  5
1CE7
  8
0
 10
189.6444737627466
 20
84.963986492424169
 30
0.0
  0
VERTEX
  5
1CE8
  8
0
 10
189.6268542032563
 20
85.148484998128922
 30
0.0
  0
VERTEX
  5
1CE9
  8
0
 10
189.60843372085299
 20
85.317111340290865
 30
0.0
  0
VERTEX
  5
1CEA
  8
0
 10
189.598930599238
 20
85.395320799630085
 30
0.0
  0
VERTEX
  5
1CEB
  8
0
 10
189.58923571712961
 20
85.469400886116105
 30
0.0
  0
VERTEX
  5
1CEC
  8
0
 10
189.56929020528409
 20
85.604972592031359
 30
0.0
  0
VERTEX
  5
1CED
  8
0
 10
189.54864164907801
 20
85.723493260906864
 30
0.0
  0
VERTEX
  5
1CEE
  8
0
 10
189.52734265191879
 20
85.824745559735447
 30
0.0
  0
VERTEX
  5
1CEF
  8
0
 10
189.5054530375823
 20
85.908635724154522
 30
0.0
  0
VERTEX
  5
1CF0
  8
0
 10
189.4830391739392
 20
85.975195176983206
 30
0.0
  0
VERTEX
  5
1CF1
  8
0
 10
189.4716586224196
 20
86.002018377119811
 30
0.0
  0
VERTEX
  5
1CF2
  8
0
 10
189.4601757323592
 20
86.024575066973853
 30
0.0
  0
VERTEX
  5
1CF3
  8
0
 10
189.43694629403859
 20
86.057050997261214
 30
0.0
  0
VERTEX
  5
1CF4
  8
0
 10
189.41344206090781
 20
86.073031153300491
 30
0.0
  0
VERTEX
  5
1CF5
  8
0
 10
189.40161708532401
 20
86.074999999999832
 30
0.0
  0
SEQEND
  5
1CF6
  8
0
  0
POLYLINE
  5
1AAA
  8
0
 66
     1
 10
0.0
 20
0.0
 30
0.0
  0
VERTEX
  5
1CF7
  8
0
 10
189.40161708532401
 20
86.074999999999818
 30
0.0
  0
VERTEX
  5
1CF8
  8
0
 10
189.21769442692121
 20
85.978626320573824
 30
0.0
  0
VERTEX
  5
1CF9
  8
0
 10
188.78022726216119
 20
85.660530307995117
 30
0.0
  0
VERTEX
  5
1CFA
  8
0
 10
188.25436633604349
 20
85.181526007740956
 30
0.0
  0
VERTEX
  5
1CFB
  8
0
 10
187.9602463763307
 20
84.884469426928689
 30
0.0
  0
SEQEND
  5
1CFC
  8
0
  0
POLYLINE
  5
1AAB
  8
0
 66
     1
 10
0.0
 20
0.0
 30
0.0
  0
VERTEX
  5
1CFD
  8
0
 10
170.5983829146758
 20
86.074999999999832
 30
0.0
  0
VERTEX
  5
1CFE
  8
0
 10
170.58655793908451
 20
86.073031153297975
 30
0.0
  0
VERTEX
  5
1CFF
  8
0
 10
170.56305370593881
 20
86.057050997238221
 30
0.0
  0
VERTEX
  5
1D00
  8
0
 10
170.53982426760399
 20
86.024575066908994
 30
0.0
  0
VERTEX
  5
1D01
  8
0
 10
170.52834137753661
 20
86.002018377025806
 30
0.0
  0
VERTEX
  5
1D02
  8
0
 10
170.51696082601029
 20
85.975195176854513
 30
0.0
  0
VERTEX
  5
1D03
  8
0
 10
170.49454696235421
 20
85.908635723939696
 30
0.0
  0
VERTEX
  5
1D04
  8
0
 10
170.4726573480055
 20
85.824745559412236
 30
0.0
  0
VERTEX
  5
1D05
  8
0
 10
170.45135835083519
 20
85.723493260453395
 30
0.0
  0
VERTEX
  5
1D06
  8
0
 10
170.43070979461899
 20
85.60497259142636
 30
0.0
  0
VERTEX
  5
1D07
  8
0
 10
170.41076428276449
 20
85.469400885339198
 30
0.0
  0
VERTEX
  5
1D08
  8
0
 10
170.40106940065209
 20
85.395320798759997
 30
0.0
  0
VERTEX
  5
1D09
  8
0
 10
170.3915662790333
 20
85.317111339322992
 30
0.0
  0
VERTEX
  5
1D0A
  8
0
 10
170.37314579662339
 20
85.148484996951524
 30
0.0
  0
VERTEX
  5
1D0B
  8
0
 10
170.35552623712761
 20
84.963986491020947
 30
0.0
  0
VERTEX
  5
1D0C
  8
0
 10
170.33873182091219
 20
84.764250155727751
 30
0.0
  0
VERTEX
  5
1D0D
  8
0
 10
170.32278030775211
 20
84.550024297022233
 30
0.0
  0
VERTEX
  5
1D0E
  8
0
 10
170.30768257212111
 20
84.322159315645109
 30
0.0
  0
VERTEX
  5
1D0F
  8
0
 10
170.3004553158321
 20
84.203401512722465
 30
0.0
  0
VERTEX
  5
1D10
  8
0
 10
170.29344261697071
 20
84.081594782921684
 30
0.0
  0
VERTEX
  5
1D11
  8
0
 10
170.2800598619088
 20
83.829385355590659
 30
0.0
  0
VERTEX
  5
1D12
  8
0
 10
170.267529277948
 20
83.566700908284986
 30
0.0
  0
VERTEX
  5
1D13
  8
0
 10
170.26158064168831
 20
83.431823565636194
 30
0.0
  0
SEQEND
  5
1D14
  8
0
  0
POLYLINE
  5
1AAC
  8
0
 66
     1
 10
0.0
 20
0.0
 30
0.0
  0
VERTEX
  5
1D15
  8
0
 10
170.26158064168851
 20
83.431823565622196
 30
0.0
  0
VERTEX
  5
1D16
  8
0
 10
170.24999789594639
 20
83.272322392771784
 30
0.0
  0
VERTEX
  5
1D17
  8
0
 10
170.22802825563261
 20
82.934799303887687
 30
0.0
  0
VERTEX
  5
1D18
  8
0
 10
170.2076284224417
 20
82.573436948865137
 30
0.0
  0
VERTEX
  5
1D19
  8
0
 10
170.19803344984709
 20
82.384676490493035
 30
0.0
  0
VERTEX
  5
1D1A
  8
0
 10
170.1888683139756
 20
82.191510344184024
 30
0.0
  0
VERTEX
  5
1D1B
  8
0
 10
170.1717904978311
 20
81.792996960927255
 30
0.0
  0
VERTEX
  5
1D1C
  8
0
 10
170.1563192739506
 20
81.379956881053175
 30
0.0
  0
VERTEX
  5
1D1D
  8
0
 10
170.1423773863099
 20
80.954424013531195
 30
0.0
  0
VERTEX
  5
1D1E
  8
0
 10
170.12988738645711
 20
80.518400225875482
 30
0.0
  0
VERTEX
  5
1D1F
  8
0
 10
170.1187728763031
 20
80.073857112166124
 30
0.0
  0
VERTEX
  5
1D20
  8
0
 10
170.11370810596679
 20
79.849001237951597
 30
0.0
  0
VERTEX
  5
1D21
  8
0
 10
170.10895946116489
 20
79.622742683385837
 30
0.0
  0
VERTEX
  5
1D22
  8
0
 10
170.1002063541996
 20
79.15730279134965
 30
0.0
  0
VERTEX
  5
1D23
  8
0
 10
170.09238814729011
 20
78.67059032519083
 30
0.0
  0
VERTEX
  5
1D24
  8
0
 10
170.08556774705741
 20
78.164525479948978
 30
0.0
  0
VERTEX
  5
1D25
  8
0
 10
170.08207010053439
 20
77.861144165114965
 30
0.0
  0
VERTEX
  5
1D26
  8
0
 10
170.08113745260991
 20
77.773427044226025
 30
0.0
  0
VERTEX
  5
1D27
  8
0
 10
170.0802347803598
 20
77.685265544553772
 30
0.0
  0
VERTEX
  5
1D28
  8
0
 10
170.07979474096319
 20
77.641020964834411
 30
0.0
  0
VERTEX
  5
1D29
  8
0
 10
170.07936226200439
 20
77.596668670318593
 30
0.0
  0
VERTEX
  5
1D2A
  8
0
 10
170.07852007187481
 20
77.507645469093845
 30
0.0
  0
VERTEX
  5
1D2B
  8
0
 10
170.07770838080751
 20
77.418205034151214
 30
0.0
  0
VERTEX
  5
1D2C
  8
0
 10
170.07692735650971
 20
77.328356505029234
 30
0.0
  0
VERTEX
  5
1D2D
  8
0
 10
170.076177163897
 20
77.238109065877012
 30
0.0
  0
VERTEX
  5
1D2E
  8
0
 10
170.07545826374709
 20
77.147510451485473
 30
0.0
  0
VERTEX
  5
1D2F
  8
0
 10
170.07511075371241
 20
77.102104666255343
 30
0.0
  0
VERTEX
  5
1D30
  8
0
 10
170.0747712022756
 20
77.056628130395509
 30
0.0
  0
VERTEX
  5
1D31
  8
0
 10
170.07411596784601
 20
76.965462479336963
 30
0.0
  0
VERTEX
  5
1D32
  8
0
 10
170.07349255433391
 20
76.874012796760013
 30
0.0
  0
VERTEX
  5
1D33
  8
0
 10
170.07319278231239
 20
76.828181207046384
 30
0.0
  0
VERTEX
  5
1D34
  8
0
 10
170.07290096955859
 20
76.782278319405975
 30
0.0
  0
VERTEX
  5
1D35
  8
0
 10
170.07234123558121
 20
76.690258240328959
 30
0.0
  0
VERTEX
  5
1D36
  8
0
 10
170.0718133889763
 20
76.597951726039071
 30
0.0
  0
VERTEX
  5
1D37
  8
0
 10
170.07156143889819
 20
76.551690791910488
 30
0.0
  0
VERTEX
  5
1D38
  8
0
 10
170.0713174810802
 20
76.505357932404763
 30
0.0
  0
VERTEX
  5
1D39
  8
0
 10
170.07085357821751
 20
76.412476018941675
 30
0.0
  0
VERTEX
  5
1D3A
  8
0
 10
170.07042176190819
 20
76.319305161115054
 30
0.0
  0
VERTEX
  5
1D3B
  8
0
 10
170.0700221290617
 20
76.225844560290867
 30
0.0
  0
VERTEX
  5
1D3C
  8
0
 10
170.069654792161
 20
76.132093450991476
 30
0.0
  0
VERTEX
  5
1D3D
  8
0
 10
170.06931987944441
 20
76.038051105144632
 30
0.0
  0
VERTEX
  5
1D3E
  8
0
 10
170.06916462658319
 20
75.990920501532131
 30
0.0
  0
VERTEX
  5
1D3F
  8
0
 10
170.06901753509129
 20
75.943716833058986
 30
0.0
  0
VERTEX
  5
1D40
  8
0
 10
170.0687479194209
 20
75.849089980917924
 30
0.0
  0
VERTEX
  5
1D41
  8
0
 10
170.06851120911199
 20
75.754169924654164
 30
0.0
  0
VERTEX
  5
1D42
  8
0
 10
170.0683075974531
 20
75.658956060149123
 30
0.0
  0
VERTEX
  5
1D43
  8
0
 10
170.0681372946342
 20
75.563447789792832
 30
0.0
  0
VERTEX
  5
1D44
  8
0
 10
170.0680005280885
 20
75.467644505539212
 30
0.0
  0
VERTEX
  5
1D45
  8
0
 10
170.0679447968036
 20
75.419632035420861
 30
0.0
  0
VERTEX
  5
1D46
  8
0
 10
170.067897542895
 20
75.371545568695083
 30
0.0
  0
VERTEX
  5
1D47
  8
0
 10
170.06782860225201
 20
75.275150286785546
 30
0.0
  0
VERTEX
  5
1D48
  8
0
 10
170.06779398802971
 20
75.178457887941235
 30
0.0
  0
VERTEX
  5
1D49
  8
0
 10
170.06778964667191
 20
75.129999999999825
 30
0.0
  0
SEQEND
  5
1D4A
  8
0
  0
LINE
  5
1AAD
  8
0
 10
170.06778964667191
 20
75.129999999999825
 30
0.0
 11
170.06778964667191
 21
60.071428571428399
 31
0.0
  0
POLYLINE
  5
1AAE
  8
0
 66
     1
 10
0.0
 20
0.0
 30
0.0
  0
VERTEX
  5
1D4B
  8
0
 10
170.06778964667191
 20
60.071428571428399
 30
0.0
  0
VERTEX
  5
1D4C
  8
0
 10
170.05634487510321
 20
59.757812968116177
 30
0.0
  0
VERTEX
  5
1D4D
  8
0
 10
170.0440590948667
 20
59.411503079191583
 30
0.0
  0
VERTEX
  5
1D4E
  8
0
 10
170.04078070581991
 20
59.317289889751841
 30
0.0
  0
VERTEX
  5
1D4F
  8
0
 10
170.0376115814187
 20
59.22546029899744
 30
0.0
  0
VERTEX
  5
1D50
  8
0
 10
170.0360689844259
 20
59.180486834463331
 30
0.0
  0
VERTEX
  5
1D51
  8
0
 10
170.0345548736916
 20
59.136166104884069
 30
0.0
  0
VERTEX
  5
1D52
  8
0
 10
170.03161358147929
 20
59.049557827010808
 30
0.0
  0
VERTEX
  5
1D53
  8
0
 10
170.02879054767661
 20
58.965784211486252
 30
0.0
  0
VERTEX
  5
1D54
  8
0
 10
170.02608817388261
 20
58.88498321648165
 30
0.0
  0
VERTEX
  5
1D55
  8
0
 10
170.02350886141849
 20
58.807294550387752
 30
0.0
  0
VERTEX
  5
1D56
  8
0
 10
170.0210551588122
 20
58.732863828771187
 30
0.0
  0
VERTEX
  5
1D57
  8
0
 10
170.01987615768451
 20
58.696914509234858
 30
0.0
  0
VERTEX
  5
1D58
  8
0
 10
170.0187294310611
 20
58.661832217536983
 30
0.0
  0
VERTEX
  5
1D59
  8
0
 10
170.01653385040959
 20
58.594335544916511
 30
0.0
  0
VERTEX
  5
1D5A
  8
0
 10
170.01447038659799
 20
58.530503367733452
 30
0.0
  0
VERTEX
  5
1D5B
  8
0
 10
170.0134887562254
 20
58.499999999999808
 30
0.0
  0
SEQEND
  5
1D5C
  8
0
  0
POLYLINE
  5
1AAF
  8
0
 66
     1
 10
0.0
 20
0.0
 30
0.0
  0
VERTEX
  5
1D5D
  8
0
 10
172.0397536236693
 20
98.337396569351355
 30
0.0
  0
VERTEX
  5
1D5E
  8
0
 10
171.4325537184244
 20
98.831968257068979
 30
0.0
  0
VERTEX
  5
1D5F
  8
0
 10
170.5241574321843
 20
99.572433734319532
 30
0.0
  0
VERTEX
  5
1D60
  8
0
 10
170.05870473357979
 20
99.952102160522884
 30
0.0
  0
VERTEX
  5
1D61
  8
0
 10
169.9999999999998
 20
100.0
 30
0.0
  0
SEQEND
  5
1D62
  8
0
  0
LINE
  5
1AB0
  8
0
 10
172.03975362366899
 20
98.337396569351029
 30
0.0
 11
172.03975362366899
 21
84.884469426928646
 31
0.0
  0
POLYLINE
  5
1AB1
  8
0
 66
     1
 10
0.0
 20
0.0
 30
0.0
  0
VERTEX
  5
1D63
  8
0
 10
172.03975362366899
 20
84.884469426928689
 30
0.0
  0
VERTEX
  5
1D64
  8
0
 10
171.7456336639562
 20
85.181526007740956
 30
0.0
  0
VERTEX
  5
1D65
  8
0
 10
171.2197727378385
 20
85.660530307995117
 30
0.0
  0
VERTEX
  5
1D66
  8
0
 10
170.78230557307859
 20
85.978626320573824
 30
0.0
  0
VERTEX
  5
1D67
  8
0
 10
170.5983829146758
 20
86.074999999999818
 30
0.0
  0
SEQEND
  5
1D68
  8
0
  0
POLYLINE
  5
1AB2
  8
0
 66
     1
 10
0.0
 20
0.0
 30
0.0
  0
VERTEX
  5
1D69
  8
0
 10
187.90885846168919
 20
84.846896362549529
 30
0.0
  0
VERTEX
  5
1D6A
  8
0
 10
187.898313000911
 20
84.841645094623331
 30
0.0
  0
VERTEX
  5
1D6B
  8
0
 10
187.8751891462106
 20
84.834121685592535
 30
0.0
  0
VERTEX
  5
1D6C
  8
0
 10
187.8494699795383
 20
84.830445755965243
 30
0.0
  0
VERTEX
  5
1D6D
  8
0
 10
187.8356889295159
 20
84.829995539313941
 30
0.0
  0
SEQEND
  5
1D6E
  8
0
  0
POLYLINE
  5
1AB3
  8
0
 66
     1
 10
0.0
 20
0.0
 30
0.0
  0
VERTEX
  5
1D6F
  8
0
 10
187.7583153737377
 20
98.260263153969277
 30
0.0
  0
VERTEX
  5
1D70
  8
0
 10
187.76681562783619
 20
98.262377544004607
 30
0.0
  0
VERTEX
  5
1D71
  8
0
 10
187.78333213050561
 20
98.266617524656681
 30
0.0
  0
VERTEX
  5
1D72
  8
0
 10
187.79919939162369
 20
98.270871187144522
 30
0.0
  0
VERTEX
  5
1D73
  8
0
 10
187.80688819606129
 20
98.273002674796032
 30
0.0
  0
VERTEX
  5
1D74
  8
0
 10
187.8144131138194
 20
98.275137011550669
 30
0.0
  0
VERTEX
  5
1D75
  8
0
 10
187.8289694562506
 20
98.279413461160914
 30
0.0
  0
VERTEX
  5
1D76
  8
0
 10
187.84286505260539
 20
98.283698985652734
 30
0.0
  0
VERTEX
  5
1D77
  8
0
 10
187.85609702686389
 20
98.287992024308494
 30
0.0
  0
VERTEX
  5
1D78
  8
0
 10
187.8686630068525
 20
98.292291009253816
 30
0.0
  0
VERTEX
  5
1D79
  8
0
 10
187.88056113561359
 20
98.296594368722992
 30
0.0
  0
VERTEX
  5
1D7A
  8
0
 10
187.8862593186721
 20
98.298747197473503
 30
0.0
  0
VERTEX
  5
1D7B
  8
0
 10
187.89179008060461
 20
98.300900530354056
 30
0.0
  0
VERTEX
  5
1D7C
  8
0
 10
187.90234904073509
 20
98.305207924514889
 30
0.0
  0
VERTEX
  5
1D7D
  8
0
 10
187.91223775123731
 20
98.309514987665366
 30
0.0
  0
VERTEX
  5
1D7E
  8
0
 10
187.92145651848921
 20
98.313820181321944
 30
0.0
  0
VERTEX
  5
1D7F
  8
0
 10
187.93000625155551
 20
98.318122018000167
 30
0.0
  0
VERTEX
  5
1D80
  8
0
 10
187.93788819806679
 20
98.32241893192986
 30
0.0
  0
VERTEX
  5
1D81
  8
0
 10
187.94157927846729
 20
98.324565049522448
 30
0.0
  0
VERTEX
  5
1D82
  8
0
 10
187.9451041115048
 20
98.326709344184295
 30
0.0
  0
VERTEX
  5
1D83
  8
0
 10
187.95165628231811
 20
98.330991674961354
 30
0.0
  0
VERTEX
  5
1D84
  8
0
 10
187.95754754676841
 20
98.335264346895428
 30
0.0
  0
VERTEX
  5
1D85
  8
0
 10
187.9602463763307
 20
98.337396569351029
 30
0.0
  0
SEQEND
  5
1D86
  8
0
  0
LINE
  5
1AB4
  8
0
 10
187.9602463763307
 20
98.337396569351029
 30
0.0
 11
187.9602463763307
 21
84.884469426928689
 31
0.0
  0
POLYLINE
  5
1AB5
  8
0
 66
     1
 10
0.0
 20
0.0
 30
0.0
  0
VERTEX
  5
1D87
  8
0
 10
187.9602463763307
 20
84.884469426928689
 30
0.0
  0
VERTEX
  5
1D88
  8
0
 10
187.95384362951151
 20
84.878255601890416
 30
0.0
  0
VERTEX
  5
1D89
  8
0
 10
187.93845445480491
 20
84.865760989411186
 30
0.0
  0
VERTEX
  5
1D8A
  8
0
 10
187.9195953105631
 20
84.853196952747481
 30
0.0
  0
VERTEX
  5
1D8B
  8
0
 10
187.90885846168919
 20
84.846896362549387
 30
0.0
  0
SEQEND
  5
1D8C
  8
0
  0
LINE
  5
1AB6
  8
0
 10
190.00000000000011
 20
58.499999999999829
 30
0.0
 11
169.99999999999989
 21
58.499999999999829
 31
0.0
  0
LINE
  5
1AB8
  8
2
 10
96.000000003038494
 20
99.500000000137305
 30
0.0
 11
96.000000003038494
 21
99.956095210158566
 31
0.0
  0
LINE
  5
1AB9
  8
2
 10
84.000000003038508
 20
99.956095210344102
 30
0.0
 11
84.000000003038508
 21
99.500000000137305
 31
0.0
  0
LINE
  5
1ABA
  8
0
 10
186.0
 20
52.999999999999822
 30
0.0
 11
186.0
 21
53.199999999999832
 31
0.0
  0
LINE
  5
1ABB
  8
0
 10
174.0
 20
53.199999999999832
 30
0.0
 11
174.0
 21
52.999999999999822
 31
0.0
  0
LINE
  5
1ABC
  8
2
 10
96.000000003038494
 20
99.500000000137305
 30
0.0
 11
84.000000003038508
 21
99.500000000137305
 31
0.0
  0
LINE
  5
1ABD
  8
0
 10
174.0
 20
52.999999999999822
 30
0.0
 11
186.0
 21
52.999999999999822
 31
0.0
  0
LINE
  5
1ABE
  8
0
 10
100.00000000303849
 20
60.071428571565868
 30
0.0
 11
100.00000000303849
 21
76.075000000137294
 31
0.0
  0
LINE
  5
1ABF
  8
0
 10
80.000000003038508
 20
76.075000000136185
 30
0.0
 11
80.000000003038508
 21
60.071428571565868
 31
0.0
  0
LINE
  5
1AC0
  8
0
 10
50.000000003038508
 20
87.330299612974997
 30
0.0
 11
50.000000003038508
 21
95.770871305607002
 31
0.0
  0
LINE
  5
1AC1
  8
0
 10
130.00000000303851
 20
87.330299612975153
 30
0.0
 11
130.00000000303839
 21
95.770871305606747
 31
0.0
  0
POLYLINE
  5
1AC2
  8
0
 66
     1
 10
0.0
 20
0.0
 30
0.0
  0
VERTEX
  5
1D8D
  8
0
 10
70.000000003052037
 20
86.075000000137962
 30
0.0
  0
VERTEX
  5
1D8E
  8
0
 10
67.135123443467307
 20
85.978626320712024
 30
0.0
  0
VERTEX
  5
1D8F
  8
0
 10
61.458426215590968
 20
85.660530308133318
 30
0.0
  0
VERTEX
  5
1D90
  8
0
 10
55.869397021614297
 20
85.181526007878816
 30
0.0
  0
VERTEX
  5
1D91
  8
0
 10
53.114087204730197
 20
84.884469427066279
 30
0.0
  0
SEQEND
  5
1D92
  8
0
  0
POLYLINE
  5
1AC3
  8
0
 66
     1
 10
0.0
 20
0.0
 30
0.0
  0
VERTEX
  5
1D93
  8
0
 10
126.8859128013469
 20
84.884469427066136
 30
0.0
  0
VERTEX
  5
1D94
  8
0
 10
124.130602984465
 20
85.181526007878404
 30
0.0
  0
VERTEX
  5
1D95
  8
0
 10
118.541573790493
 20
85.660530308132564
 30
0.0
  0
VERTEX
  5
1D96
  8
0
 10
112.8648765626214
 20
85.978626320711285
 30
0.0
  0
VERTEX
  5
1D97
  8
0
 10
110.0000000030392
 20
86.075000000137265
 30
0.0
  0
SEQEND
  5
1D98
  8
0
  0
LINE
  5
1AC4
  8
0
 10
173.32499999999999
 20
53.199999999999832
 30
0.0
 11
186.67500000000001
 21
53.199999999999832
 31
0.0
  0
LINE
  5
1AC5
  8
0
 10
172.54959791458089
 20
58.499999999999829
 30
0.0
 11
172.54959791458089
 21
54.024999999999828
 31
0.0
  0
LINE
  5
1AD1
  8
0
 10
187.450402085419
 20
54.024999999999821
 30
0.0
 11
187.450402085419
 21
58.499999999999829
 31
0.0
  0
LINE
  5
1AD3
  8
0
 10
172.54959791458089
 20
54.024999999999828
 30
0.0
 11
173.32499999999999
 21
53.199999999999832
 31
0.0
  0
LINE
  5
1AD4
  8
0
 10
187.450402085419
 20
54.024999999999821
 30
0.0
 11
186.67500000000001
 21
53.199999999999832
 31
0.0
  0
LINE
  5
1AD7
  8
0
 10
97.450402088457494
 20
54.02500000013729
 30
0.0
 11
96.675000003038463
 21
53.200000000137287
 31
0.0
  0
LINE
  5
1AD8
  8
0
 10
82.549597917619394
 20
54.025000000137297
 30
0.0
 11
83.325000003038497
 21
53.200000000137287
 31
0.0
  0
LINE
  5
1AD9
  8
0
 10
97.450402088457494
 20
54.02500000013729
 30
0.0
 11
97.450402088457494
 21
58.500000000137291
 31
0.0
  0
LINE
  5
1AE5
  8
0
 10
82.549597917619394
 20
58.500000000137291
 30
0.0
 11
82.549597917619394
 21
54.025000000137297
 31
0.0
  0
LINE
  5
1AE6
  8
0
 10
83.325000003038497
 20
53.200000000137287
 30
0.0
 11
96.675000003038463
 21
53.200000000137287
 31
0.0
  0
LINE
  5
1AE7
  8
0
 10
84.000000003038508
 20
53.000000000137291
 30
0.0
 11
96.000000003038494
 21
53.000000000137291
 31
0.0
  0
LINE
  5
1AE8
  8
0
 10
84.000000003038508
 20
53.200000000137287
 30
0.0
 11
84.000000003038508
 21
53.000000000137291
 31
0.0
  0
LINE
  5
1AE9
  8
0
 10
96.000000003038494
 20
53.000000000137291
 30
0.0
 11
96.000000003038494
 21
53.200000000137287
 31
0.0
  0
LINE
  5
1AEA
  8
0
 10
81.571428574467049
 20
58.500000000137291
 30
0.0
 11
98.428571431609953
 21
58.500000000137291
 31
0.0
  0
ARC
  5
1AEB
  8
0
 10
89.999999999999318
 20
-174.53333333332699
 30
0.0
 40
334.53333333332711
 50
83.669650268395628
 51
96.330349731604358
  0
ARC
  5
1AEC
  8
0
 10
89.999999999999318
 20
474.53333333332688
 30
0.0
 40
334.53333333332711
 50
263.66965026839563
 51
276.33034973160437
  0
ARC
  5
1AED
  8
0
 10
126.49999999999891
 20
154.4815869632628
 30
0.0
 40
3.5000000000035252
 50
359.99999990156829
 51
83.669650268395628
  0
ARC
  5
1AEE
  8
0
 10
126.49999999999891
 20
145.5184130367372
 30
0.0
 40
3.5000000000035252
 50
276.33034973160437
 51
0.0000000984329258
  0
ARC
  5
1AEF
  8
0
 10
53.500000000000909
 20
154.4815869632628
 30
0.0
 40
3.5000000000035252
 50
96.330349731604358
 51
180.00000009843171
  0
ARC
  5
1AF0
  8
0
 10
53.500000000000909
 20
145.5184130367372
 30
0.0
 40
3.5000000000035252
 50
179.99999990156701
 51
263.66965026839563
  0
CIRCLE
  5
1AF1
  8
0
 10
89.999999999999943
 20
150.0
 30
0.0
 40
6.0
  0
ARC
  5
1AF2
  8
0
 10
52.505577892964929
 20
95.765785136493591
 30
0.0
 40
2.5055830522264588
 50
95.396394875753529
 51
179.8836932489761
  0
ARC
  5
1AF3
  8
0
 10
90.0
 20
-309.99999996638229
 30
0.0
 40
409.99999996638229
 50
84.719911875297171
 51
95.280088124702843
  0
ARC
  5
1AF4
  8
0
 10
127.49442211311199
 20
95.765785136493591
 30
0.0
 40
2.5055830522264588
 50
0.1163067510238565
 51
84.603605124246457
  0
LINE
  5
1AF5
  8
0
 10
80.000000003038508
 20
60.071428571565868
 30
0.0
 11
81.571428574467049
 21
58.500000000137291
 31
0.0
  0
LINE
  5
1AF6
  8
0
 10
100.00000000303849
 20
60.071428571565868
 30
0.0
 11
98.428571431609953
 21
58.500000000137291
 31
0.0
  0
ARC
  5
1AF7
  8
0
 10
110.0076290022036
 20
76.071653889892261
 30
0.0
 40
10.00762955856105
 50
132.6542513541294
 51
179.98084281624591
  0
ARC
  5
1AF8
  8
0
 10
110.0119076633474
 20
76.044486046320841
 30
0.0
 40
10.030521021865241
 50
90.068018285223573
 51
132.56707588514951
  0
ARC
  5
1AF9
  8
0
 10
69.992371003873359
 20
76.071653889892261
 30
0.0
 40
10.00762955856105
 50
0.0191571837540336
 51
47.345748645870721
  0
ARC
  5
1AFA
  8
0
 10
69.988092342729544
 20
76.044486046320841
 30
0.0
 40
10.030521021865241
 50
47.432924114850479
 51
89.931981714776427
  0
LINE
  5
1AFB
  8
0
 10
80.000000003038508
 20
60.071428571565868
 30
0.0
 11
100.00000000303849
 21
60.071428571565868
 31
0.0
  0
LINE
  5
1AFC
  8
0
 10
189.93221035332789
 20
60.071428571428413
 30
0.0
 11
170.06778964667191
 21
60.071428571428413
 31
0.0
  0
ARC
  5
1AFD
  8
0
 10
52.500135305704639
 20
87.330147576071695
 30
0.0
 40
2.5001353072889341
 50
179.99651575941959
 51
276.66252524161342
  0
ARC
  5
1AFE
  8
0
 10
127.4998647003723
 20
87.330147576071838
 30
0.0
 40
2.5001353072889341
 50
263.33747475838658
 51
0.003484240580357
  0
LINE
  5
1AFF
  8
0
 10
126.8859128013469
 20
84.884469427066136
 30
0.0
 11
127.209796199217
 21
84.846896316253336
 31
0.0
  0
LINE
  5
1B00
  8
0
 10
53.11408720473014
 20
84.884469427066136
 30
0.0
 11
52.79020380685995
 21
84.846896316253336
 31
0.0
  0
LINE
  5
1B29
  8
3
 10
96.809777075337905
 20
53.343397972937041
 30
0.0
 11
96.809777075337905
 21
58.500000000137291
 31
0.0
  0
LINE
  5
1B2A
  8
3
 10
95.775021912237364
 20
53.200000000137287
 30
0.0
 11
95.775021912237364
 21
58.500000000137291
 31
0.0
  0
LINE
  5
1B2B
  8
3
 10
94.985102807365124
 20
53.200000000137287
 30
0.0
 11
94.985102807365124
 21
58.500000000137291
 31
0.0
  0
LINE
  5
1B2C
  8
3
 10
94.04371387627485
 20
53.200000000137287
 30
0.0
 11
94.04371387627485
 21
58.500000000137291
 31
0.0
  0
LINE
  5
1B2D
  8
3
 10
92.979458745271899
 20
53.200000000137287
 30
0.0
 11
92.979458745271899
 21
58.500000000137291
 31
0.0
  0
LINE
  5
1B2E
  8
3
 10
91.824674267972725
 20
53.200000000137287
 30
0.0
 11
91.824674267972725
 21
58.500000000137291
 31
0.0
  0
LINE
  5
1B2F
  8
3
 10
90.614447986370948
 20
53.200000000137287
 30
0.0
 11
90.614447986370948
 21
58.500000000137291
 31
0.0
  0
LINE
  5
1B30
  8
3
 10
89.385552013628981
 20
53.200000000137287
 30
0.0
 11
89.385552013628981
 21
58.500000000137291
 31
0.0
  0
LINE
  5
1B31
  8
3
 10
88.175325732027204
 20
53.200000000137287
 30
0.0
 11
88.175325732027204
 21
58.500000000137291
 31
0.0
  0
LINE
  5
1B32
  8
3
 10
87.020541254728045
 20
53.200000000137287
 30
0.0
 11
87.020541254728045
 21
58.500000000137291
 31
0.0
  0
LINE
  5
1B33
  8
3
 10
85.956286123725093
 20
53.200000000137287
 30
0.0
 11
85.956286123725093
 21
58.500000000137291
 31
0.0
  0
LINE
  5
1B34
  8
3
 10
85.014897192634805
 20
53.200000000137287
 30
0.0
 11
85.014897192634805
 21
58.500000000137291
 31
0.0
  0
LINE
  5
1B35
  8
3
 10
84.22497808776258
 20
53.200000000137287
 30
0.0
 11
84.22497808776258
 21
58.500000000137291
 31
0.0
  0
LINE
  5
1B36
  8
3
 10
83.610530101391575
 20
53.200000000137287
 30
0.0
 11
83.610530101391575
 21
58.500000000137291
 31
0.0
  0
LINE
  5
1B37
  8
3
 10
83.190222924662038
 20
53.343397972937041
 30
0.0
 11
83.190222924662038
 21
58.500000000137291
 31
0.0
  0
LINE
  5
1B38
  8
3
 10
96.389469898608354
 20
53.200000000137287
 30
0.0
 11
96.389469898608354
 21
58.500000000137291
 31
0.0
  0
LINE
  5
1B4E
  8
3
 10
186.80977707533791
 20
53.343397972799579
 30
0.0
 11
186.80977707533791
 21
58.499999999999829
 31
0.0
  0
LINE
  5
1B4F
  8
3
 10
185.77502191223729
 20
53.199999999999832
 30
0.0
 11
185.77502191223729
 21
58.499999999999829
 31
0.0
  0
LINE
  5
1B50
  8
3
 10
184.98510280736511
 20
53.199999999999832
 30
0.0
 11
184.98510280736511
 21
58.499999999999829
 31
0.0
  0
LINE
  5
1B51
  8
3
 10
184.04371387627481
 20
53.199999999999832
 30
0.0
 11
184.04371387627481
 21
58.499999999999829
 31
0.0
  0
LINE
  5
1B52
  8
3
 10
182.9794587452719
 20
53.199999999999832
 30
0.0
 11
182.9794587452719
 21
58.499999999999829
 31
0.0
  0
LINE
  5
1B53
  8
3
 10
181.82467426797271
 20
53.199999999999832
 30
0.0
 11
181.82467426797271
 21
58.499999999999829
 31
0.0
  0
LINE
  5
1B54
  8
3
 10
180.614447986371
 20
53.199999999999832
 30
0.0
 11
180.614447986371
 21
58.499999999999829
 31
0.0
  0
LINE
  5
1B55
  8
3
 10
179.385552013629
 20
53.199999999999832
 30
0.0
 11
179.385552013629
 21
58.499999999999829
 31
0.0
  0
LINE
  5
1B56
  8
3
 10
178.1753257320272
 20
53.199999999999832
 30
0.0
 11
178.1753257320272
 21
58.499999999999829
 31
0.0
  0
LINE
  5
1B57
  8
3
 10
177.0205412547281
 20
53.199999999999832
 30
0.0
 11
177.0205412547281
 21
58.499999999999829
 31
0.0
  0
LINE
  5
1B58
  8
3
 10
175.95628612372511
 20
53.199999999999832
 30
0.0
 11
175.95628612372511
 21
58.499999999999829
 31
0.0
  0
LINE
  5
1B59
  8
3
 10
175.01489719263481
 20
53.199999999999832
 30
0.0
 11
175.01489719263481
 21
58.499999999999829
 31
0.0
  0
LINE
  5
1B5A
  8
3
 10
174.22497808776259
 20
53.199999999999832
 30
0.0
 11
174.22497808776259
 21
58.499999999999829
 31
0.0
  0
LINE
  5
1B5B
  8
3
 10
173.61053010139159
 20
53.199999999999832
 30
0.0
 11
173.61053010139159
 21
58.499999999999829
 31
0.0
  0
LINE
  5
1B5C
  8
3
 10
173.19022292466201
 20
53.343397972799593
 30
0.0
 11
173.19022292466201
 21
58.499999999999829
 31
0.0
  0
LINE
  5
1B5D
  8
3
 10
186.38946989860841
 20
53.199999999999832
 30
0.0
 11
186.38946989860841
 21
58.499999999999829
 31
0.0
  0
TEXT
  5
1C0D
  8
0
 62
     3
 10
0.0
 20
0.0
 30
0.0
 40
10.0
  1
STH80N-M8X20
  7
STANDARD1
  0
ENDSEC
  0
EOF
