  0
SECTION
  2
HEADER
  9
$ACADVER
  1
AC1009
  9
$INSBASE
 10
0.0
 20
0.0
 30
0.0
  9
$EXTMIN
 10
0.0
 20
-2.960436562073669
 30
0.0
  9
$EXTMAX
 10
279.31479122813209
 20
214.99999999999949
 30
0.0
  9
$LIMMIN
 10
0.0
 20
0.0
  9
$LIMMAX
 10
375.0
 20
270.0
  9
$ORTHOMODE
 70
     1
  9
$REGENMODE
 70
     1
  9
$FILLMODE
 70
     1
  9
$QTEXTMODE
 70
     0
  9
$MIRRTEXT
 70
     0
  9
$DRAGMODE
 70
     2
  9
$LTSCALE
 40
10.0
  9
$OSMODE
 70
    55
  9
$ATTMODE
 70
     1
  9
$TEXTSIZE
 40
0.2
  9
$TRACEWID
 40
0.05
  9
$TEXTSTYLE
  7
STANDARD
  9
$CLAYER
  8
0
  9
$CELTYPE
  6
BYLAYER
  9
$CECOLOR
 62
   256
  9
$DIMSCALE
 40
1.0
  9
$DIMASZ
 40
3.0
  9
$DIMEXO
 40
2.0
  9
$DIMDLI
 40
0.38
  9
$DIMRND
 40
0.0
  9
$DIMDLE
 40
0.0
  9
$DIMEXE
 40
2.0
  9
$DIMTP
 40
0.0
  9
$DIMTM
 40
0.0
  9
$DIMTXT
 40
3.2000000000000002
  9
$DIMCEN
 40
0.0
  9
$DIMTSZ
 40
0.0
  9
$DIMTOL
 70
     0
  9
$DIMLIM
 70
     0
  9
$DIMTIH
 70
     0
  9
$DIMTOH
 70
     0
  9
$DIMSE1
 70
     0
  9
$DIMSE2
 70
     0
  9
$DIMTAD
 70
     1
  9
$DIMZIN
 70
     0
  9
$DIMBLK
  1

  9
$DIMASO
 70
     1
  9
$DIMSHO
 70
     0
  9
$DIMPOST
  1

  9
$DIMAPOST
  1

  9
$DIMALT
 70
     0
  9
$DIMALTD
 70
     2
  9
$DIMALTF
 40
25.399999999999999
  9
$DIMLFAC
 40
1.0
  9
$DIMTOFL
 70
     1
  9
$DIMTVP
 40
1.6000000000000001
  9
$DIMTIX
 70
     1
  9
$DIMSOXD
 70
     0
  9
$DIMSAH
 70
     0
  9
$DIMBLK1
  1

  9
$DIMBLK2
  1

  9
$DIMSTYLE
  2
STANDARD
  9
$DIMCLRD
 70
     0
  9
$DIMCLRE
 70
     0
  9
$DIMCLRT
 70
     0
  9
$DIMTFAC
 40
1.0
  9
$DIMGAP
 40
0.09
  9
$LUNITS
 70
     2
  9
$LUPREC
 70
     4
  9
$SKETCHINC
 40
0.1
  9
$FILLETRAD
 40
1.5
  9
$AUNITS
 70
     0
  9
$AUPREC
 70
     4
  9
$MENU
  1
E:\r13\win\SUPPORT\ACAD
  9
$ELEVATION
 40
0.0
  9
$PELEVATION
 40
0.0
  9
$THICKNESS
 40
0.0
  9
$LIMCHECK
 70
     0
  9
$BLIPMODE
 70
     0
  9
$CHAMFERA
 40
0.0
  9
$CHAMFERB
 40
0.0
  9
$SKPOLY
 70
     0
  9
$TDCREATE
 40
2449839.7897453709
  9
$TDUPDATE
 40
2456598.5655653118
  9
$TDINDWG
 40
0.0001430208
  9
$TDUSRTIMER
 40
0.0001430208
  9
$USRTIMER
 70
     1
  9
$ANGBASE
 50
0.0
  9
$ANGDIR
 70
     0
  9
$PDMODE
 70
     0
  9
$PDSIZE
 40
0.0
  9
$PLINEWID
 40
0.0
  9
$COORDS
 70
     1
  9
$SPLFRAME
 70
     0
  9
$SPLINETYPE
 70
     6
  9
$SPLINESEGS
 70
     8
  9
$ATTDIA
 70
     0
  9
$ATTREQ
 70
     1
  9
$HANDLING
 70
     1
  9
$HANDSEED
  5
2B9
  9
$SURFTAB1
 70
     6
  9
$SURFTAB2
 70
     6
  9
$SURFTYPE
 70
     6
  9
$SURFU
 70
     6
  9
$SURFV
 70
     6
  9
$UCSNAME
  2

  9
$UCSORG
 10
0.0
 20
0.0
 30
0.0
  9
$UCSXDIR
 10
1.0
 20
0.0
 30
0.0
  9
$UCSYDIR
 10
0.0
 20
1.0
 30
0.0
  9
$PUCSNAME
  2

  9
$PUCSORG
 10
0.0
 20
0.0
 30
0.0
  9
$PUCSXDIR
 10
1.0
 20
0.0
 30
0.0
  9
$PUCSYDIR
 10
0.0
 20
1.0
 30
0.0
  9
$USERI1
 70
     0
  9
$USERI2
 70
     1
  9
$USERI3
 70
     1
  9
$USERI4
 70
     0
  9
$USERI5
 70
     0
  9
$USERR1
 40
0.0
  9
$USERR2
 40
0.0
  9
$USERR3
 40
0.0
  9
$USERR4
 40
0.0
  9
$USERR5
 40
0.0
  9
$WORLDVIEW
 70
     1
  9
$SHADEDGE
 70
     3
  9
$SHADEDIF
 70
    70
  9
$TILEMODE
 70
     1
  9
$MAXACTVP
 70
    16
  9
$PLIMCHECK
 70
     0
  9
$PEXTMIN
 10
1.0000000000000000E+020
 20
1.0000000000000000E+020
 30
1.0000000000000000E+020
  9
$PEXTMAX
 10
-1.0000000000000000E+020
 20
-1.0000000000000000E+020
 30
-1.0000000000000000E+020
  9
$PLIMMIN
 10
0.0
 20
0.0
  9
$PLIMMAX
 10
12.0
 20
9.0
  9
$UNITMODE
 70
     0
  9
$VISRETAIN
 70
     0
  9
$PLINEGEN
 70
     0
  9
$PSLTSCALE
 70
     0
  0
ENDSEC
  0
SECTION
  2
TABLES
  0
TABLE
  2
VPORT
 70
     1
  0
VPORT
  2
*ACTIVE
 70
     0
 10
0.0
 20
0.0
 11
1.0
 21
1.0
 12
187.4942783906524
 22
197.0509055860143
 13
0.0
 23
0.0
 14
10.0
 24
10.0
 15
10.0
 25
10.0
 16
0.0
 26
0.0
 36
1.0
 17
0.0
 27
0.0
 37
0.0
 40
403.57315882993248
 41
1.7807262569832401
 42
50.0
 43
0.0
 44
0.0
 50
0.0
 51
0.0
 71
     0
 72
   500
 73
     1
 74
     0
 75
     0
 76
     0
 77
     0
 78
     2
  0
ENDTAB
  0
TABLE
  2
LTYPE
 70
     3
  0
LTYPE
  2
CONTINUOUS
 70
     0
  3
Solid Line
 72
    65
 73
     0
 40
0.0
  0
LTYPE
  2
CENTER
 70
     0
  3
____ _ ____ _ ____ _ ____ _ ____ _ ____ _ ____
 72
    65
 73
     4
 40
2.0
 49
1.25
 49
-0.25
 49
0.25
 49
-0.25
  0
LTYPE
  2
PHANTOM2
 70
     0
  3
___ _ _ ___ _ _ ___ _ _ ___ _ _
 72
    65
 73
     6
 40
1.25
 49
0.625
 49
-0.125
 49
0.125
 49
-0.125
 49
0.125
 49
-0.125
  0
ENDTAB
  0
TABLE
  2
LAYER
 70
     3
  0
LAYER
  2
0
 70
     0
 62
     7
  6
CONTINUOUS
  0
LAYER
  2
1
 70
     0
 62
     1
  6
CENTER
  0
LAYER
  2
3
 70
     0
 62
     3
  6
CONTINUOUS
  0
ENDTAB
  0
TABLE
  2
STYLE
 70
     2
  0
STYLE
  2
STANDARD
 70
     0
 40
0.0
 41
1.0
 50
0.0
 71
     0
 42
0.2
  3
TXT
  4
BIGFONT
  0
STYLE
  2
STANDARD1
 70
     0
 40
0.0
 41
1.0
 50
0.0
 71
     0
 42
3.0
  3
txt
  4

  0
ENDTAB
  0
TABLE
  2
VIEW
 70
     1
  0
VIEW
  2
ALL
 70
     0
 40
270.0
 10
220.99159663865549
 20
135.0
 41
0.0
 11
0.0
 21
0.0
 31
1.0
 12
0.0
 22
0.0
 32
0.0
 42
0.0
 43
0.0
 44
0.0
 50
0.0
 71
     0
  0
ENDTAB
  0
TABLE
  2
UCS
 70
     0
  0
ENDTAB
  0
TABLE
  2
APPID
 70
     3
  0
APPID
  2
ACAD
 70
     0
  0
APPID
  2
ACAD_MLEADERVER
 70
     0
  0
APPID
  2
ACAD_NAV_VCDISPLAY
 70
     0
  0
ENDTAB
  0
TABLE
  2
DIMSTYLE
 70
     1
  0
DIMSTYLE
  2
STANDARD
 70
     0
  3

  4

  5

  6

  7

 40
1.0
 41
0.18
 42
0.0625
 43
0.38
 44
0.18
 45
0.0
 46
0.0
 47
0.0
 48
0.0
140
0.18
141
0.09
142
0.0
143
25.399999999999999
144
1.0
145
0.0
146
1.0
147
0.09
 71
     0
 72
     0
 73
     1
 74
     1
 75
     0
 76
     0
 77
     0
 78
     0
170
     0
171
     2
172
     0
173
     0
174
     0
175
     0
176
     0
177
     0
178
     0
  0
ENDTAB
  0
ENDSEC
  0
SECTION
  2
BLOCKS
  0
BLOCK
  8
0
  2
$MODEL_SPACE
 70
     0
 10
0.0
 20
0.0
 30
0.0
  3
$MODEL_SPACE
  1

  0
ENDBLK
  5
13A
  8
0
  0
BLOCK
 67
     1
  8
0
  2
$PAPER_SPACE
 70
     0
 10
0.0
 20
0.0
 30
0.0
  3
$PAPER_SPACE
  1

  0
ENDBLK
  5
138
 67
     1
  8
0
  0
ENDSEC
  0
SECTION
  2
ENTITIES
  0
LINE
  5
34
  8
0
 10
254.5
 20
104.9999999999999
 30
0.0
 11
265.5
 21
104.9999999999999
 31
0.0
  0
LINE
  5
35
  8
0
 10
252.20000000000019
 20
131.99999999999989
 30
0.0
 11
267.79999999999973
 21
131.99999999999989
 31
0.0
  0
LINE
  5
36
  8
1
 10
260.0
 20
136.99999999999989
 30
0.0
 11
260.0
 21
64.999999999999901
 31
0.0
  0
LINE
  5
37
  8
0
 10
251.5
 20
116.9999999999999
 30
0.0
 11
251.5
 21
106.2999999999999
 31
0.0
  0
LINE
  5
38
  8
0
 10
268.5
 20
116.9999999999999
 30
0.0
 11
268.5
 21
106.2999999999999
 31
0.0
  0
LINE
  5
39
  8
0
 10
265.5
 20
105.2999999999999
 30
0.0
 11
265.5
 21
104.9999999999999
 31
0.0
  0
LINE
  5
3A
  8
0
 10
252.5
 20
105.2999999999999
 30
0.0
 11
267.5
 21
105.2999999999999
 31
0.0
  0
LINE
  5
3B
  8
0
 10
248.00000000000011
 20
116.9999999999999
 30
0.0
 11
271.99999999999989
 21
116.9999999999999
 31
0.0
  0
LINE
  5
3C
  8
0
 10
267.5
 20
105.2999999999999
 30
0.0
 11
268.5
 21
106.2999999999999
 31
0.0
  0
LINE
  5
3D
  8
0
 10
252.5
 20
105.2999999999999
 30
0.0
 11
251.5
 21
106.2999999999999
 31
0.0
  0
LINE
  5
3E
  8
0
 10
268.5
 20
106.2999999999999
 30
0.0
 11
251.5
 21
106.2999999999999
 31
0.0
  0
LINE
  5
3F
  8
0
 10
240.68520877186771
 20
128.48639036639941
 30
0.0
 11
240.68520877186771
 21
119.8819064943017
 31
0.0
  0
LINE
  5
40
  8
0
 10
279.31479122813209
 20
128.48639036639949
 30
0.0
 11
279.31479122813209
 21
119.8819064943016
 31
0.0
  0
LINE
  5
41
  8
0
 10
248.0
 20
116.9999999999999
 30
0.0
 11
241.84778219035189
 21
118.4203513971238
 31
0.0
  0
LINE
  5
42
  8
0
 10
272.0
 20
116.9999999999999
 30
0.0
 11
278.15221780964788
 21
118.4203513971238
 31
0.0
  0
ARC
  5
43
  8
0
 10
260.0
 20
65.455578746223864
 30
0.0
 40
67.0
 50
74.217785562347473
 51
83.314585291718316
  0
ARC
  5
44
  8
0
 10
242.18520877186771
 20
128.48639036639941
 30
0.0
 40
1.5
 50
105.7822144376524
 51
179.9999999999994
  0
ARC
  5
45
  8
0
 10
242.18520877186771
 20
119.8819064943017
 30
0.0
 40
1.5
 50
179.9999999999998
 51
257.00000000000023
  0
ARC
  5
46
  8
0
 10
277.81479122813209
 20
119.8819064943016
 30
0.0
 40
1.5
 50
282.99999999999977
 51
0.0
  0
ARC
  5
47
  8
0
 10
277.81479122813209
 20
128.48639036639941
 30
0.0
 40
1.5
 50
0.0000000000002714
 51
74.2177855623477
  0
ARC
  5
48
  8
0
 10
260.0
 20
65.455578746223864
 30
0.0
 40
67.0
 50
96.685414708281741
 51
105.7822144376525
  0
ARC
  5
49
  8
0
 10
260.0
 20
112.3999572207312
 30
0.0
 40
18.0
 50
74.179646151166224
 51
105.82035155400121
  0
ARC
  5
4A
  8
0
 10
268.9965271077233
 20
144.14995722073121
 30
0.0
 40
15.0
 50
254.17964802024369
 51
281.83147148458642
  0
ARC
  5
4B
  8
0
 10
275.76263746415771
 20
111.8510446903604
 30
0.0
 40
18.0
 50
80.176043461223756
 51
101.83146655077
  0
ARC
  5
4C
  8
0
 10
260.0
 20
135.89995722073121
 30
0.0
 40
18.0
 50
254.17964844599891
 51
285.8203538488338
  0
ARC
  5
4D
  8
0
 10
268.9965271077233
 20
104.1499572207312
 30
0.0
 40
15.0
 50
78.168528515413584
 51
105.8203519797563
  0
ARC
  5
4E
  8
0
 10
275.76263746415771
 20
136.44886975110211
 30
0.0
 40
18.0
 50
258.16853344922998
 51
279.49768506896481
  0
LINE
  5
4F
  8
0
 10
268.22899353209459
 20
128.1683774424277
 30
0.0
 11
268.22899353209459
 21
120.13153699903479
 31
0.0
  0
LINE
  5
50
  8
0
 10
274.22899353209459
 20
128.78172501601901
 30
0.0
 11
274.22899353209459
 21
119.5181894254433
 31
0.0
  0
LINE
  5
51
  8
0
 10
254.5
 20
105.2999999999999
 30
0.0
 11
254.5
 21
104.9999999999999
 31
0.0
  0
LINE
  5
52
  8
0
 10
245.77100646790541
 20
128.78172501601901
 30
0.0
 11
245.77100646790541
 21
119.5181894254433
 31
0.0
  0
LINE
  5
53
  8
0
 10
251.77100646790541
 20
128.1683774424277
 30
0.0
 11
251.77100646790541
 21
120.13153699903479
 31
0.0
  0
ARC
  5
54
  8
0
 10
251.0034728922767
 20
144.14995722073121
 30
0.0
 40
15.0
 50
258.16852851541358
 51
285.82035197975642
  0
ARC
  5
55
  8
0
 10
244.23736253584229
 20
111.8510446903604
 30
0.0
 40
18.0
 50
78.168533449230011
 51
99.823956538776272
  0
ARC
  5
56
  8
0
 10
251.0034728922767
 20
104.1499572207312
 30
0.0
 40
15.0
 50
74.179648020243704
 51
101.8314714845864
  0
ARC
  5
57
  8
0
 10
244.23736253584229
 20
136.44886975110211
 30
0.0
 40
18.0
 50
260.5023149310353
 51
281.83146655077007
  0
CIRCLE
  5
58
  8
0
 10
190.0
 20
190.0
 30
0.0
 40
6.5000000000000098
  0
CIRCLE
  5
59
  8
0
 10
190.0
 20
190.0
 30
0.0
 40
7.7999999999998257
  0
ARC
  5
5A
  8
0
 10
190.0
 20
65.455578746223864
 30
0.0
 40
67.0
 50
96.685414708281741
 51
106.4060497932867
  0
ARC
  5
5B
  8
0
 10
190.0
 20
65.455578746223864
 30
0.0
 40
67.0
 50
76.017710871917373
 51
83.314585291718316
  0
LINE
  5
5C
  8
0
 10
202.0
 20
116.9999999999999
 30
0.0
 11
206.1636645027649
 21
117.9612576922069
 31
0.0
  0
LINE
  5
5D
  8
0
 10
178.0
 20
116.9999999999999
 30
0.0
 11
171.1625734184841
 21
118.57854430682831
 31
0.0
  0
LINE
  5
5E
  8
0
 10
198.49999999999989
 20
106.2999999999999
 30
0.0
 11
181.5
 21
106.2999999999999
 31
0.0
  0
LINE
  5
5F
  8
0
 10
182.5
 20
105.2999999999999
 30
0.0
 11
181.49999999999989
 21
106.2999999999999
 31
0.0
  0
LINE
  5
60
  8
0
 10
197.5
 20
105.2999999999999
 30
0.0
 11
198.49999999999989
 21
106.2999999999999
 31
0.0
  0
LINE
  5
61
  8
0
 10
178.00000000000011
 20
116.9999999999999
 30
0.0
 11
201.99999999999989
 21
116.9999999999999
 31
0.0
  0
LINE
  5
62
  8
0
 10
182.5
 20
105.2999999999999
 30
0.0
 11
197.5
 21
105.2999999999999
 31
0.0
  0
LINE
  5
63
  8
0
 10
198.49999999999989
 20
116.9999999999999
 30
0.0
 11
198.49999999999989
 21
106.2999999999999
 31
0.0
  0
LINE
  5
64
  8
0
 10
181.49999999999989
 20
116.9999999999999
 30
0.0
 11
181.49999999999989
 21
106.2999999999999
 31
0.0
  0
LINE
  5
65
  8
1
 10
190.0
 20
136.99999999999989
 30
0.0
 11
189.99999999999989
 21
64.999999999999901
 31
0.0
  0
LINE
  5
66
  8
0
 10
182.20000000000019
 20
131.99999999999989
 30
0.0
 11
197.7999999999997
 21
131.99999999999989
 31
0.0
  0
ARC
  5
67
  8
0
 10
198.4470104467249
 20
215.99722499023181
 30
0.0
 40
12.0
 50
224.79558208140961
 51
279.20439232567492
  0
ARC
  5
68
  8
0
 10
167.88543954714959
 20
206.06716865714171
 30
0.0
 40
12.0
 50
296.79558208140958
 51
351.20439232567492
  0
ARC
  5
69
  8
0
 10
167.88543954714919
 20
173.93283134285869
 30
0.0
 40
12.0
 50
8.7955820814095631
 51
63.204392325674903
  0
ARC
  5
6A
  8
0
 10
198.44701044672439
 20
164.00277500976799
 30
0.0
 40
12.0
 50
80.795582081409563
 51
135.2043923256748
  0
ARC
  5
6B
  8
0
 10
217.3351000122519
 20
189.99999999999969
 30
0.0
 40
12.0
 50
152.79558208140949
 51
207.20439232567489
  0
ARC
  5
6C
  8
0
 10
201.32623792124909
 20
181.77100646790529
 30
0.0
 40
5.9999999999999858
 50
260.79562050082268
 51
27.204430685002201
  0
ARC
  5
6D
  8
0
 10
185.67376207875071
 20
176.68520877186771
 30
0.0
 40
5.999999999999968
 50
188.7956205008108
 51
315.20443068500828
  0
ARC
  5
6E
  8
0
 10
176.0
 20
190.0
 30
0.0
 40
6.0
 50
116.79562050082291
 51
243.20443068501359
  0
ARC
  5
6F
  8
0
 10
185.67376207875071
 20
203.31479122813201
 30
0.0
 40
6.0000000000000586
 50
44.795620500832307
 51
171.20443068501751
  0
ARC
  5
70
  8
0
 10
201.32623792124929
 20
198.22899353209459
 30
0.0
 40
5.9999999999999982
 50
332.79562050082279
 51
99.204430684999053
  0
LINE
  5
71
  8
1
 10
214.99999999999929
 20
190.0
 30
0.0
 11
165.0000000000006
 21
190.0
 31
0.0
  0
LINE
  5
72
  8
1
 10
190.0
 20
214.99999999999949
 30
0.0
 11
190.0
 21
165.00000000000071
 31
0.0
  0
LINE
  5
73
  8
0
 10
114.5
 20
105.2999999999999
 30
0.0
 11
114.5
 21
104.9999999999999
 31
0.0
  0
ARC
  5
74
  8
0
 10
120.0
 20
65.455578746223864
 30
0.0
 40
67.0
 50
96.685414708281741
 51
105.7822144376525
  0
ARC
  5
75
  8
0
 10
137.81479122813201
 20
128.48639036639941
 30
0.0
 40
1.5
 50
0.0000000000002714
 51
74.2177855623477
  0
ARC
  5
76
  8
0
 10
137.81479122813209
 20
119.8819064943016
 30
0.0
 40
1.5
 50
282.99999999999977
 51
0.0
  0
ARC
  5
77
  8
0
 10
102.18520877186771
 20
119.8819064943017
 30
0.0
 40
1.5
 50
179.9999999999998
 51
257.00000000000023
  0
ARC
  5
78
  8
0
 10
102.18520877186771
 20
128.48639036639941
 30
0.0
 40
1.5
 50
105.7822144376524
 51
179.9999999999994
  0
ARC
  5
79
  8
0
 10
119.9999999999999
 20
65.455578746223864
 30
0.0
 40
67.0
 50
74.217785562347473
 51
83.314585291718316
  0
LINE
  5
7A
  8
0
 10
132.0
 20
116.9999999999999
 30
0.0
 11
138.15221780964791
 21
118.4203513971238
 31
0.0
  0
LINE
  5
7B
  8
0
 10
108.0
 20
116.9999999999999
 30
0.0
 11
101.84778219035189
 21
118.4203513971238
 31
0.0
  0
LINE
  5
7C
  8
0
 10
139.31479122813201
 20
128.48639036639949
 30
0.0
 11
139.31479122813209
 21
119.8819064943016
 31
0.0
  0
LINE
  5
7D
  8
0
 10
100.68520877186771
 20
128.48639036639941
 30
0.0
 11
100.68520877186771
 21
119.8819064943017
 31
0.0
  0
LINE
  5
7E
  8
0
 10
128.49999999999989
 20
106.2999999999999
 30
0.0
 11
111.5
 21
106.2999999999999
 31
0.0
  0
LINE
  5
7F
  8
0
 10
112.5
 20
105.2999999999999
 30
0.0
 11
111.4999999999999
 21
106.2999999999999
 31
0.0
  0
LINE
  5
80
  8
0
 10
127.4999999999999
 20
105.2999999999999
 30
0.0
 11
128.49999999999989
 21
106.2999999999999
 31
0.0
  0
LINE
  5
81
  8
0
 10
108.0000000000001
 20
116.9999999999999
 30
0.0
 11
131.99999999999989
 21
116.9999999999999
 31
0.0
  0
LINE
  5
82
  8
0
 10
112.5
 20
105.2999999999999
 30
0.0
 11
127.4999999999999
 21
105.2999999999999
 31
0.0
  0
LINE
  5
83
  8
0
 10
125.4999999999999
 20
105.2999999999999
 30
0.0
 11
125.4999999999999
 21
104.9999999999999
 31
0.0
  0
LINE
  5
84
  8
0
 10
128.49999999999989
 20
116.9999999999999
 30
0.0
 11
128.49999999999989
 21
106.2999999999999
 31
0.0
  0
LINE
  5
85
  8
0
 10
111.4999999999999
 20
116.9999999999999
 30
0.0
 11
111.4999999999999
 21
106.2999999999999
 31
0.0
  0
LINE
  5
86
  8
1
 10
119.9999999999999
 20
136.99999999999989
 30
0.0
 11
119.9999999999999
 21
64.999999999999901
 31
0.0
  0
LINE
  5
87
  8
0
 10
112.2000000000002
 20
131.99999999999989
 30
0.0
 11
127.7999999999997
 21
131.99999999999989
 31
0.0
  0
LINE
  5
88
  8
0
 10
114.5
 20
104.9999999999999
 30
0.0
 11
125.4999999999999
 21
104.9999999999999
 31
0.0
  0
LINE
  5
89
  8
0
 10
207.32623792124909
 20
129.01484395012631
 30
0.0
 11
207.32623792124909
 21
119.42281278938481
 31
0.0
  0
LINE
  5
8A
  8
0
 10
169.99999999999989
 20
128.28869103584381
 30
0.0
 11
169.99999999999989
 21
120.0400994040062
 31
0.0
  0
ARC
  5
8B
  8
0
 10
171.49999999999989
 20
128.28869103584381
 30
0.0
 40
1.5
 50
106.4060497932865
 51
180.0
  0
ARC
  5
8C
  8
0
 10
171.49999999999989
 20
120.0400994040062
 30
0.0
 40
1.5
 50
180.0
 51
257.0
  0
ARC
  5
8D
  8
0
 10
205.82623792124909
 20
129.01484395012631
 30
0.0
 40
1.5
 50
0.0
 51
76.017710871917018
  0
ARC
  5
8E
  8
0
 10
205.82623792124909
 20
119.42281278938481
 30
0.0
 40
1.5
 50
282.9999999999996
 51
0.0
  0
ARC
  5
8F
  8
0
 10
184.83791753330561
 20
139.73810765636151
 30
0.0
 40
10.637000170709531
 50
248.9780844122686
 51
286.9622510417384
  0
ARC
  5
90
  8
0
 10
193.54836577693931
 20
111.1801859941251
 30
0.0
 40
19.219771226606099
 50
75.238478096334333
 51
106.9622086622711
  0
ARC
  5
91
  8
0
 10
203.1981892938135
 20
147.80282355685191
 30
0.0
 40
18.65286633612072
 50
255.23844195038811
 51
282.4288362874932
  0
ARC
  5
92
  8
0
 10
177.8374266011796
 20
121.5220425572106
 30
0.0
 40
8.8779146635206416
 50
68.978065223234879
 51
108.7636929272574
  0
ARC
  5
93
  8
0
 10
170.27190373015449
 20
143.79189708201201
 30
0.0
 40
14.64193986128077
 50
269.99999982353847
 51
288.7636557117915
  0
ARC
  5
94
  8
0
 10
193.54836577693931
 20
137.11972844733731
 30
0.0
 40
19.219771226606099
 50
253.03779133772889
 51
284.76152190366571
  0
ARC
  5
95
  8
0
 10
184.83791753330561
 20
108.5618067851009
 30
0.0
 40
10.637000170709531
 50
73.037748958261631
 51
111.0219155877314
  0
ARC
  5
96
  8
0
 10
203.1981892938135
 20
100.4970908846105
 30
0.0
 40
18.65286633612072
 50
77.57116371250676
 51
104.76155804961191
  0
ARC
  5
97
  8
0
 10
177.8374266011796
 20
126.77787188425189
 30
0.0
 40
8.8779146635206416
 50
251.23630707274259
 51
291.02193477676508
  0
ARC
  5
98
  8
0
 10
170.27190373015449
 20
104.50801735945051
 30
0.0
 40
14.64193986128077
 50
71.236344288208443
 51
90.000000176461512
  0
LINE
  5
99
  8
0
 10
200.36649807738661
 20
128.35502984958919
 30
0.0
 11
200.36649807738661
 21
119.94488459187301
 31
0.0
  0
LINE
  5
9A
  8
0
 10
189.93151342159749
 20
129.03735381518581
 30
0.0
 11
189.93151342159749
 21
119.2625606262767
 31
0.0
  0
LINE
  5
9B
  8
0
 10
179.74432164501599
 20
129.1656863700463
 30
0.0
 11
179.74432164501599
 21
119.1342280714159
 31
0.0
  0
LINE
  5
9C
  8
0
 10
173.2951489061428
 20
128.44490157051899
 30
0.0
 11
173.2951489061428
 21
119.8550128709434
 31
0.0
  0
ARC
  5
9D
  8
0
 10
110.20601529939781
 20
122.1391963090537
 30
0.0
 40
8.2975265730971497
 50
75.030323867154237
 51
110.906803471424
  0
ARC
  5
9E
  8
0
 10
129.7939847006021
 20
122.1391963090537
 30
0.0
 40
8.2975265730971497
 50
69.093193114584878
 51
104.9696688444957
  0
ARC
  5
9F
  8
0
 10
119.9999999999999
 20
158.76838733992881
 30
0.0
 40
29.61843011919759
 50
255.03032853223479
 51
284.96967350957681
  0
ARC
  5
A0
  8
0
 10
136.76840154254961
 20
140.3968813820276
 30
0.0
 40
11.246924161296389
 50
249.09319594925341
 51
281.55435041805248
  0
ARC
  5
A1
  8
0
 10
103.2315984574503
 20
140.3968813820276
 30
0.0
 40
11.246924161296389
 50
258.44564958194752
 51
290.90680405074659
  0
ARC
  5
A2
  8
0
 10
119.9999999999999
 20
89.531527101533655
 30
0.0
 40
29.61843011919759
 50
75.030326490423207
 51
104.9696714677652
  0
ARC
  5
A3
  8
0
 10
129.7939847006021
 20
126.1607181324087
 30
0.0
 40
8.2975265730971497
 50
255.03033115550431
 51
290.90680688541522
  0
ARC
  5
A4
  8
0
 10
110.20601529939781
 20
126.1607181324087
 30
0.0
 40
8.2975265730971497
 50
249.09319652857599
 51
284.96967613284579
  0
ARC
  5
A5
  8
0
 10
136.76840154254961
 20
107.9030330594348
 30
0.0
 40
11.246924161296389
 50
78.445649581947507
 51
110.9068040507465
  0
ARC
  5
A6
  8
0
 10
103.2315984574503
 20
107.9030330594348
 30
0.0
 40
11.246924161296389
 50
69.093195949253413
 51
101.55435041805239
  0
LINE
  5
A7
  8
0
 10
105.7677522753593
 20
128.41543425638989
 30
0.0
 11
105.7677522753593
 21
119.8844801850725
 31
0.0
  0
LINE
  5
A8
  8
0
 10
114.6442783234363
 20
128.62200267630161
 30
0.0
 11
114.6442783234363
 21
119.6779117651608
 31
0.0
  0
LINE
  5
A9
  8
0
 10
125.3557240929736
 20
128.62200310559439
 30
0.0
 11
125.3557240929736
 21
119.6779113358681
 31
0.0
  0
LINE
  5
AA
  8
0
 10
134.232253021773
 20
128.41543313512909
 30
0.0
 11
134.232253021773
 21
119.8844813063334
 31
0.0
  0
LINE
  5
B2
  8
0
 10
184.99999999999989
 20
104.9999999999999
 30
0.0
 11
194.99999999999989
 21
104.9999999999999
 31
0.0
  0
LINE
  5
B3
  8
0
 10
184.99999999999989
 20
105.2999999999999
 30
0.0
 11
184.99999999999989
 21
104.9999999999999
 31
0.0
  0
LINE
  5
B4
  8
3
 10
186.67649999999989
 20
102.4999999999998
 30
0.0
 11
186.0
 21
103.67173237131991
 31
0.0
  0
LINE
  5
B5
  8
3
 10
193.3235
 20
102.4999999999998
 30
0.0
 11
194.0
 21
103.67173237131991
 31
0.0
  0
LINE
  5
B6
  8
0
 10
194.0
 20
102.4999999999998
 30
0.0
 11
185.99999999999989
 21
102.4999999999999
 31
0.0
  0
LINE
  5
B7
  8
0
 10
194.0
 20
71.199999999999804
 30
0.0
 11
185.99999999999989
 21
71.199999999999946
 31
0.0
  0
LINE
  5
B8
  8
0
 10
187.1999999999999
 20
69.999999999999901
 30
0.0
 11
185.99999999999989
 21
71.199999999999946
 31
0.0
  0
LINE
  5
B9
  8
0
 10
193.99999999999989
 20
71.199999999999875
 30
0.0
 11
192.7999999999999
 21
69.999999999999901
 31
0.0
  0
LINE
  5
BA
  8
0
 10
194.0
 20
104.9999999999999
 30
0.0
 11
193.99999999999989
 21
71.199999999999875
 31
0.0
  0
LINE
  5
BB
  8
3
 10
193.3235
 20
102.4999999999998
 30
0.0
 11
193.3235
 21
70.523499999999942
 31
0.0
  0
LINE
  5
BC
  8
3
 10
186.67649999999989
 20
102.4999999999999
 30
0.0
 11
186.67649999999989
 21
70.523500000000013
 31
0.0
  0
LINE
  5
BD
  8
0
 10
185.99999999999989
 20
104.9999999999999
 30
0.0
 11
185.99999999999989
 21
71.199999999999946
 31
0.0
  0
LINE
  5
BE
  8
0
 10
192.7999999999999
 20
69.999999999999901
 30
0.0
 11
187.1999999999999
 21
69.999999999999901
 31
0.0
  0
LINE
  5
BF
  8
0
 10
194.99999999999989
 20
105.2999999999999
 30
0.0
 11
194.99999999999989
 21
104.9999999999999
 31
0.0
  0
LINE
  5
C0
  8
0
 10
264.99999999999989
 20
105.2999999999999
 30
0.0
 11
264.99999999999989
 21
104.9999999999999
 31
0.0
  0
LINE
  5
C1
  8
0
 10
262.80000000000001
 20
69.999999999999901
 30
0.0
 11
257.19999999999987
 21
69.999999999999901
 31
0.0
  0
LINE
  5
C2
  8
0
 10
255.99999999999989
 20
104.9999999999999
 30
0.0
 11
255.99999999999989
 21
71.199999999999946
 31
0.0
  0
LINE
  5
C3
  8
3
 10
256.67649999999992
 20
102.4999999999999
 30
0.0
 11
256.67649999999992
 21
70.523500000000013
 31
0.0
  0
LINE
  5
C4
  8
3
 10
263.32349999999991
 20
102.4999999999998
 30
0.0
 11
263.32349999999991
 21
70.523499999999942
 31
0.0
  0
LINE
  5
C5
  8
0
 10
264.0
 20
104.9999999999999
 30
0.0
 11
263.99999999999989
 21
71.199999999999875
 31
0.0
  0
LINE
  5
C6
  8
0
 10
263.99999999999989
 20
71.199999999999875
 30
0.0
 11
262.80000000000001
 21
69.999999999999901
 31
0.0
  0
LINE
  5
C7
  8
0
 10
257.19999999999987
 20
69.999999999999901
 30
0.0
 11
255.99999999999989
 21
71.199999999999946
 31
0.0
  0
LINE
  5
C8
  8
0
 10
264.0
 20
71.199999999999804
 30
0.0
 11
255.99999999999989
 21
71.199999999999946
 31
0.0
  0
LINE
  5
C9
  8
0
 10
264.0
 20
102.4999999999998
 30
0.0
 11
255.99999999999989
 21
102.4999999999999
 31
0.0
  0
LINE
  5
CA
  8
3
 10
263.32349999999991
 20
102.4999999999998
 30
0.0
 11
264.0
 21
103.67173237131991
 31
0.0
  0
LINE
  5
CB
  8
3
 10
256.67649999999992
 20
102.4999999999998
 30
0.0
 11
256.0
 21
103.67173237131991
 31
0.0
  0
LINE
  5
CC
  8
0
 10
254.99999999999989
 20
105.2999999999999
 30
0.0
 11
254.99999999999989
 21
104.9999999999999
 31
0.0
  0
LINE
  5
CD
  8
0
 10
254.99999999999989
 20
104.9999999999999
 30
0.0
 11
264.99999999999989
 21
104.9999999999999
 31
0.0
  0
LINE
  5
CE
  8
0
 10
124.9999999999999
 20
105.2999999999999
 30
0.0
 11
124.9999999999999
 21
104.9999999999999
 31
0.0
  0
LINE
  5
CF
  8
0
 10
122.7999999999999
 20
69.999999999999901
 30
0.0
 11
117.1999999999999
 21
69.999999999999901
 31
0.0
  0
LINE
  5
D0
  8
0
 10
115.9999999999998
 20
104.9999999999999
 30
0.0
 11
115.9999999999998
 21
71.199999999999946
 31
0.0
  0
LINE
  5
D1
  8
3
 10
116.6764999999999
 20
102.4999999999999
 30
0.0
 11
116.6764999999999
 21
70.523500000000013
 31
0.0
  0
LINE
  5
D2
  8
3
 10
123.3235
 20
102.4999999999998
 30
0.0
 11
123.3235
 21
70.523499999999942
 31
0.0
  0
LINE
  5
D3
  8
0
 10
123.9999999999999
 20
104.9999999999999
 30
0.0
 11
123.9999999999998
 21
71.199999999999875
 31
0.0
  0
LINE
  5
D4
  8
0
 10
123.9999999999998
 20
71.199999999999875
 30
0.0
 11
122.7999999999999
 21
69.999999999999901
 31
0.0
  0
LINE
  5
D5
  8
0
 10
117.1999999999999
 20
69.999999999999901
 30
0.0
 11
115.9999999999998
 21
71.199999999999946
 31
0.0
  0
LINE
  5
D6
  8
0
 10
123.9999999999999
 20
71.199999999999804
 30
0.0
 11
115.9999999999998
 21
71.199999999999946
 31
0.0
  0
LINE
  5
D7
  8
0
 10
123.9999999999999
 20
102.4999999999998
 30
0.0
 11
115.9999999999998
 21
102.4999999999999
 31
0.0
  0
LINE
  5
D8
  8
3
 10
123.3235
 20
102.4999999999998
 30
0.0
 11
123.9999999999999
 21
103.67173237131991
 31
0.0
  0
LINE
  5
D9
  8
3
 10
116.6764999999999
 20
102.4999999999998
 30
0.0
 11
116.0
 21
103.67173237131991
 31
0.0
  0
LINE
  5
DA
  8
0
 10
114.9999999999999
 20
105.2999999999999
 30
0.0
 11
114.9999999999999
 21
104.9999999999999
 31
0.0
  0
LINE
  5
DB
  8
0
 10
114.9999999999999
 20
104.9999999999999
 30
0.0
 11
124.9999999999999
 21
104.9999999999999
 31
0.0
  0
TEXT
  5
224
  8
0
 62
     3
 10
0.0
 20
0.0
 30
0.0
 40
10.0
  1
STK40X35N
  7
STANDARD1
  0
ENDSEC
  0
EOF
