  0
SECTION
  2
HEADER
  9
$ACADVER
  1
AC1009
  9
$INSBASE
 10
0.0
 20
0.0
 30
0.0
  9
$EXTMIN
 10
0.0
 20
-2.960436562073669
 30
0.0
  9
$EXTMAX
 10
294.1679607770177
 20
220.0
 30
0.0
  9
$LIMMIN
 10
0.0
 20
0.0
  9
$LIMMAX
 10
375.0
 20
270.0
  9
$ORTHOMODE
 70
     1
  9
$REGENMODE
 70
     1
  9
$FILLMODE
 70
     1
  9
$QTEXTMODE
 70
     0
  9
$MIRRTEXT
 70
     0
  9
$DRAGMODE
 70
     2
  9
$LTSCALE
 40
10.0
  9
$OSMODE
 70
    55
  9
$ATTMODE
 70
     1
  9
$TEXTSIZE
 40
0.2
  9
$TRACEWID
 40
0.05
  9
$TEXTSTYLE
  7
STANDARD
  9
$CLAYER
  8
0
  9
$CELTYPE
  6
BYLAYER
  9
$CECOLOR
 62
   256
  9
$DIMSCALE
 40
1.0
  9
$DIMASZ
 40
3.0
  9
$DIMEXO
 40
2.0
  9
$DIMDLI
 40
0.38
  9
$DIMRND
 40
0.0
  9
$DIMDLE
 40
0.0
  9
$DIMEXE
 40
2.0
  9
$DIMTP
 40
0.0
  9
$DIMTM
 40
0.0
  9
$DIMTXT
 40
3.2000000000000002
  9
$DIMCEN
 40
0.0
  9
$DIMTSZ
 40
0.0
  9
$DIMTOL
 70
     0
  9
$DIMLIM
 70
     0
  9
$DIMTIH
 70
     0
  9
$DIMTOH
 70
     0
  9
$DIMSE1
 70
     0
  9
$DIMSE2
 70
     0
  9
$DIMTAD
 70
     1
  9
$DIMZIN
 70
     0
  9
$DIMBLK
  1

  9
$DIMASO
 70
     1
  9
$DIMSHO
 70
     0
  9
$DIMPOST
  1

  9
$DIMAPOST
  1

  9
$DIMALT
 70
     0
  9
$DIMALTD
 70
     2
  9
$DIMALTF
 40
25.399999999999999
  9
$DIMLFAC
 40
1.0
  9
$DIMTOFL
 70
     1
  9
$DIMTVP
 40
1.6000000000000001
  9
$DIMTIX
 70
     1
  9
$DIMSOXD
 70
     0
  9
$DIMSAH
 70
     0
  9
$DIMBLK1
  1

  9
$DIMBLK2
  1

  9
$DIMSTYLE
  2
STANDARD
  9
$DIMCLRD
 70
     0
  9
$DIMCLRE
 70
     0
  9
$DIMCLRT
 70
     0
  9
$DIMTFAC
 40
1.0
  9
$DIMGAP
 40
0.09
  9
$LUNITS
 70
     2
  9
$LUPREC
 70
     4
  9
$SKETCHINC
 40
0.1
  9
$FILLETRAD
 40
1.8
  9
$AUNITS
 70
     0
  9
$AUPREC
 70
     4
  9
$MENU
  1
E:\r13\win\SUPPORT\ACAD
  9
$ELEVATION
 40
0.0
  9
$PELEVATION
 40
0.0
  9
$THICKNESS
 40
0.0
  9
$LIMCHECK
 70
     0
  9
$BLIPMODE
 70
     0
  9
$CHAMFERA
 40
0.0
  9
$CHAMFERB
 40
0.0
  9
$SKPOLY
 70
     0
  9
$TDCREATE
 40
2449839.7898032409
  9
$TDUPDATE
 40
2456598.5661095022
  9
$TDINDWG
 40
0.00014625
  9
$TDUSRTIMER
 40
0.00014625
  9
$USRTIMER
 70
     1
  9
$ANGBASE
 50
0.0
  9
$ANGDIR
 70
     0
  9
$PDMODE
 70
     0
  9
$PDSIZE
 40
0.0
  9
$PLINEWID
 40
0.0
  9
$COORDS
 70
     1
  9
$SPLFRAME
 70
     0
  9
$SPLINETYPE
 70
     6
  9
$SPLINESEGS
 70
     8
  9
$ATTDIA
 70
     0
  9
$ATTREQ
 70
     1
  9
$HANDLING
 70
     1
  9
$HANDSEED
  5
2B3
  9
$SURFTAB1
 70
     6
  9
$SURFTAB2
 70
     6
  9
$SURFTYPE
 70
     6
  9
$SURFU
 70
     6
  9
$SURFV
 70
     6
  9
$UCSNAME
  2

  9
$UCSORG
 10
0.0
 20
0.0
 30
0.0
  9
$UCSXDIR
 10
1.0
 20
0.0
 30
0.0
  9
$UCSYDIR
 10
0.0
 20
1.0
 30
0.0
  9
$PUCSNAME
  2

  9
$PUCSORG
 10
0.0
 20
0.0
 30
0.0
  9
$PUCSXDIR
 10
1.0
 20
0.0
 30
0.0
  9
$PUCSYDIR
 10
0.0
 20
1.0
 30
0.0
  9
$USERI1
 70
     0
  9
$USERI2
 70
     1
  9
$USERI3
 70
     1
  9
$USERI4
 70
     0
  9
$USERI5
 70
     0
  9
$USERR1
 40
0.0
  9
$USERR2
 40
0.0
  9
$USERR3
 40
0.0
  9
$USERR4
 40
0.0
  9
$USERR5
 40
0.0
  9
$WORLDVIEW
 70
     1
  9
$SHADEDGE
 70
     3
  9
$SHADEDIF
 70
    70
  9
$TILEMODE
 70
     1
  9
$MAXACTVP
 70
    16
  9
$PLIMCHECK
 70
     0
  9
$PEXTMIN
 10
1.0000000000000000E+020
 20
1.0000000000000000E+020
 30
1.0000000000000000E+020
  9
$PEXTMAX
 10
-1.0000000000000000E+020
 20
-1.0000000000000000E+020
 30
-1.0000000000000000E+020
  9
$PLIMMIN
 10
0.0
 20
0.0
  9
$PLIMMAX
 10
12.0
 20
9.0
  9
$UNITMODE
 70
     0
  9
$VISRETAIN
 70
     0
  9
$PLINEGEN
 70
     0
  9
$PSLTSCALE
 70
     0
  0
ENDSEC
  0
SECTION
  2
TABLES
  0
TABLE
  2
VPORT
 70
     1
  0
VPORT
  2
*ACTIVE
 70
     0
 10
0.0
 20
0.0
 11
1.0
 21
1.0
 12
187.4942783906524
 22
197.0509055860143
 13
0.0
 23
0.0
 14
10.0
 24
10.0
 15
10.0
 25
10.0
 16
0.0
 26
0.0
 36
1.0
 17
0.0
 27
0.0
 37
0.0
 40
403.57315882993248
 41
1.7807262569832401
 42
50.0
 43
0.0
 44
0.0
 50
0.0
 51
0.0
 71
     0
 72
   500
 73
     1
 74
     0
 75
     0
 76
     0
 77
     0
 78
     2
  0
ENDTAB
  0
TABLE
  2
LTYPE
 70
     3
  0
LTYPE
  2
CONTINUOUS
 70
     0
  3
Solid Line
 72
    65
 73
     0
 40
0.0
  0
LTYPE
  2
CENTER
 70
     0
  3
____ _ ____ _ ____ _ ____ _ ____ _ ____ _ ____
 72
    65
 73
     4
 40
2.0
 49
1.25
 49
-0.25
 49
0.25
 49
-0.25
  0
LTYPE
  2
PHANTOM2
 70
     0
  3
___ _ _ ___ _ _ ___ _ _ ___ _ _
 72
    65
 73
     6
 40
1.25
 49
0.625
 49
-0.125
 49
0.125
 49
-0.125
 49
0.125
 49
-0.125
  0
ENDTAB
  0
TABLE
  2
LAYER
 70
     3
  0
LAYER
  2
0
 70
     0
 62
     7
  6
CONTINUOUS
  0
LAYER
  2
1
 70
     0
 62
     1
  6
CENTER
  0
LAYER
  2
3
 70
     0
 62
     3
  6
CONTINUOUS
  0
ENDTAB
  0
TABLE
  2
STYLE
 70
     2
  0
STYLE
  2
STANDARD
 70
     0
 40
0.0
 41
1.0
 50
0.0
 71
     0
 42
0.2
  3
TXT
  4
BIGFONT
  0
STYLE
  2
STANDARD1
 70
     0
 40
0.0
 41
1.0
 50
0.0
 71
     0
 42
3.0
  3
txt
  4

  0
ENDTAB
  0
TABLE
  2
VIEW
 70
     1
  0
VIEW
  2
ALL
 70
     0
 40
270.0
 10
220.99159663865549
 20
135.0
 41
0.0
 11
0.0
 21
0.0
 31
1.0
 12
0.0
 22
0.0
 32
0.0
 42
0.0
 43
0.0
 44
0.0
 50
0.0
 71
     0
  0
ENDTAB
  0
TABLE
  2
UCS
 70
     0
  0
ENDTAB
  0
TABLE
  2
APPID
 70
     3
  0
APPID
  2
ACAD
 70
     0
  0
APPID
  2
ACAD_MLEADERVER
 70
     0
  0
APPID
  2
ACAD_NAV_VCDISPLAY
 70
     0
  0
ENDTAB
  0
TABLE
  2
DIMSTYLE
 70
     1
  0
DIMSTYLE
  2
STANDARD
 70
     0
  3

  4

  5

  6

  7

 40
1.0
 41
0.18
 42
0.0625
 43
0.38
 44
0.18
 45
0.0
 46
0.0
 47
0.0
 48
0.0
140
0.18
141
0.09
142
0.0
143
25.399999999999999
144
1.0
145
0.0
146
1.0
147
0.09
 71
     0
 72
     0
 73
     1
 74
     1
 75
     0
 76
     0
 77
     0
 78
     0
170
     0
171
     2
172
     0
173
     0
174
     0
175
     0
176
     0
177
     0
178
     0
  0
ENDTAB
  0
ENDSEC
  0
SECTION
  2
BLOCKS
  0
BLOCK
  8
0
  2
$MODEL_SPACE
 70
     0
 10
0.0
 20
0.0
 30
0.0
  3
$MODEL_SPACE
  1

  0
ENDBLK
  5
134
  8
0
  0
BLOCK
 67
     1
  8
0
  2
$PAPER_SPACE
 70
     0
 10
0.0
 20
0.0
 30
0.0
  3
$PAPER_SPACE
  1

  0
ENDBLK
  5
132
 67
     1
  8
0
  0
ENDSEC
  0
SECTION
  2
ENTITIES
  0
LINE
  5
34
  8
0
 10
260.30000000000001
 20
137.0
 30
0.0
 11
279.7000000000001
 21
137.0
 31
0.0
  0
LINE
  5
35
  8
1
 10
270.0
 20
142.0
 30
0.0
 11
270.0
 21
59.999999999999972
 31
0.0
  0
LINE
  5
36
  8
0
 10
245.83203922298219
 20
132.1029188919247
 30
0.0
 11
245.83203922298219
 21
122.63677437048089
 31
0.0
  0
LINE
  5
37
  8
0
 10
294.1679607770177
 20
132.10291889192459
 30
0.0
 11
294.1679607770177
 21
122.63677437048089
 31
0.0
  0
LINE
  5
38
  8
0
 10
279.5
 20
119.0
 30
0.0
 11
279.5
 21
106.3
 31
0.0
  0
LINE
  5
39
  8
0
 10
261.5
 20
105.3
 30
0.0
 11
278.5
 21
105.3
 31
0.0
  0
LINE
  5
3A
  8
0
 10
260.5
 20
106.3
 30
0.0
 11
261.5
 21
105.3
 31
0.0
  0
LINE
  5
3B
  8
0
 10
278.5
 20
105.3
 30
0.0
 11
279.5
 21
106.3
 31
0.0
  0
LINE
  5
3C
  8
0
 10
279.5
 20
106.3
 30
0.0
 11
260.5
 21
106.3
 31
0.0
  0
LINE
  5
3D
  8
0
 10
254.25
 20
119.0
 30
0.0
 11
285.75
 21
119.0
 31
0.0
  0
ARC
  5
3E
  8
0
 10
270.0
 20
67.675329066774509
 30
0.0
 40
70.0
 50
70.854029268625283
 51
82.034810593218381
  0
LINE
  5
3F
  8
0
 10
285.75
 20
119.0
 30
0.0
 11
292.83383505820223
 21
120.89810788316051
 31
0.0
  0
ARC
  5
40
  8
0
 10
247.6320392229822
 20
132.1029188919247
 30
0.0
 40
1.8
 50
109.1459707313745
 51
180.0
  0
ARC
  5
41
  8
0
 10
247.6320392229822
 20
122.63677437048089
 30
0.0
 40
1.8
 50
180.0
 51
254.99999999999989
  0
ARC
  5
42
  8
0
 10
292.3679607770178
 20
122.63677437048089
 30
0.0
 40
1.8
 50
285.0
 51
0.0
  0
ARC
  5
43
  8
0
 10
292.3679607770178
 20
132.10291889192459
 30
0.0
 40
1.8
 50
0.0
 51
70.85402926862551
  0
LINE
  5
44
  8
0
 10
254.25
 20
119.0
 30
0.0
 11
247.1661649417978
 21
120.89810788316051
 31
0.0
  0
ARC
  5
45
  8
0
 10
270.0
 20
67.675329066774509
 30
0.0
 40
70.0
 50
97.965189406781647
 51
109.1459707313747
  0
ARC
  5
46
  8
0
 10
270.0
 20
114.46324910514581
 30
0.0
 40
20.000000000000011
 50
72.824631290738097
 51
107.1753643684666
  0
ARC
  5
47
  8
0
 10
280.9260010982976
 20
149.81324910514579
 30
0.0
 40
17.0
 50
252.82463438975211
 51
283.14647883218117
  0
ARC
  5
48
  8
0
 10
289.3413295298771
 20
113.78295286172521
 30
0.0
 40
20.0
 50
77.374832291176915
 51
103.1464765259837
  0
ARC
  5
49
  8
0
 10
270.0
 20
140.16324910514581
 30
0.0
 40
20.000000000000011
 50
252.82463519156241
 51
287.17536870926187
  0
ARC
  5
4A
  8
0
 10
280.9260010982976
 20
104.8132491051458
 30
0.0
 40
17.0
 50
76.853521167818855
 51
107.17536561024789
  0
ARC
  5
4B
  8
0
 10
289.3413295298771
 20
140.84354534856641
 30
0.0
 40
20.0
 50
256.8535234740163
 51
282.20092867356948
  0
LINE
  5
4C
  8
0
 10
279.99234928897221
 20
131.83747946101241
 30
0.0
 11
279.99234928897221
 21
122.78901874927919
 31
0.0
  0
LINE
  5
4D
  8
0
 10
287.99234928897221
 20
132.73500426281751
 30
0.0
 11
287.99234928897221
 21
121.8914939474741
 31
0.0
  0
LINE
  5
4E
  8
0
 10
260.5
 20
106.3
 30
0.0
 11
260.5
 21
119.0
 31
0.0
  0
ARC
  5
4F
  8
0
 10
259.07399890170262
 20
104.8132491051458
 30
0.0
 40
17.0
 50
72.824634389752106
 51
103.1464788321811
  0
LINE
  5
50
  8
0
 10
260.00765071102791
 20
131.83747946101241
 30
0.0
 11
260.00765071102791
 21
122.78901874927919
 31
0.0
  0
ARC
  5
51
  8
0
 10
259.07399890170262
 20
149.81324910514579
 30
0.0
 40
17.0
 50
256.85352116781888
 51
287.17536561024798
  0
ARC
  5
52
  8
0
 10
250.65867047012301
 20
113.78295286172521
 30
0.0
 40
20.0
 50
76.853523474016285
 51
102.6251677088231
  0
LINE
  5
53
  8
0
 10
252.00765071102791
 20
132.73500426281751
 30
0.0
 11
252.00765071102791
 21
121.8914939474741
 31
0.0
  0
ARC
  5
54
  8
0
 10
250.65867047012301
 20
140.84354534856641
 30
0.0
 40
20.0
 50
257.79907132643058
 51
283.14647652598381
  0
LINE
  5
55
  8
0
 10
180.5
 20
106.3
 30
0.0
 11
180.5
 21
119.0
 31
0.0
  0
CIRCLE
  5
56
  8
0
 10
190.0
 20
190.0
 30
0.0
 40
8.5000000000000142
  0
CIRCLE
  5
57
  8
0
 10
190.0
 20
190.0
 30
0.0
 40
9.7000000000000028
  0
ARC
  5
58
  8
0
 10
190.0
 20
67.675329066774509
 30
0.0
 40
70.0
 50
97.965189406781647
 51
109.8875944414122
  0
LINE
  5
59
  8
0
 10
174.25
 20
119.0
 30
0.0
 11
166.33412571881539
 21
121.12105212102971
 31
0.0
  0
LINE
  5
5A
  8
0
 10
205.75
 20
119.0
 30
0.0
 11
210.41916318555869
 21
120.2510985048996
 31
0.0
  0
ARC
  5
5B
  8
0
 10
190.0
 20
67.675329066774509
 30
0.0
 40
70.0
 50
72.988105920400884
 51
82.034810593218381
  0
LINE
  5
5C
  8
0
 10
174.25
 20
119.0
 30
0.0
 11
205.75
 21
119.0
 31
0.0
  0
LINE
  5
5D
  8
0
 10
199.5
 20
106.3
 30
0.0
 11
180.5
 21
106.3
 31
0.0
  0
LINE
  5
5E
  8
0
 10
198.5
 20
105.3
 30
0.0
 11
199.5
 21
106.3
 31
0.0
  0
LINE
  5
5F
  8
0
 10
180.5
 20
106.3
 30
0.0
 11
181.5
 21
105.3
 31
0.0
  0
LINE
  5
60
  8
0
 10
181.5
 20
105.3
 30
0.0
 11
198.5
 21
105.3
 31
0.0
  0
LINE
  5
61
  8
0
 10
199.5
 20
119.0
 30
0.0
 11
199.5
 21
106.3
 31
0.0
  0
LINE
  5
62
  8
1
 10
190.0
 20
142.0
 30
0.0
 11
190.0
 21
59.999999999999972
 31
0.0
  0
LINE
  5
63
  8
0
 10
180.30000000000001
 20
137.0
 30
0.0
 11
199.69999999999999
 21
137.0
 31
0.0
  0
ARC
  5
64
  8
0
 10
200.82271923296571
 20
223.30890481076861
 30
0.0
 40
15.5
 50
226.8362734143133
 51
277.16372679805249
  0
ARC
  5
65
  8
0
 10
225.02305513927149
 20
190.0
 30
0.0
 40
15.5
 50
154.8362734143133
 51
205.16372679805249
  0
ARC
  5
66
  8
0
 10
200.82271923296571
 20
156.69109518923131
 30
0.0
 40
15.5
 50
82.836273414313325
 51
133.16372679805249
  0
ARC
  5
67
  8
0
 10
161.66575319739849
 20
169.41396469891009
 30
0.0
 40
15.5
 50
10.83627341431332
 51
61.163726798052537
  0
ARC
  5
68
  8
0
 10
161.66575319739849
 20
210.58603530108991
 30
0.0
 40
15.5
 50
298.83627341431333
 51
349.16372679805261
  0
ARC
  5
69
  8
0
 10
203.7532889043743
 20
199.99234928897209
 30
0.0
 40
8.0
 50
334.83628177671773
 51
97.163732909726903
  0
ARC
  5
6A
  8
0
 10
203.75328890437419
 20
180.00765071102791
 30
0.0
 40
8.0
 50
262.83624966446911
 51
25.16372959824449
  0
ARC
  5
6B
  8
0
 10
184.7467110956259
 20
173.83203922298219
 30
0.0
 40
8.0
 50
190.8362698022037
 51
313.1637204670032
  0
ARC
  5
6C
  8
0
 10
173.0
 20
190.0
 30
0.0
 40
8.0
 50
118.83627694417341
 51
241.16375023681201
  0
ARC
  5
6D
  8
0
 10
184.7467110956259
 20
206.1679607770177
 30
0.0
 40
8.0
 50
46.836281342182801
 51
169.16372303132539
  0
LINE
  5
6E
  8
1
 10
160.0
 20
190.0
 30
0.0
 11
220.0
 21
190.0
 31
0.0
  0
LINE
  5
6F
  8
1
 10
190.0
 20
220.0
 30
0.0
 11
190.0
 21
160.0
 31
0.0
  0
LINE
  5
70
  8
0
 10
100.5
 20
106.3
 30
0.0
 11
100.5
 21
119.0
 31
0.0
  0
ARC
  5
71
  8
0
 10
110.0
 20
67.675329066774509
 30
0.0
 40
70.0
 50
97.965189406781647
 51
109.1459707313747
  0
LINE
  5
72
  8
0
 10
94.25
 20
119.0
 30
0.0
 11
87.166164941797746
 21
120.89810788316051
 31
0.0
  0
ARC
  5
73
  8
0
 10
132.36796077701769
 20
132.10291889192459
 30
0.0
 40
1.8
 50
0.0
 51
70.85402926862551
  0
ARC
  5
74
  8
0
 10
132.36796077701769
 20
122.63677437048089
 30
0.0
 40
1.8
 50
285.0
 51
0.0
  0
ARC
  5
75
  8
0
 10
87.6320392229822
 20
122.63677437048089
 30
0.0
 40
1.8
 50
180.0
 51
254.99999999999989
  0
ARC
  5
76
  8
0
 10
87.6320392229822
 20
132.1029188919247
 30
0.0
 40
1.8
 50
109.1459707313745
 51
180.0
  0
LINE
  5
77
  8
0
 10
125.75
 20
119.0
 30
0.0
 11
132.8338350582022
 21
120.89810788316051
 31
0.0
  0
ARC
  5
78
  8
0
 10
110.0
 20
67.675329066774509
 30
0.0
 40
70.0
 50
70.854029268625283
 51
82.034810593218381
  0
LINE
  5
79
  8
0
 10
94.250000000000057
 20
119.0
 30
0.0
 11
125.75
 21
119.0
 31
0.0
  0
LINE
  5
7A
  8
0
 10
119.5
 20
106.3
 30
0.0
 11
100.5
 21
106.3
 31
0.0
  0
LINE
  5
7B
  8
0
 10
118.5
 20
105.3
 30
0.0
 11
119.5
 21
106.3
 31
0.0
  0
LINE
  5
7C
  8
0
 10
100.5
 20
106.3
 30
0.0
 11
101.5
 21
105.3
 31
0.0
  0
LINE
  5
7D
  8
0
 10
101.5
 20
105.3
 30
0.0
 11
118.5
 21
105.3
 31
0.0
  0
LINE
  5
7E
  8
0
 10
119.5
 20
119.0
 30
0.0
 11
119.5
 21
106.3
 31
0.0
  0
LINE
  5
7F
  8
0
 10
134.1679607770177
 20
132.10291889192459
 30
0.0
 11
134.1679607770177
 21
122.63677437048089
 31
0.0
  0
LINE
  5
80
  8
0
 10
85.832039222982218
 20
132.1029188919247
 30
0.0
 11
85.832039222982189
 21
122.63677437048089
 31
0.0
  0
LINE
  5
81
  8
1
 10
110.0
 20
142.0
 30
0.0
 11
110.0
 21
59.999999999999972
 31
0.0
  0
LINE
  5
82
  8
0
 10
100.3
 20
137.0
 30
0.0
 11
119.7
 21
137.0
 31
0.0
  0
LINE
  5
83
  8
0
 10
165.0
 20
131.80800404607041
 30
0.0
 11
165.0
 21
122.85971860834999
 31
0.0
  0
LINE
  5
84
  8
0
 10
211.7532889043741
 20
132.8911727084739
 30
0.0
 11
211.7532889043741
 21
121.9897649922199
 31
0.0
  0
ARC
  5
85
  8
0
 10
166.80000000000001
 20
131.80800404607041
 30
0.0
 40
1.8
 50
109.88759444141169
 51
180.0
  0
ARC
  5
86
  8
0
 10
166.80000000000001
 20
122.85971860834999
 30
0.0
 40
1.8
 50
180.0
 51
254.9999999999998
  0
ARC
  5
87
  8
0
 10
209.9532889043742
 20
132.8911727084739
 30
0.0
 40
1.8
 50
0.0
 51
72.988105920401296
  0
ARC
  5
88
  8
0
 10
209.95328890437409
 20
121.9897649922199
 30
0.0
 40
1.8
 50
285.0
 51
0.0
  0
ARC
  5
89
  8
0
 10
183.5543789010502
 20
146.6032580705407
 30
0.0
 40
13.849268810468001
 50
248.2176420072775
 51
287.83177780602512
  0
ARC
  5
8A
  8
0
 10
194.44972916715901
 20
112.7327238340519
 30
0.0
 40
21.730525271093938
 50
71.934124536056302
 51
107.831741985034
  0
ARC
  5
8B
  8
0
 10
204.8287909919006
 20
144.55164030732641
 30
0.0
 40
11.73839120218061
 50
251.93408656229431
 51
300.746729763254
  0
ARC
  5
8C
  8
0
 10
174.6709534364484
 20
124.373262149748
 30
0.0
 40
10.089986955397761
 50
68.217640125298132
 51
109.9864295037068
  0
ARC
  5
8D
  8
0
 10
165.30685491497559
 20
150.119880670914
 30
0.0
 40
17.306631565768189
 50
269.99999986001382
 51
289.98643284370411
  0
ARC
  5
8E
  8
0
 10
174.6709534364484
 20
130.2532360605436
 30
0.0
 40
10.089986955397761
 50
250.0135704962932
 51
291.78235987470191
  0
ARC
  5
8F
  8
0
 10
194.44972916715901
 20
141.8937743762398
 30
0.0
 40
21.730525271093938
 50
252.168258014966
 51
288.06587546394371
  0
ARC
  5
90
  8
0
 10
183.5543789010502
 20
108.0232401397509
 30
0.0
 40
13.849268810468001
 50
72.168222193974898
 51
111.78235799272259
  0
ARC
  5
91
  8
0
 10
204.8287909919006
 20
110.07485790296521
 30
0.0
 40
11.73839120218061
 50
59.253270236746083
 51
108.0659134377057
  0
ARC
  5
92
  8
0
 10
165.30685491497559
 20
104.5066175393777
 30
0.0
 40
17.306631565768189
 50
70.013567156295863
 51
90.000000139986199
  0
LINE
  5
93
  8
0
 10
169.14153271101321
 20
132.21937773146109
 30
0.0
 11
169.14153271101321
 21
122.40712047883051
 31
0.0
  0
LINE
  5
94
  8
0
 10
176.8893637779598
 20
133.1883922342094
 30
0.0
 11
176.8893637779598
 21
121.4381059760818
 31
0.0
  0
LINE
  5
95
  8
0
 10
190.21939419771181
 20
133.0270320031357
 30
0.0
 11
190.21939419771181
 21
121.5994662071562
 31
0.0
  0
LINE
  5
96
  8
0
 10
202.75564843930371
 20
131.98308070901061
 30
0.0
 11
202.75564843930371
 21
122.6434175012806
 31
0.0
  0
ARC
  5
97
  8
0
 10
97.660000810787452
 20
125.2496144196891
 30
0.0
 40
9.2541157479548382
 50
74.398948261768325
 51
112.9769094781319
  0
ARC
  5
98
  8
0
 10
122.33999918921251
 20
125.2496144196891
 30
0.0
 40
9.2541157479548382
 50
67.02308769365338
 51
105.60097983051089
  0
ARC
  5
99
  8
0
 10
110.0
 20
169.44350013713611
 30
0.0
 40
36.630251031990241
 50
254.39899329886151
 51
285.60102486760883
  0
ARC
  5
9A
  8
0
 10
130.65755698664651
 20
144.86652790139891
 30
0.0
 40
12.05327879625318
 50
247.02308994093411
 51
284.99624809907931
  0
ARC
  5
9B
  8
0
 10
89.342443013353432
 20
144.86652790139891
 30
0.0
 40
12.05327879625318
 50
255.00375190092069
 51
292.97691005906597
  0
ARC
  5
9C
  8
0
 10
89.342443013353432
 20
109.7599703088927
 30
0.0
 40
12.05327879625318
 50
67.023089940934014
 51
104.9962480990793
  0
ARC
  5
9D
  8
0
 10
97.660000810787452
 20
129.37688379060251
 30
0.0
 40
9.2541157479548382
 50
247.02309052186811
 51
285.6010517382316
  0
ARC
  5
9E
  8
0
 10
110.0
 20
85.182998073155574
 30
0.0
 40
36.630251031990241
 50
74.398975132391229
 51
105.6010067011385
  0
ARC
  5
9F
  8
0
 10
122.33999918921251
 20
129.37688379060251
 30
0.0
 40
9.2541157479548382
 50
254.39902016948909
 51
292.97691230634672
  0
ARC
  5
A0
  8
0
 10
130.65755698664651
 20
109.7599703088927
 30
0.0
 40
12.05327879625318
 50
75.00375190092069
 51
112.9769100590659
  0
LINE
  5
A1
  8
0
 10
92.328013505710459
 20
132.15926792263559
 30
0.0
 11
92.328013505710459
 21
122.46723028765599
 31
0.0
  0
LINE
  5
A2
  8
0
 10
102.9919881158643
 20
132.47157075601751
 30
0.0
 11
102.9919881158643
 21
122.1549274542741
 31
0.0
  0
LINE
  5
A3
  8
0
 10
117.0080136789058
 20
132.4715710962154
 30
0.0
 11
117.0080136789058
 21
122.1549271140762
 31
0.0
  0
LINE
  5
A4
  8
0
 10
127.6719864182771
 20
132.15926794049449
 30
0.0
 11
127.6719864182771
 21
122.467230269797
 31
0.0
  0
LINE
  5
AC
  8
0
 10
264.00000000000011
 20
105.0
 30
0.0
 11
276.0
 21
105.0
 31
0.0
  0
LINE
  5
AD
  8
0
 10
264.00000000000011
 20
105.3
 30
0.0
 11
264.00000000000011
 21
105.0
 31
0.0
  0
LINE
  5
AE
  8
0
 10
276.0
 20
105.3
 30
0.0
 11
276.0
 21
105.0
 31
0.0
  0
LINE
  5
AF
  8
0
 10
275.0
 20
66.499999999999886
 30
0.0
 11
265.0
 21
66.500000000000028
 31
0.0
  0
LINE
  5
B0
  8
3
 10
265.81200000000001
 20
101.9999999999998
 30
0.0
 11
265.0
 21
103.4064252557456
 31
0.0
  0
LINE
  5
B1
  8
3
 10
274.1880000000001
 20
101.9999999999998
 30
0.0
 11
275.0
 21
103.4064252557456
 31
0.0
  0
LINE
  5
B2
  8
0
 10
275.0
 20
101.9999999999998
 30
0.0
 11
265.0
 21
102.0
 31
0.0
  0
LINE
  5
B3
  8
0
 10
266.5
 20
64.999999999999972
 30
0.0
 11
265.0
 21
66.500000000000028
 31
0.0
  0
LINE
  5
B4
  8
0
 10
275.0
 20
66.499999999999886
 30
0.0
 11
273.5
 21
64.999999999999972
 31
0.0
  0
LINE
  5
B5
  8
0
 10
275.0
 20
105.0
 30
0.0
 11
275.0
 21
66.499999999999886
 31
0.0
  0
LINE
  5
B6
  8
3
 10
274.1880000000001
 20
101.9999999999998
 30
0.0
 11
274.1880000000001
 21
65.688000000000073
 31
0.0
  0
LINE
  5
B7
  8
3
 10
265.81199999999978
 20
102.0
 30
0.0
 11
265.81200000000001
 21
65.688000000000073
 31
0.0
  0
LINE
  5
B8
  8
0
 10
265.0
 20
105.0
 30
0.0
 11
265.0
 21
66.500000000000028
 31
0.0
  0
LINE
  5
B9
  8
0
 10
273.5
 20
64.999999999999972
 30
0.0
 11
266.5
 21
64.999999999999972
 31
0.0
  0
LINE
  5
BA
  8
0
 10
193.49999999999989
 20
64.999999999999972
 30
0.0
 11
186.49999999999989
 21
64.999999999999972
 31
0.0
  0
LINE
  5
BB
  8
0
 10
185.0
 20
105.0
 30
0.0
 11
185.0
 21
66.500000000000028
 31
0.0
  0
LINE
  5
BC
  8
3
 10
185.81199999999981
 20
102.0
 30
0.0
 11
185.8119999999999
 21
65.688000000000073
 31
0.0
  0
LINE
  5
BD
  8
3
 10
194.18799999999999
 20
101.9999999999998
 30
0.0
 11
194.18799999999999
 21
65.688000000000073
 31
0.0
  0
LINE
  5
BE
  8
0
 10
195.0
 20
105.0
 30
0.0
 11
195.0
 21
66.499999999999886
 31
0.0
  0
LINE
  5
BF
  8
0
 10
195.0
 20
66.499999999999886
 30
0.0
 11
193.49999999999989
 21
64.999999999999972
 31
0.0
  0
LINE
  5
C0
  8
0
 10
186.49999999999989
 20
64.999999999999972
 30
0.0
 11
185.0
 21
66.500000000000028
 31
0.0
  0
LINE
  5
C1
  8
0
 10
195.0
 20
101.9999999999998
 30
0.0
 11
185.0
 21
102.0
 31
0.0
  0
LINE
  5
C2
  8
3
 10
194.18799999999999
 20
101.9999999999998
 30
0.0
 11
195.0
 21
103.4064252557456
 31
0.0
  0
LINE
  5
C3
  8
3
 10
185.8119999999999
 20
101.9999999999998
 30
0.0
 11
185.0
 21
103.4064252557456
 31
0.0
  0
LINE
  5
C4
  8
0
 10
195.0
 20
66.499999999999886
 30
0.0
 11
185.0
 21
66.500000000000028
 31
0.0
  0
LINE
  5
C5
  8
0
 10
195.99999999999989
 20
105.3
 30
0.0
 11
195.99999999999989
 21
105.0
 31
0.0
  0
LINE
  5
C6
  8
0
 10
184.0
 20
105.3
 30
0.0
 11
184.0
 21
105.0
 31
0.0
  0
LINE
  5
C7
  8
0
 10
184.0
 20
105.0
 30
0.0
 11
195.99999999999989
 21
105.0
 31
0.0
  0
LINE
  5
C8
  8
0
 10
113.4999999999999
 20
64.999999999999972
 30
0.0
 11
106.4999999999999
 21
64.999999999999972
 31
0.0
  0
LINE
  5
C9
  8
0
 10
105.0
 20
105.0
 30
0.0
 11
105.0
 21
66.500000000000028
 31
0.0
  0
LINE
  5
CA
  8
3
 10
105.8119999999998
 20
102.0
 30
0.0
 11
105.8119999999999
 21
65.688000000000073
 31
0.0
  0
LINE
  5
CB
  8
3
 10
114.188
 20
101.9999999999998
 30
0.0
 11
114.188
 21
65.688000000000073
 31
0.0
  0
LINE
  5
CC
  8
0
 10
114.9999999999999
 20
105.0
 30
0.0
 11
114.9999999999999
 21
66.499999999999886
 31
0.0
  0
LINE
  5
CD
  8
0
 10
114.9999999999999
 20
66.499999999999886
 30
0.0
 11
113.4999999999999
 21
64.999999999999972
 31
0.0
  0
LINE
  5
CE
  8
0
 10
106.4999999999999
 20
64.999999999999972
 30
0.0
 11
105.0
 21
66.500000000000028
 31
0.0
  0
LINE
  5
CF
  8
0
 10
114.9999999999999
 20
101.9999999999998
 30
0.0
 11
105.0
 21
102.0
 31
0.0
  0
LINE
  5
D0
  8
3
 10
114.188
 20
101.9999999999998
 30
0.0
 11
114.9999999999999
 21
103.4064252557456
 31
0.0
  0
LINE
  5
D1
  8
3
 10
105.8119999999999
 20
101.9999999999998
 30
0.0
 11
105.0
 21
103.4064252557456
 31
0.0
  0
LINE
  5
D2
  8
0
 10
114.9999999999999
 20
66.499999999999886
 30
0.0
 11
105.0
 21
66.500000000000028
 31
0.0
  0
LINE
  5
D3
  8
0
 10
115.9999999999999
 20
105.3
 30
0.0
 11
115.9999999999999
 21
105.0
 31
0.0
  0
LINE
  5
D4
  8
0
 10
104.0
 20
105.3
 30
0.0
 11
104.0
 21
105.0
 31
0.0
  0
LINE
  5
D5
  8
0
 10
104.0
 20
105.0
 30
0.0
 11
115.9999999999999
 21
105.0
 31
0.0
  0
TEXT
  5
21E
  8
0
 62
     3
 10
0.0
 20
0.0
 30
0.0
 40
10.0
  1
STK50X40N
  7
STANDARD1
  0
ENDSEC
  0
EOF
