  0
SECTION
  2
HEADER
  9
$ACADVER
  1
AC1009
  9
$INSBASE
 10
0.0
 20
0.0
 30
0.0
  9
$EXTMIN
 10
0.0
 20
-2.960436562073669
 30
0.0
  9
$EXTMAX
 10
382.68438732628448
 20
205.54035223505139
 30
0.0
  9
$LIMMIN
 10
0.0
 20
0.0
  9
$LIMMAX
 10
375.0
 20
270.0
  9
$ORTHOMODE
 70
     1
  9
$REGENMODE
 70
     1
  9
$FILLMODE
 70
     1
  9
$QTEXTMODE
 70
     0
  9
$MIRRTEXT
 70
     0
  9
$DRAGMODE
 70
     2
  9
$LTSCALE
 40
10.0
  9
$OSMODE
 70
    55
  9
$ATTMODE
 70
     1
  9
$TEXTSIZE
 40
0.2
  9
$TRACEWID
 40
0.05
  9
$TEXTSTYLE
  7
STANDARD
  9
$CLAYER
  8
0
  9
$CELTYPE
  6
BYLAYER
  9
$CECOLOR
 62
     6
  9
$DIMSCALE
 40
1.0
  9
$DIMASZ
 40
3.0
  9
$DIMEXO
 40
2.0
  9
$DIMDLI
 40
0.38
  9
$DIMRND
 40
0.0
  9
$DIMDLE
 40
0.0
  9
$DIMEXE
 40
2.0
  9
$DIMTP
 40
0.0
  9
$DIMTM
 40
0.0
  9
$DIMTXT
 40
3.2000000000000002
  9
$DIMCEN
 40
0.0
  9
$DIMTSZ
 40
0.0
  9
$DIMTOL
 70
     0
  9
$DIMLIM
 70
     0
  9
$DIMTIH
 70
     0
  9
$DIMTOH
 70
     0
  9
$DIMSE1
 70
     0
  9
$DIMSE2
 70
     0
  9
$DIMTAD
 70
     1
  9
$DIMZIN
 70
     0
  9
$DIMBLK
  1

  9
$DIMASO
 70
     1
  9
$DIMSHO
 70
     0
  9
$DIMPOST
  1

  9
$DIMAPOST
  1

  9
$DIMALT
 70
     0
  9
$DIMALTD
 70
     2
  9
$DIMALTF
 40
25.399999999999999
  9
$DIMLFAC
 40
1.0
  9
$DIMTOFL
 70
     1
  9
$DIMTVP
 40
1.6000000000000001
  9
$DIMTIX
 70
     1
  9
$DIMSOXD
 70
     0
  9
$DIMSAH
 70
     0
  9
$DIMBLK1
  1

  9
$DIMBLK2
  1

  9
$DIMSTYLE
  2
STANDARD
  9
$DIMCLRD
 70
     0
  9
$DIMCLRE
 70
     0
  9
$DIMCLRT
 70
     0
  9
$DIMTFAC
 40
1.0
  9
$DIMGAP
 40
0.09
  9
$LUNITS
 70
     2
  9
$LUPREC
 70
     4
  9
$SKETCHINC
 40
0.1
  9
$FILLETRAD
 40
2.0
  9
$AUNITS
 70
     0
  9
$AUPREC
 70
     4
  9
$MENU
  1
E:\r13\win\SUPPORT\ACAD
  9
$ELEVATION
 40
0.0
  9
$PELEVATION
 40
0.0
  9
$THICKNESS
 40
0.0
  9
$LIMCHECK
 70
     0
  9
$BLIPMODE
 70
     0
  9
$CHAMFERA
 40
0.0
  9
$CHAMFERB
 40
0.0
  9
$SKPOLY
 70
     0
  9
$TDCREATE
 40
2449839.789965278
  9
$TDUPDATE
 40
2456598.566616504
  9
$TDINDWG
 40
0.1788472685
  9
$TDUSRTIMER
 40
0.1788472685
  9
$USRTIMER
 70
     1
  9
$ANGBASE
 50
0.0
  9
$ANGDIR
 70
     0
  9
$PDMODE
 70
     0
  9
$PDSIZE
 40
0.0
  9
$PLINEWID
 40
0.0
  9
$COORDS
 70
     1
  9
$SPLFRAME
 70
     0
  9
$SPLINETYPE
 70
     6
  9
$SPLINESEGS
 70
     8
  9
$ATTDIA
 70
     0
  9
$ATTREQ
 70
     1
  9
$HANDLING
 70
     1
  9
$HANDSEED
  5
1009
  9
$SURFTAB1
 70
     6
  9
$SURFTAB2
 70
     6
  9
$SURFTYPE
 70
     6
  9
$SURFU
 70
     6
  9
$SURFV
 70
     6
  9
$UCSNAME
  2

  9
$UCSORG
 10
0.0
 20
0.0
 30
0.0
  9
$UCSXDIR
 10
1.0
 20
0.0
 30
0.0
  9
$UCSYDIR
 10
0.0
 20
1.0
 30
0.0
  9
$PUCSNAME
  2

  9
$PUCSORG
 10
0.0
 20
0.0
 30
0.0
  9
$PUCSXDIR
 10
1.0
 20
0.0
 30
0.0
  9
$PUCSYDIR
 10
0.0
 20
1.0
 30
0.0
  9
$USERI1
 70
     0
  9
$USERI2
 70
     1
  9
$USERI3
 70
     1
  9
$USERI4
 70
     0
  9
$USERI5
 70
     0
  9
$USERR1
 40
0.0
  9
$USERR2
 40
0.0
  9
$USERR3
 40
0.0
  9
$USERR4
 40
0.0
  9
$USERR5
 40
0.0
  9
$WORLDVIEW
 70
     1
  9
$SHADEDGE
 70
     3
  9
$SHADEDIF
 70
    70
  9
$TILEMODE
 70
     1
  9
$MAXACTVP
 70
    16
  9
$PLIMCHECK
 70
     0
  9
$PEXTMIN
 10
1.0000000000000000E+020
 20
1.0000000000000000E+020
 30
1.0000000000000000E+020
  9
$PEXTMAX
 10
-1.0000000000000000E+020
 20
-1.0000000000000000E+020
 30
-1.0000000000000000E+020
  9
$PLIMMIN
 10
0.0
 20
0.0
  9
$PLIMMAX
 10
12.0
 20
9.0
  9
$UNITMODE
 70
     0
  9
$VISRETAIN
 70
     0
  9
$PLINEGEN
 70
     0
  9
$PSLTSCALE
 70
     0
  0
ENDSEC
  0
SECTION
  2
TABLES
  0
TABLE
  2
VPORT
 70
     1
  0
VPORT
  2
*ACTIVE
 70
     0
 10
0.0
 20
0.0
 11
1.0
 21
1.0
 12
191.34219455414879
 22
197.0509055860143
 13
0.0
 23
0.0
 14
10.0
 24
10.0
 15
10.0
 25
10.0
 16
0.0
 26
0.0
 36
1.0
 17
0.0
 27
0.0
 37
0.0
 40
403.57315882993248
 41
1.7807262569832401
 42
50.0
 43
0.0
 44
0.0
 50
0.0
 51
0.0
 71
     0
 72
   500
 73
     1
 74
     0
 75
     0
 76
     0
 77
     0
 78
     2
  0
ENDTAB
  0
TABLE
  2
LTYPE
 70
     4
  0
LTYPE
  2
CONTINUOUS
 70
     0
  3
Solid Line
 72
    65
 73
     0
 40
0.0
  0
LTYPE
  2
CENTER
 70
     0
  3
____ _ ____ _ ____ _ ____ _ ____ _ ____ _ ____
 72
    65
 73
     4
 40
2.0
 49
1.25
 49
-0.25
 49
0.25
 49
-0.25
  0
LTYPE
  2
HIDDEN
 70
     0
  3
_ _ _ _ _ _ _ _ _ _ _ _ _ _ _ _ _ _ _ _ _ _ _
 72
    65
 73
     2
 40
0.375
 49
0.25
 49
-0.125
  0
LTYPE
  2
PHANTOM2
 70
     0
  3
___ _ _ ___ _ _ ___ _ _ ___ _ _
 72
    65
 73
     6
 40
1.25
 49
0.625
 49
-0.125
 49
0.125
 49
-0.125
 49
0.125
 49
-0.125
  0
ENDTAB
  0
TABLE
  2
LAYER
 70
     4
  0
LAYER
  2
0
 70
     0
 62
     7
  6
CONTINUOUS
  0
LAYER
  2
1
 70
     0
 62
     1
  6
CENTER
  0
LAYER
  2
2
 70
     0
 62
     2
  6
HIDDEN
  0
LAYER
  2
DEFPOINTS
 70
     0
 62
     7
  6
CONTINUOUS
  0
ENDTAB
  0
TABLE
  2
STYLE
 70
     2
  0
STYLE
  2
STANDARD
 70
     0
 40
0.0
 41
1.0
 50
0.0
 71
     0
 42
0.2
  3
TXT
  4
BIGFONT
  0
STYLE
  2
STANDARD1
 70
     0
 40
0.0
 41
1.0
 50
0.0
 71
     0
 42
3.0
  3
txt
  4

  0
ENDTAB
  0
TABLE
  2
VIEW
 70
     2
  0
VIEW
  2
ALL
 70
     0
 40
270.0
 10
220.99159663865549
 20
135.0
 41
0.0
 11
0.0
 21
0.0
 31
1.0
 12
0.0
 22
0.0
 32
0.0
 42
0.0
 43
0.0
 44
0.0
 50
0.0
 71
     0
  0
VIEW
  2
OLE1
 70
     0
 40
52.386513494315203
 10
225.3425809527206
 20
83.746246629732667
 41
93.902122578361059
 11
0.0
 21
0.0
 31
1.0
 12
0.0
 22
0.0
 32
0.0
 42
50.0
 43
0.0
 44
0.0
 50
0.0
 71
     0
  0
ENDTAB
  0
TABLE
  2
UCS
 70
     0
  0
ENDTAB
  0
TABLE
  2
APPID
 70
     8
  0
APPID
  2
ACAD
 70
     0
  0
APPID
  2
ACAD_EXEMPT_FROM_CAD_STANDARDS
 70
     0
  0
APPID
  2
ACAD_DSTYLE_DIMRADIAL_EXTENSION
 70
     0
  0
APPID
  2
GENIUS_GENODEF_13
 70
     0
  0
APPID
  2
GENIUS_GENFIL_13
 70
     0
  0
APPID
  2
GENIUS_GENOBJ-N-CHA_13
 70
     0
  0
APPID
  2
ACAD_MLEADERVER
 70
     0
  0
APPID
  2
ACAD_NAV_VCDISPLAY
 70
     0
  0
ENDTAB
  0
TABLE
  2
DIMSTYLE
 70
     1
  0
DIMSTYLE
  2
STANDARD
 70
     0
  3

  4

  5

  6

  7

 40
1.0
 41
0.18
 42
0.0625
 43
0.38
 44
0.18
 45
0.0
 46
0.0
 47
0.0
 48
0.0
140
0.18
141
0.09
142
0.0
143
25.399999999999999
144
1.0
145
0.0
146
1.0
147
0.09
 71
     0
 72
     0
 73
     1
 74
     1
 75
     0
 76
     0
 77
     0
 78
     0
170
     0
171
     2
172
     0
173
     0
174
     0
175
     0
176
     0
177
     0
178
     0
  0
ENDTAB
  0
ENDSEC
  0
SECTION
  2
BLOCKS
  0
BLOCK
  8
0
  2
$MODEL_SPACE
 70
     0
 10
0.0
 20
0.0
 30
0.0
  3
$MODEL_SPACE
  1

  0
ENDBLK
  5
154
  8
0
  0
BLOCK
 67
     1
  8
0
  2
$PAPER_SPACE
 70
     0
 10
0.0
 20
0.0
 30
0.0
  3
$PAPER_SPACE
  1

  0
ENDBLK
  5
152
 67
     1
  8
0
  0
ENDSEC
  0
SECTION
  2
ENTITIES
  0
LINE
  5
205
  8
0
 10
357.18438732628442
 20
63.134214883024349
 30
0.0
 11
357.18438732628442
 21
43.43421488302431
 31
0.0
  0
LINE
  5
206
  8
0
 10
331.18438732628442
 20
63.134214883024349
 30
0.0
 11
331.18438732628442
 21
43.43421488302431
 31
0.0
  0
LINE
  5
35E
  8
2
 10
349.68438732628442
 20
69.634214883024356
 30
0.0
 11
338.68438732628442
 21
69.634214883024356
 31
0.0
  0
LINE
  5
35F
  8
2
 10
336.68438732628442
 20
67.634214883024356
 30
0.0
 11
336.68438732628442
 21
42.43421488302431
 31
0.0
  0
LINE
  5
360
  8
2
 10
338.68438732628442
 20
69.634214883024356
 30
0.0
 11
336.68438732628442
 21
67.634214883024356
 31
0.0
  0
LINE
  5
361
  8
2
 10
338.18438732628442
 20
43.18721488302446
 30
0.0
 11
338.18438732628442
 21
62.134214883024363
 31
0.0
  0
LINE
  5
362
  8
2
 10
339.13138732628431
 20
44.134214883024349
 30
0.0
 11
339.13138732628431
 21
64.134214883024356
 31
0.0
  0
LINE
  5
363
  8
2
 10
338.18438732628442
 20
62.134214883024363
 30
0.0
 11
350.18438732628442
 21
62.134214883024363
 31
0.0
  0
LINE
  5
364
  8
2
 10
339.13138732628431
 20
64.134214883024356
 30
0.0
 11
349.23738732628448
 21
64.134214883024356
 31
0.0
  0
LINE
  5
365
  8
2
 10
339.13138732628431
 20
64.134214883024356
 30
0.0
 11
344.1843873262842
 21
67.170363590970851
 31
0.0
  0
LINE
  5
366
  8
2
 10
338.1843873262842
 20
62.134214883024363
 30
0.0
 11
339.13138732628408
 21
63.774466997792047
 31
0.0
  0
LINE
  5
367
  8
2
 10
349.23738732628448
 20
44.134214883024349
 30
0.0
 11
339.13138732628431
 21
44.134214883024349
 31
0.0
  0
LINE
  5
368
  8
2
 10
337.13138732628431
 20
42.134214883024363
 30
0.0
 11
339.13138732628431
 21
44.134214883024349
 31
0.0
  0
LINE
  5
369
  8
2
 10
351.23738732628448
 20
42.134214883024363
 30
0.0
 11
349.23738732628448
 21
44.134214883024349
 31
0.0
  0
LINE
  5
36A
  8
2
 10
350.18438732628459
 20
62.134214883024363
 30
0.0
 11
349.2373873262847
 21
63.774466997792047
 31
0.0
  0
LINE
  5
36B
  8
2
 10
349.23738732628448
 20
44.134214883024349
 30
0.0
 11
349.23738732628448
 21
64.134214883024356
 31
0.0
  0
LINE
  5
36C
  8
2
 10
350.18438732628442
 20
43.18721488302446
 30
0.0
 11
350.18438732628442
 21
62.134214883024363
 31
0.0
  0
LINE
  5
36D
  8
2
 10
349.68438732628442
 20
69.634214883024356
 30
0.0
 11
351.68438732628442
 21
67.634214883024356
 31
0.0
  0
LINE
  5
36E
  8
2
 10
351.68438732628442
 20
67.634214883024356
 30
0.0
 11
351.68438732628442
 21
42.43421488302431
 31
0.0
  0
LINE
  5
36F
  8
2
 10
349.23738732628448
 20
64.134214883024356
 30
0.0
 11
344.18438732628459
 21
67.170363590970851
 31
0.0
  0
LINE
  5
370
  8
0
 10
351.68438732628442
 20
42.134214883024363
 30
0.0
 11
336.68438732628442
 21
42.134214883024363
 31
0.0
  0
LINE
  5
371
  8
0
 10
336.68438732628442
 20
42.43421488302431
 30
0.0
 11
336.68438732628442
 21
42.134214883024363
 31
0.0
  0
LINE
  5
372
  8
0
 10
351.68438732628442
 20
42.43421488302431
 30
0.0
 11
351.68438732628442
 21
42.134214883024363
 31
0.0
  0
LINE
  5
373
  8
1
 10
344.18438732628442
 20
37.134214883024363
 30
0.0
 11
344.18438732628442
 21
93.134214883024356
 31
0.0
  0
LINE
  5
374
  8
1
 10
210.72633867478581
 20
205.54035223505139
 30
0.0
 11
210.72633867478561
 21
125.2675395657193
 31
0.0
  0
LINE
  5
37F
  8
1
 10
245.86633867478579
 20
165.40394590038511
 30
0.0
 11
167.22633867478569
 21
165.40394590038511
 31
0.0
  0
ARC
  5
623
  8
0
 10
232.08438732628429
 20
180.9214765609064
 30
0.0
 40
12.100000000000019
 50
331.97575267529578
 51
100.02424732469881
  0
ARC
  5
624
  8
0
 10
202.56829002328709
 20
190.5118379305774
 30
0.0
 40
12.1
 50
43.975752675296491
 51
172.0242473246889
  0
ARC
  5
625
  8
0
 10
184.3263386747858
 20
165.40394590038511
 30
0.0
 40
12.1
 50
115.9757526753083
 51
244.02424732469169
  0
ARC
  5
626
  8
0
 10
202.56829002328681
 20
140.2960538701933
 30
0.0
 40
12.09999999999998
 50
187.97575267530951
 51
316.02424732470348
  0
ARC
  5
627
  8
0
 10
232.08438732628429
 20
149.88641523986399
 30
0.0
 40
12.09999999999993
 50
259.97575267530118
 51
28.024247324704199
  0
ARC
  5
628
  8
0
 10
164.9845178128262
 20
198.63732406500171
 30
0.0
 40
26.399999999999999
 50
302.13385079145172
 51
345.86614920855152
  0
ARC
  5
629
  8
0
 10
228.19815953674541
 20
219.17668133171341
 30
0.0
 40
26.399999999999999
 50
230.1338507914414
 51
273.86614920854652
  0
ARC
  5
62A
  8
0
 10
267.26633867478591
 20
165.40394590038511
 30
0.0
 40
26.399999999999999
 50
158.1338507914474
 51
201.8661492085526
  0
ARC
  5
62B
  8
0
 10
228.1981595367451
 20
111.63121046905739
 30
0.0
 40
26.399999999999999
 50
86.133850791453483
 51
129.8661492085414
  0
ARC
  5
62C
  8
0
 10
164.9845178128262
 20
132.17056773576891
 30
0.0
 40
26.399999999999999
 50
14.133850791448531
 51
57.866149208548308
  0
CIRCLE
  5
63D
  8
0
 10
210.72633867478561
 20
165.40394590038511
 30
0.0
 40
10.5
  0
CIRCLE
  5
63E
  8
0
 10
210.72633867478561
 20
165.40394590038511
 30
0.0
 40
11.75
  0
LINE
  5
788
  8
0
 10
355.93438732628442
 20
88.134214883024356
 30
0.0
 11
332.43438732628442
 21
88.134214883024356
 31
0.0
  0
LINE
  5
78C
  8
0
 10
382.68438732628448
 20
68.298945520227221
 30
0.0
 11
382.68438732628448
 21
82.969484245821491
 31
0.0
  0
ARC
  5
7AA
  8
0
 10
337.98560260406231
 20
-153.01899692253099
 30
0.0
 40
241.82024405979689
 50
79.744095335321646
 51
85.743382760222929
  0
ARC
  5
7AB
  8
0
 10
380.68438732628442
 20
82.969484245821491
 30
0.0
 40
2.0
 50
0.0
 51
79.744095335321646
  0
ARC
  5
7AC
  8
0
 10
350.38317204850568
 20
-153.01899692253099
 30
0.0
 40
241.82024405979689
 50
94.256617239783594
 51
100.2559046646783
  0
ARC
  5
7AD
  8
0
 10
307.68438732628442
 20
82.969484245821718
 30
0.0
 40
2.0
 50
100.2559046646783
 51
180.0
  0
LINE
  5
7BD
  8
0
 10
355.93438732628442
 20
63.134214883024349
 30
0.0
 11
332.43438732628442
 21
63.134214883024349
 31
0.0
  0
ARC
  5
7BE
  8
0
 10
337.98560260406231
 20
304.28742668857979
 30
0.0
 40
241.82024405979689
 50
274.25661723977697
 51
280.25590466467838
  0
ARC
  5
7BF
  8
0
 10
380.68438732628442
 20
68.298945520227221
 30
0.0
 40
2.0
 50
280.25590466467838
 51
0.0
  0
ARC
  5
7C0
  8
0
 10
350.38317204850591
 20
304.28742668857979
 30
0.0
 40
241.82024405979689
 50
259.74409533532162
 51
265.74338276022303
  0
ARC
  5
7C1
  8
0
 10
307.68438732628442
 20
68.298945520226994
 30
0.0
 40
2.0
 50
180.0
 51
259.74409533532162
  0
LINE
  5
7C2
  8
0
 10
305.68438732628442
 20
68.298945520227221
 30
0.0
 11
305.68438732628442
 21
82.969484245821491
 31
0.0
  0
ARC
  5
7C3
  8
0
 10
344.18438732628442
 20
26.876326046966941
 30
0.0
 40
59.80608230438267
 50
74.961734534214585
 51
105.0382654657854
  0
ARC
  5
7C4
  8
0
 10
365.75191798680572
 20
96.990913699859576
 30
0.0
 40
13.75828861632065
 50
243.91303052398879
 51
296.0869694760039
  0
ARC
  5
7C6
  8
0
 10
322.61685666576341
 20
96.990913699859334
 30
0.0
 40
13.75828861632032
 50
243.91303052398879
 51
296.08696947601118
  0
LINE
  5
7CA
  8
0
 10
371.80191798680562
 20
83.529688537095936
 30
0.0
 11
371.80191798680568
 21
67.738741228952748
 31
0.0
  0
LINE
  5
7CE
  8
0
 10
359.70191798680571
 20
83.529688537095936
 30
0.0
 11
359.70191798680571
 21
67.738741228952776
 31
0.0
  0
LINE
  5
7CF
  8
0
 10
328.66685666576319
 20
83.529688537095964
 30
0.0
 11
328.66685666576319
 21
67.738741228952733
 31
0.0
  0
LINE
  5
7D0
  8
0
 10
316.56685666576323
 20
83.529688537096192
 30
0.0
 11
316.56685666576323
 21
67.738741228952534
 31
0.0
  0
ARC
  5
805
  8
0
 10
344.18438732628459
 20
124.3921037190818
 30
0.0
 40
59.80608230438267
 50
254.9617345342146
 51
285.0382654657854
  0
ARC
  5
806
  8
0
 10
365.75191798680572
 20
54.27751606618915
 30
0.0
 40
13.75828861632065
 50
63.91303052398883
 51
116.08696947601121
  0
ARC
  5
808
  8
0
 10
322.61685666576341
 20
54.277516066189371
 30
0.0
 40
13.75828861632032
 50
63.91303052398883
 51
116.08696947601121
  0
ARC
  5
80B
  8
0
 10
387.31944864732691
 20
26.876326046966941
 30
0.0
 40
59.80608230438267
 50
100.3693932296319
 51
105.0382654657854
  0
ARC
  5
80C
  8
0
 10
301.04932600524188
 20
26.87632604696671
 30
0.0
 40
59.80608230438267
 50
74.961734534207835
 51
79.63060677036809
  0
ARC
  5
80D
  8
0
 10
387.31944864732708
 20
124.3921037190818
 30
0.0
 40
59.80608230438267
 50
254.96173453420781
 51
259.6306067703681
  0
ARC
  5
80E
  8
0
 10
301.04932600524188
 20
124.392103719082
 30
0.0
 40
59.80608230438267
 50
280.3693932296319
 51
285.03826546579222
  0
LINE
  5
831
  8
0
 10
84.226338674785666
 20
42.43421488302431
 30
0.0
 11
60.226338674785673
 21
42.43421488302431
 31
0.0
  0
LINE
  5
832
  8
0
 10
83.976338674785666
 20
88.134214883024356
 30
0.0
 11
60.476338674785659
 21
88.134214883024356
 31
0.0
  0
LINE
  5
833
  8
0
 10
85.226338674785666
 20
63.134214883024349
 30
0.0
 11
85.226338674785666
 21
43.43421488302431
 31
0.0
  0
LINE
  5
834
  8
0
 10
59.226338674785659
 20
63.134214883024349
 30
0.0
 11
59.226338674785659
 21
43.43421488302431
 31
0.0
  0
LINE
  5
835
  8
2
 10
77.726338674785666
 20
69.634214883024356
 30
0.0
 11
66.726338674785666
 21
69.634214883024356
 31
0.0
  0
LINE
  5
836
  8
2
 10
64.726338674785666
 20
67.634214883024356
 30
0.0
 11
64.726338674785666
 21
42.43421488302431
 31
0.0
  0
LINE
  5
837
  8
2
 10
66.726338674785666
 20
69.634214883024356
 30
0.0
 11
64.726338674785666
 21
67.634214883024356
 31
0.0
  0
LINE
  5
838
  8
2
 10
66.226338674785666
 20
43.18721488302446
 30
0.0
 11
66.226338674785666
 21
62.134214883024363
 31
0.0
  0
LINE
  5
839
  8
2
 10
67.173338674785668
 20
44.134214883024349
 30
0.0
 11
67.173338674785668
 21
64.134214883024356
 31
0.0
  0
LINE
  5
83A
  8
2
 10
66.226338674785666
 20
62.134214883024363
 30
0.0
 11
78.226338674785666
 21
62.134214883024363
 31
0.0
  0
LINE
  5
83B
  8
2
 10
67.173338674785668
 20
64.134214883024356
 30
0.0
 11
77.279338674785663
 21
64.134214883024356
 31
0.0
  0
LINE
  5
83C
  8
2
 10
67.173338674785441
 20
64.134214883024356
 30
0.0
 11
72.226338674785438
 21
67.170363590970851
 31
0.0
  0
LINE
  5
83D
  8
2
 10
66.226338674785325
 20
62.134214883024363
 30
0.0
 11
67.173338674785327
 21
63.774466997792047
 31
0.0
  0
LINE
  5
83E
  8
2
 10
77.279338674785663
 20
44.134214883024349
 30
0.0
 11
67.173338674785668
 21
44.134214883024349
 31
0.0
  0
LINE
  5
83F
  8
2
 10
65.173338674785555
 20
42.134214883024363
 30
0.0
 11
67.173338674785668
 21
44.134214883024349
 31
0.0
  0
LINE
  5
840
  8
2
 10
79.279338674785777
 20
42.134214883024363
 30
0.0
 11
77.279338674785663
 21
44.134214883024349
 31
0.0
  0
LINE
  5
841
  8
2
 10
78.226338674786007
 20
62.134214883024363
 30
0.0
 11
77.279338674786004
 21
63.774466997792047
 31
0.0
  0
LINE
  5
842
  8
2
 10
77.279338674785663
 20
44.134214883024349
 30
0.0
 11
77.279338674785663
 21
64.134214883024356
 31
0.0
  0
LINE
  5
843
  8
2
 10
78.226338674785666
 20
43.18721488302446
 30
0.0
 11
78.226338674785666
 21
62.134214883024363
 31
0.0
  0
LINE
  5
844
  8
2
 10
77.726338674785666
 20
69.634214883024356
 30
0.0
 11
79.726338674785666
 21
67.634214883024356
 31
0.0
  0
LINE
  5
845
  8
2
 10
79.726338674785666
 20
67.634214883024356
 30
0.0
 11
79.726338674785666
 21
42.43421488302431
 31
0.0
  0
LINE
  5
846
  8
2
 10
77.27933867478589
 20
64.134214883024356
 30
0.0
 11
72.226338674785893
 21
67.170363590970851
 31
0.0
  0
LINE
  5
847
  8
0
 10
79.726338674785666
 20
42.134214883024363
 30
0.0
 11
64.726338674785666
 21
42.134214883024363
 31
0.0
  0
LINE
  5
849
  8
0
 10
64.726338674785666
 20
42.43421488302431
 30
0.0
 11
64.726338674785666
 21
42.134214883024363
 31
0.0
  0
LINE
  5
84A
  8
0
 10
79.726338674785666
 20
42.43421488302431
 30
0.0
 11
79.726338674785666
 21
42.134214883024363
 31
0.0
  0
LINE
  5
84B
  8
1
 10
72.226338674785666
 20
37.134214883024363
 30
0.0
 11
72.226338674785666
 21
93.134214883024356
 31
0.0
  0
LINE
  5
850
  8
0
 10
59.226338674785659
 20
43.43421488302431
 30
0.0
 11
60.226338674785673
 21
42.43421488302431
 31
0.0
  0
LINE
  5
852
  8
0
 10
110.72633867478559
 20
68.298945520227221
 30
0.0
 11
110.72633867478559
 21
82.969484245821491
 31
0.0
  0
ARC
  5
853
  8
0
 10
66.02755395256338
 20
-153.01899692253099
 30
0.0
 40
241.82024405979689
 50
79.744095335321646
 51
85.74338276021642
  0
ARC
  5
854
  8
0
 10
108.72633867478559
 20
82.969484245821491
 30
0.0
 40
2.0
 50
0.0
 51
79.744095335321646
  0
ARC
  5
855
  8
0
 10
78.425123397006928
 20
-153.01899692253099
 30
0.0
 40
241.82024405979689
 50
94.256617239783594
 51
100.2559046646783
  0
ARC
  5
856
  8
0
 10
35.726338674785673
 20
82.969484245821718
 30
0.0
 40
2.0
 50
100.2559046646783
 51
180.0
  0
LINE
  5
857
  8
0
 10
83.976338674785666
 20
63.134214883024349
 30
0.0
 11
60.476338674785659
 21
63.134214883024349
 31
0.0
  0
ARC
  5
858
  8
0
 10
66.027553952563494
 20
304.28742668857979
 30
0.0
 40
241.82024405979689
 50
274.25661723978362
 51
280.25590466467838
  0
ARC
  5
859
  8
0
 10
108.72633867478559
 20
68.298945520227221
 30
0.0
 40
2.0
 50
280.25590466467838
 51
0.0
  0
ARC
  5
85A
  8
0
 10
78.425123397007042
 20
304.28742668857979
 30
0.0
 40
241.82024405979689
 50
259.74409533532162
 51
265.74338276021638
  0
ARC
  5
85B
  8
0
 10
35.726338674785673
 20
68.298945520226994
 30
0.0
 40
2.0
 50
180.0
 51
259.74409533532162
  0
LINE
  5
85C
  8
0
 10
33.726338674785673
 20
68.298945520227221
 30
0.0
 11
33.726338674785673
 21
82.969484245821491
 31
0.0
  0
ARC
  5
85D
  8
0
 10
72.226338674785765
 20
26.876326046966941
 30
0.0
 40
59.80608230438267
 50
74.961734534207835
 51
105.03826546579209
  0
ARC
  5
85E
  8
0
 10
93.793869335307008
 20
96.990913699859576
 30
0.0
 40
13.75828861632065
 50
243.9130305239961
 51
296.0869694760039
  0
ARC
  5
85F
  8
0
 10
50.658808014264537
 20
96.990913699859334
 30
0.0
 40
13.75828861632032
 50
243.9130305239961
 51
296.0869694760039
  0
ARC
  5
860
  8
0
 10
72.226338674785765
 20
124.3921037190818
 30
0.0
 40
59.80608230438267
 50
254.96173453420781
 51
285.03826546579222
  0
ARC
  5
861
  8
0
 10
93.793869335306908
 20
54.27751606618915
 30
0.0
 40
13.75828861632065
 50
63.91303052398883
 51
116.08696947601121
  0
ARC
  5
862
  8
0
 10
50.658808014264537
 20
54.277516066189371
 30
0.0
 40
13.75828861632032
 50
63.91303052398883
 51
116.08696947601121
  0
ARC
  5
863
  8
0
 10
115.36139999582819
 20
26.876326046966941
 30
0.0
 40
59.80608230438267
 50
100.3693932296319
 51
105.03826546579209
  0
ARC
  5
864
  8
0
 10
29.09127735374318
 20
26.87632604696671
 30
0.0
 40
59.80608230438267
 50
74.961734534207835
 51
79.63060677036809
  0
ARC
  5
865
  8
0
 10
115.36139999582819
 20
124.3921037190818
 30
0.0
 40
59.80608230438267
 50
254.96173453420781
 51
259.6306067703681
  0
ARC
  5
866
  8
0
 10
29.091277353743301
 20
124.392103719082
 30
0.0
 40
59.80608230438267
 50
280.3693932296319
 51
285.03826546579222
  0
LINE
  5
868
  8
0
 10
222.47633867478569
 20
88.134214883024356
 30
0.0
 11
198.97633867478561
 21
88.134214883024356
 31
0.0
  0
LINE
  5
869
  8
0
 10
223.72633867478569
 20
63.134214883024349
 30
0.0
 11
223.72633867478569
 21
43.43421488302431
 31
0.0
  0
LINE
  5
86A
  8
0
 10
197.72633867478561
 20
63.134214883024349
 30
0.0
 11
197.72633867478561
 21
43.43421488302431
 31
0.0
  0
LINE
  5
86B
  8
2
 10
216.22633867478569
 20
69.634214883024356
 30
0.0
 11
205.22633867478569
 21
69.634214883024356
 31
0.0
  0
LINE
  5
86C
  8
2
 10
203.22633867478569
 20
67.634214883024356
 30
0.0
 11
203.22633867478569
 21
42.43421488302431
 31
0.0
  0
LINE
  5
86D
  8
2
 10
205.22633867478569
 20
69.634214883024356
 30
0.0
 11
203.22633867478569
 21
67.634214883024356
 31
0.0
  0
LINE
  5
86E
  8
2
 10
204.72633867478569
 20
43.18721488302446
 30
0.0
 11
204.72633867478569
 21
62.134214883024363
 31
0.0
  0
LINE
  5
86F
  8
2
 10
205.6733386747857
 20
44.134214883024349
 30
0.0
 11
205.6733386747857
 21
64.134214883024356
 31
0.0
  0
LINE
  5
870
  8
2
 10
204.72633867478569
 20
62.134214883024363
 30
0.0
 11
216.72633867478569
 21
62.134214883024363
 31
0.0
  0
LINE
  5
871
  8
2
 10
205.6733386747857
 20
64.134214883024356
 30
0.0
 11
215.77933867478569
 21
64.134214883024356
 31
0.0
  0
LINE
  5
872
  8
2
 10
205.67333867478541
 20
64.134214883024356
 30
0.0
 11
210.72633867478541
 21
67.170363590970851
 31
0.0
  0
LINE
  5
873
  8
2
 10
204.7263386747853
 20
62.134214883024363
 30
0.0
 11
205.6733386747853
 21
63.774466997792047
 31
0.0
  0
LINE
  5
874
  8
2
 10
215.77933867478569
 20
44.134214883024349
 30
0.0
 11
205.6733386747857
 21
44.134214883024349
 31
0.0
  0
LINE
  5
875
  8
2
 10
203.6733386747855
 20
42.134214883024363
 30
0.0
 11
205.6733386747857
 21
44.134214883024349
 31
0.0
  0
LINE
  5
876
  8
2
 10
217.77933867478581
 20
42.134214883024363
 30
0.0
 11
215.77933867478569
 21
44.134214883024349
 31
0.0
  0
LINE
  5
877
  8
2
 10
216.72633867478601
 20
62.134214883024363
 30
0.0
 11
215.779338674786
 21
63.774466997792047
 31
0.0
  0
LINE
  5
878
  8
2
 10
215.77933867478569
 20
44.134214883024349
 30
0.0
 11
215.77933867478569
 21
64.134214883024356
 31
0.0
  0
LINE
  5
879
  8
2
 10
216.72633867478569
 20
43.18721488302446
 30
0.0
 11
216.72633867478569
 21
62.134214883024363
 31
0.0
  0
LINE
  5
87A
  8
2
 10
216.22633867478569
 20
69.634214883024356
 30
0.0
 11
218.22633867478569
 21
67.634214883024356
 31
0.0
  0
LINE
  5
87B
  8
2
 10
218.22633867478569
 20
67.634214883024356
 30
0.0
 11
218.22633867478569
 21
42.43421488302431
 31
0.0
  0
LINE
  5
87C
  8
2
 10
215.77933867478589
 20
64.134214883024356
 30
0.0
 11
210.72633867478589
 21
67.170363590970851
 31
0.0
  0
LINE
  5
87D
  8
0
 10
218.22633867478569
 20
42.134214883024363
 30
0.0
 11
203.22633867478569
 21
42.134214883024363
 31
0.0
  0
LINE
  5
87F
  8
0
 10
203.22633867478569
 20
42.43421488302431
 30
0.0
 11
203.22633867478569
 21
42.134214883024363
 31
0.0
  0
LINE
  5
880
  8
0
 10
218.22633867478569
 20
42.43421488302431
 30
0.0
 11
218.22633867478569
 21
42.134214883024363
 31
0.0
  0
LINE
  5
881
  8
1
 10
210.72633867478561
 20
37.134214883024363
 30
0.0
 11
210.72633867478561
 21
93.134214883024356
 31
0.0
  0
LINE
  5
888
  8
0
 10
244.18438732628431
 20
68.298945520227221
 30
0.0
 11
244.18438732628431
 21
82.969484245821491
 31
0.0
  0
ARC
  5
889
  8
0
 10
208.03164531882339
 20
-67.093595628183948
 30
0.0
 40
155.89843591983629
 50
77.21139388151056
 51
84.683662311026836
  0
ARC
  5
88A
  8
0
 10
242.18438732628431
 20
82.969484245821491
 30
0.0
 40
2.0
 50
0.0
 51
79.744095335321646
  0
ARC
  5
88B
  8
0
 10
216.9251233970069
 20
-153.01899692253099
 30
0.0
 40
241.82024405979689
 50
94.256617239783594
 51
100.2559046646783
  0
ARC
  5
88C
  8
0
 10
174.22633867478569
 20
82.969484245821718
 30
0.0
 40
2.0
 50
100.2559046646783
 51
180.0
  0
LINE
  5
88D
  8
0
 10
222.47633867478569
 20
63.134214883024349
 30
0.0
 11
198.97633867478561
 21
63.134214883024349
 31
0.0
  0
ARC
  5
88E
  8
0
 10
208.03164531882339
 20
218.3620253942324
 30
0.0
 40
155.898435919836
 50
275.31633768897308
 51
282.78860611848938
  0
ARC
  5
88F
  8
0
 10
242.18438732628431
 20
68.298945520227221
 30
0.0
 40
2.0
 50
280.25590466467838
 51
0.0
  0
ARC
  5
890
  8
0
 10
216.92512339700701
 20
304.28742668857979
 30
0.0
 40
241.82024405979689
 50
259.74409533532162
 51
265.74338276021638
  0
ARC
  5
891
  8
0
 10
174.22633867478569
 20
68.298945520226994
 30
0.0
 40
2.0
 50
180.0
 51
259.74409533532162
  0
LINE
  5
892
  8
0
 10
172.22633867478561
 20
68.298945520227221
 30
0.0
 11
172.22633867478561
 21
82.969484245821491
 31
0.0
  0
LINE
  5
9BD
  8
0
 10
229.97820169188441
 20
83.529688537095964
 30
0.0
 11
229.97820169188441
 21
67.738741228952776
 31
0.0
  0
LINE
  5
9BE
  8
0
 10
211.27585794231479
 20
83.529688537095964
 30
0.0
 11
211.27585794231479
 21
67.738741228952776
 31
0.0
  0
LINE
  5
9BF
  8
0
 10
190.58533480535729
 20
83.529688537095936
 30
0.0
 11
190.58533480535729
 21
67.738741228952776
 31
0.0
  0
LINE
  5
9C0
  8
0
 10
179.0266506988342
 20
83.529688537095964
 30
0.0
 11
179.0266506988342
 21
67.738741228952776
 31
0.0
  0
ARC
  5
9DD
  8
0
 10
218.20286546587849
 20
26.876326046966941
 30
0.0
 40
59.80608230438267
 50
74.961734534214585
 51
105.0382654657854
  0
ARC
  5
9DE
  8
0
 10
239.77039612639979
 20
96.990913699859576
 30
0.0
 40
13.75828861632065
 50
243.91303052398879
 51
278.79272467095183
  0
ARC
  5
9DF
  8
0
 10
196.6353348053575
 20
96.990913699859334
 30
0.0
 40
13.75828861632032
 50
243.91303052398879
 51
296.08696947601118
  0
ARC
  5
9E0
  8
0
 10
218.20286546587869
 20
124.3921037190818
 30
0.0
 40
59.80608230438267
 50
254.9617345342146
 51
285.0382654657854
  0
ARC
  5
9E1
  8
0
 10
239.77039612639979
 20
54.27751606618915
 30
0.0
 40
13.75828861632065
 50
81.207275329048144
 51
116.08696947601121
  0
ARC
  5
9E2
  8
0
 10
196.6353348053575
 20
54.277516066189371
 30
0.0
 40
13.75828861632032
 50
63.91303052398883
 51
116.08696947601121
  0
ARC
  5
9E3
  8
0
 10
175.067804144836
 20
26.87632604696671
 30
0.0
 40
59.80608230438267
 50
74.961734534207835
 51
81.059899732797433
  0
ARC
  5
9E4
  8
0
 10
175.067804144836
 20
124.392103719082
 30
0.0
 40
59.80608230438267
 50
278.94010026720258
 51
285.03826546579222
  0
LINE
  5
BE0
  8
0
 10
85.226338674785666
 20
43.43421488302431
 30
0.0
 11
59.226338674785673
 21
43.43421488302431
 31
0.0
  0
LINE
  5
BE8
  8
0
 10
85.226338674785666
 20
43.43421488302431
 30
0.0
 11
84.226338674785666
 21
42.43421488302431
 31
0.0
  0
LINE
  5
BE9
  8
0
 10
222.72633867478569
 20
42.43421488302431
 30
0.0
 11
198.72633867478561
 21
42.43421488302431
 31
0.0
  0
LINE
  5
BEA
  8
0
 10
223.72633867478569
 20
43.43421488302431
 30
0.0
 11
197.72633867478561
 21
43.43421488302431
 31
0.0
  0
LINE
  5
BEB
  8
0
 10
197.72633867478561
 20
43.43421488302431
 30
0.0
 11
198.72633867478561
 21
42.43421488302431
 31
0.0
  0
LINE
  5
BEC
  8
0
 10
223.72633867478569
 20
43.43421488302431
 30
0.0
 11
222.72633867478569
 21
42.43421488302431
 31
0.0
  0
LINE
  5
BED
  8
0
 10
356.18438732628442
 20
42.43421488302431
 30
0.0
 11
332.18438732628442
 21
42.43421488302431
 31
0.0
  0
LINE
  5
BEE
  8
0
 10
357.18438732628442
 20
43.43421488302431
 30
0.0
 11
331.18438732628442
 21
43.43421488302431
 31
0.0
  0
LINE
  5
BEF
  8
0
 10
331.18438732628442
 20
43.43421488302431
 30
0.0
 11
332.18438732628442
 21
42.43421488302431
 31
0.0
  0
LINE
  5
BF0
  8
0
 10
357.18438732628442
 20
43.43421488302431
 30
0.0
 11
356.18438732628442
 21
42.43421488302431
 31
0.0
  0
LINE
  5
F41
  8
0
 10
99.843869335306863
 20
83.529688537095936
 30
0.0
 11
99.843869335306934
 21
67.738741228952748
 31
0.0
  0
LINE
  5
F42
  8
0
 10
87.743869335306954
 20
83.529688537095936
 30
0.0
 11
87.743869335306954
 21
67.738741228952776
 31
0.0
  0
LINE
  5
F43
  8
0
 10
56.708808014264378
 20
83.529688537095964
 30
0.0
 11
56.708808014264378
 21
67.738741228952733
 31
0.0
  0
LINE
  5
F44
  8
0
 10
44.608808014264469
 20
83.529688537096192
 30
0.0
 11
44.608808014264469
 21
67.738741228952534
 31
0.0
  0
TEXT
  5
FA4
  8
0
 62
     3
 10
0.0
 20
0.0
 30
0.0
 40
10.0
  1
STK77SOFT
  7
STANDARD1
  0
ENDSEC
  0
EOF
