  0
SECTION
  2
HEADER
  9
$ACADVER
  1
AC1009
  9
$INSBASE
 10
0.0
 20
0.0
 30
0.0
  9
$EXTMIN
 10
0.0
 20
-2.960436562073669
 30
0.0
  9
$EXTMAX
 10
353.69210244068353
 20
263.46013189448428
 30
0.0
  9
$LIMMIN
 10
0.0
 20
0.0
  9
$LIMMAX
 10
375.0
 20
270.0
  9
$ORTHOMODE
 70
     1
  9
$REGENMODE
 70
     1
  9
$FILLMODE
 70
     1
  9
$QTEXTMODE
 70
     0
  9
$MIRRTEXT
 70
     0
  9
$DRAGMODE
 70
     2
  9
$LTSCALE
 40
10.0
  9
$OSMODE
 70
    55
  9
$ATTMODE
 70
     1
  9
$TEXTSIZE
 40
0.2
  9
$TRACEWID
 40
0.05
  9
$TEXTSTYLE
  7
STANDARD
  9
$CLAYER
  8
0
  9
$CELTYPE
  6
BYLAYER
  9
$CECOLOR
 62
   256
  9
$DIMSCALE
 40
1.0
  9
$DIMASZ
 40
3.0
  9
$DIMEXO
 40
2.0
  9
$DIMDLI
 40
0.38
  9
$DIMRND
 40
0.0
  9
$DIMDLE
 40
0.0
  9
$DIMEXE
 40
2.0
  9
$DIMTP
 40
0.0
  9
$DIMTM
 40
0.0
  9
$DIMTXT
 40
3.2000000000000002
  9
$DIMCEN
 40
0.0
  9
$DIMTSZ
 40
0.0
  9
$DIMTOL
 70
     0
  9
$DIMLIM
 70
     0
  9
$DIMTIH
 70
     0
  9
$DIMTOH
 70
     0
  9
$DIMSE1
 70
     0
  9
$DIMSE2
 70
     0
  9
$DIMTAD
 70
     1
  9
$DIMZIN
 70
     0
  9
$DIMBLK
  1

  9
$DIMASO
 70
     1
  9
$DIMSHO
 70
     0
  9
$DIMPOST
  1

  9
$DIMAPOST
  1

  9
$DIMALT
 70
     0
  9
$DIMALTD
 70
     2
  9
$DIMALTF
 40
25.399999999999999
  9
$DIMLFAC
 40
1.0
  9
$DIMTOFL
 70
     1
  9
$DIMTVP
 40
1.6000000000000001
  9
$DIMTIX
 70
     1
  9
$DIMSOXD
 70
     0
  9
$DIMSAH
 70
     0
  9
$DIMBLK1
  1

  9
$DIMBLK2
  1

  9
$DIMSTYLE
  2
STANDARD
  9
$DIMCLRD
 70
     0
  9
$DIMCLRE
 70
     0
  9
$DIMCLRT
 70
     0
  9
$DIMTFAC
 40
1.0
  9
$DIMGAP
 40
0.09
  9
$LUNITS
 70
     2
  9
$LUPREC
 70
     4
  9
$SKETCHINC
 40
0.1
  9
$FILLETRAD
 40
0.0
  9
$AUNITS
 70
     0
  9
$AUPREC
 70
     4
  9
$MENU
  1
E:\r13\win\SUPPORT\ACAD
  9
$ELEVATION
 40
0.0
  9
$PELEVATION
 40
0.0
  9
$THICKNESS
 40
0.0
  9
$LIMCHECK
 70
     0
  9
$BLIPMODE
 70
     0
  9
$CHAMFERA
 40
0.0
  9
$CHAMFERB
 40
0.0
  9
$SKPOLY
 70
     0
  9
$TDCREATE
 40
2449839.7961689821
  9
$TDUPDATE
 40
2456598.5677382988
  9
$TDINDWG
 40
0.0001524306
  9
$TDUSRTIMER
 40
0.0001524306
  9
$USRTIMER
 70
     1
  9
$ANGBASE
 50
0.0
  9
$ANGDIR
 70
     0
  9
$PDMODE
 70
     0
  9
$PDSIZE
 40
0.0
  9
$PLINEWID
 40
0.0
  9
$COORDS
 70
     1
  9
$SPLFRAME
 70
     0
  9
$SPLINETYPE
 70
     6
  9
$SPLINESEGS
 70
     8
  9
$ATTDIA
 70
     0
  9
$ATTREQ
 70
     1
  9
$HANDLING
 70
     1
  9
$HANDSEED
  5
3E0
  9
$SURFTAB1
 70
     6
  9
$SURFTAB2
 70
     6
  9
$SURFTYPE
 70
     6
  9
$SURFU
 70
     6
  9
$SURFV
 70
     6
  9
$UCSNAME
  2

  9
$UCSORG
 10
0.0
 20
0.0
 30
0.0
  9
$UCSXDIR
 10
1.0
 20
0.0
 30
0.0
  9
$UCSYDIR
 10
0.0
 20
1.0
 30
0.0
  9
$PUCSNAME
  2

  9
$PUCSORG
 10
0.0
 20
0.0
 30
0.0
  9
$PUCSXDIR
 10
1.0
 20
0.0
 30
0.0
  9
$PUCSYDIR
 10
0.0
 20
1.0
 30
0.0
  9
$USERI1
 70
     0
  9
$USERI2
 70
     1
  9
$USERI3
 70
     1
  9
$USERI4
 70
     0
  9
$USERI5
 70
     0
  9
$USERR1
 40
0.0
  9
$USERR2
 40
0.0
  9
$USERR3
 40
0.0
  9
$USERR4
 40
0.0
  9
$USERR5
 40
0.0
  9
$WORLDVIEW
 70
     1
  9
$SHADEDGE
 70
     3
  9
$SHADEDIF
 70
    70
  9
$TILEMODE
 70
     1
  9
$MAXACTVP
 70
    16
  9
$PLIMCHECK
 70
     0
  9
$PEXTMIN
 10
1.0000000000000000E+020
 20
1.0000000000000000E+020
 30
1.0000000000000000E+020
  9
$PEXTMAX
 10
-1.0000000000000000E+020
 20
-1.0000000000000000E+020
 30
-1.0000000000000000E+020
  9
$PLIMMIN
 10
0.0
 20
0.0
  9
$PLIMMAX
 10
12.0
 20
9.0
  9
$UNITMODE
 70
     0
  9
$VISRETAIN
 70
     0
  9
$PLINEGEN
 70
     0
  9
$PSLTSCALE
 70
     0
  0
ENDSEC
  0
SECTION
  2
TABLES
  0
TABLE
  2
VPORT
 70
     1
  0
VPORT
  2
*ACTIVE
 70
     0
 10
0.0
 20
0.0
 11
1.0
 21
1.0
 12
187.4942783906524
 22
197.0509055860143
 13
0.0
 23
0.0
 14
10.0
 24
10.0
 15
10.0
 25
10.0
 16
0.0
 26
0.0
 36
1.0
 17
0.0
 27
0.0
 37
0.0
 40
403.57315882993248
 41
1.7807262569832401
 42
50.0
 43
0.0
 44
0.0
 50
0.0
 51
0.0
 71
     0
 72
   500
 73
     1
 74
     0
 75
     0
 76
     0
 77
     0
 78
     2
  0
ENDTAB
  0
TABLE
  2
LTYPE
 70
     4
  0
LTYPE
  2
CONTINUOUS
 70
     0
  3
Solid Line
 72
    65
 73
     0
 40
0.0
  0
LTYPE
  2
CENTER
 70
     0
  3
____ _ ____ _ ____ _ ____ _ ____ _ ____ _ ____
 72
    65
 73
     4
 40
2.0
 49
1.25
 49
-0.25
 49
0.25
 49
-0.25
  0
LTYPE
  2
HIDDEN
 70
     0
  3
_ _ _ _ _ _ _ _ _ _ _ _ _ _ _ _ _ _ _ _ _ _ _
 72
    65
 73
     2
 40
0.375
 49
0.25
 49
-0.125
  0
LTYPE
  2
PHANTOM2
 70
     0
  3
___ _ _ ___ _ _ ___ _ _ ___ _ _
 72
    65
 73
     6
 40
1.25
 49
0.625
 49
-0.125
 49
0.125
 49
-0.125
 49
0.125
 49
-0.125
  0
ENDTAB
  0
TABLE
  2
LAYER
 70
     4
  0
LAYER
  2
0
 70
     0
 62
     7
  6
CONTINUOUS
  0
LAYER
  2
1
 70
     0
 62
     1
  6
CENTER
  0
LAYER
  2
2
 70
     0
 62
     2
  6
HIDDEN
  0
LAYER
  2
3
 70
     0
 62
     3
  6
CONTINUOUS
  0
ENDTAB
  0
TABLE
  2
STYLE
 70
     2
  0
STYLE
  2
STANDARD
 70
     0
 40
0.0
 41
1.0
 50
0.0
 71
     0
 42
0.2
  3
TXT
  4
BIGFONT
  0
STYLE
  2
STANDARD1
 70
     0
 40
0.0
 41
1.0
 50
0.0
 71
     0
 42
3.0
  3
txt
  4

  0
ENDTAB
  0
TABLE
  2
VIEW
 70
     1
  0
VIEW
  2
ALL
 70
     0
 40
270.0
 10
220.99159663865549
 20
135.0
 41
0.0
 11
0.0
 21
0.0
 31
1.0
 12
0.0
 22
0.0
 32
0.0
 42
0.0
 43
0.0
 44
0.0
 50
0.0
 71
     0
  0
ENDTAB
  0
TABLE
  2
UCS
 70
     0
  0
ENDTAB
  0
TABLE
  2
APPID
 70
     3
  0
APPID
  2
ACAD
 70
     0
  0
APPID
  2
ACAD_MLEADERVER
 70
     0
  0
APPID
  2
ACAD_NAV_VCDISPLAY
 70
     0
  0
ENDTAB
  0
TABLE
  2
DIMSTYLE
 70
     1
  0
DIMSTYLE
  2
STANDARD
 70
     0
  3

  4

  5

  6

  7

 40
1.0
 41
0.18
 42
0.0625
 43
0.38
 44
0.18
 45
0.0
 46
0.0
 47
0.0
 48
0.0
140
0.18
141
0.09
142
0.0
143
25.399999999999999
144
1.0
145
0.0
146
1.0
147
0.09
 71
     0
 72
     0
 73
     1
 74
     1
 75
     0
 76
     0
 77
     0
 78
     0
170
     0
171
     2
172
     0
173
     0
174
     0
175
     0
176
     0
177
     0
178
     0
  0
ENDTAB
  0
ENDSEC
  0
SECTION
  2
BLOCKS
  0
BLOCK
  8
0
  2
$MODEL_SPACE
 70
     0
 10
0.0
 20
0.0
 30
0.0
  3
$MODEL_SPACE
  1

  0
ENDBLK
  5
25F
  8
0
  0
BLOCK
 67
     1
  8
0
  2
$PAPER_SPACE
 70
     0
 10
0.0
 20
0.0
 30
0.0
  3
$PAPER_SPACE
  1

  0
ENDBLK
  5
25D
 67
     1
  8
0
  0
ENDSEC
  0
SECTION
  2
ENTITIES
  0
ARC
  5
38
  8
0
 10
186.31013642943319
 20
142.48441247002381
 30
0.0
 40
5.0
 50
276.86509363490529
 51
311.81031489577862
  0
LINE
  5
39
  8
0
 10
161.6921024406833
 20
138.48441247002381
 30
0.0
 11
186.4308109126072
 21
141.49172033793519
 31
0.0
  0
LINE
  5
3A
  8
0
 10
161.6921024406833
 20
134.48441247002381
 30
0.0
 11
186.90779641957289
 21
137.520260726152
 31
0.0
  0
ARC
  5
3B
  8
0
 10
198.69210244068319
 20
139.48441247002381
 30
0.0
 40
2.0
 50
17.966908042028209
 51
90.0
  0
LINE
  5
3C
  8
0
 10
348.69210244068353
 20
129.39012369979901
 30
0.0
 11
338.69210244068353
 21
129.39012369979901
 31
0.0
  0
LINE
  5
3D
  8
0
 10
254.69210244068319
 20
129.39012369979901
 30
0.0
 11
264.69210244068319
 21
129.39012369979901
 31
0.0
  0
LINE
  5
3E
  8
0
 10
123.6921024406834
 20
129.39012369979901
 30
0.0
 11
113.6921024406834
 21
129.39012369979901
 31
0.0
  0
LINE
  5
3F
  8
0
 10
29.692102440683211
 20
129.39012369979901
 30
0.0
 11
39.692102440683207
 21
129.39012369979901
 31
0.0
  0
LINE
  5
40
  8
0
 10
86.692102440683428
 20
138.48441247002381
 30
0.0
 11
76.692102440683215
 21
141.4844124700239
 31
0.0
  0
LINE
  5
41
  8
0
 10
66.692102440683215
 20
138.48441247002381
 30
0.0
 11
76.692102440683442
 21
141.4844124700239
 31
0.0
  0
LINE
  5
42
  8
0
 10
66.692102440683215
 20
134.48441247002381
 30
0.0
 11
76.692102440683442
 21
137.48441247002381
 31
0.0
  0
LINE
  5
43
  8
0
 10
66.692102440683215
 20
145.48441247002509
 30
0.0
 11
66.692102440683215
 21
134.48441247002381
 31
0.0
  0
LINE
  5
44
  8
0
 10
86.692102440683428
 20
134.48441247002381
 30
0.0
 11
76.692102440683215
 21
137.48441247002381
 31
0.0
  0
LINE
  5
45
  8
0
 10
123.6921024406834
 20
125.2344124700238
 30
0.0
 11
123.6921024406834
 21
143.2344124700241
 31
0.0
  0
LINE
  5
46
  8
0
 10
123.6921024406834
 20
143.2344124700241
 30
0.0
 11
103.6921024406833
 21
143.2344124700241
 31
0.0
  0
LINE
  5
47
  8
0
 10
103.6921024406834
 20
143.2344124700241
 30
0.0
 11
103.6921024406833
 21
137.73441247002199
 31
0.0
  0
LINE
  5
48
  8
0
 10
103.6921024406833
 20
133.73441247002569
 30
0.0
 11
103.6921024406834
 21
128.23441247002361
 31
0.0
  0
LINE
  5
49
  8
0
 10
103.6921024406833
 20
137.73441247002199
 30
0.0
 11
88.642102440683374
 21
137.73441247002199
 31
0.0
  0
LINE
  5
4A
  8
0
 10
103.6921024406833
 20
133.73441247002569
 30
0.0
 11
88.642102440683374
 21
133.73441247002751
 31
0.0
  0
LINE
  5
4B
  8
0
 10
88.64210244068326
 20
137.73441247002199
 30
0.0
 11
88.64210244068326
 21
133.73441247002751
 31
0.0
  0
LINE
  5
4C
  8
0
 10
113.6921024406834
 20
129.39012369979901
 30
0.0
 11
113.6921024406834
 21
125.2344124700238
 31
0.0
  0
LINE
  5
4D
  8
0
 10
113.6921024406834
 20
125.2344124700238
 30
0.0
 11
123.6921024406834
 21
125.2344124700238
 31
0.0
  0
LINE
  5
4E
  8
0
 10
113.6921024406834
 20
128.23441247002361
 30
0.0
 11
103.6921024406833
 21
128.23441247002361
 31
0.0
  0
LINE
  5
4F
  8
0
 10
120.1921024406834
 20
124.584390469699
 30
0.0
 11
115.1921024406834
 21
124.584390469699
 31
0.0
  0
LINE
  5
50
  8
0
 10
120.1921024406834
 20
125.2344124700238
 30
0.0
 11
120.1921024406834
 21
123.83441247002401
 31
0.0
  0
LINE
  5
51
  8
3
 10
119.75910244068351
 20
125.2344124700238
 30
0.0
 11
119.75910244068351
 21
124.584390469699
 31
0.0
  0
LINE
  5
52
  8
3
 10
115.62510244068319
 20
125.2344124700238
 30
0.0
 11
115.62510244068319
 21
124.584390469699
 31
0.0
  0
LINE
  5
53
  8
0
 10
115.1921024406834
 20
125.2344124700238
 30
0.0
 11
115.1921024406834
 21
123.83441247002401
 31
0.0
  0
LINE
  5
54
  8
0
 10
121.59210244068331
 20
120.33441247002391
 30
0.0
 11
113.79210244068391
 21
120.3344124700231
 31
0.0
  0
LINE
  5
55
  8
0
 10
113.79210244068391
 20
120.3344124700231
 30
0.0
 11
113.07330028716591
 21
120.74941308685079
 31
0.0
  0
LINE
  5
56
  8
0
 10
113.07330028716591
 20
120.74941308685079
 30
0.0
 11
113.0733002871664
 21
123.83441247002401
 31
0.0
  0
ARC
  5
57
  8
0
 10
114.228000825545
 20
122.4368056956793
 30
0.0
 40
2.044658198736927
 50
244.3842474676741
 51
304.38424746806908
  0
LINE
  5
58
  8
0
 10
122.31090459420091
 20
120.74941308685079
 30
0.0
 11
122.31090459420039
 21
123.83441247002401
 31
0.0
  0
ARC
  5
59
  8
0
 10
121.1562040558217
 20
122.4368056956793
 30
0.0
 40
2.044658198736927
 50
235.61575253193089
 51
295.61575253232593
  0
LINE
  5
5A
  8
0
 10
121.59210244068279
 20
120.3344124700231
 30
0.0
 11
122.31090459420091
 21
120.74941308685079
 31
0.0
  0
ARC
  5
5B
  8
0
 10
117.6921024406834
 20
128.03488190702549
 30
0.0
 40
7.6427344100831682
 50
252.41204622598971
 51
287.5879537740102
  0
LINE
  5
5C
  8
0
 10
115.3827013639237
 20
120.74941308685079
 30
0.0
 11
115.3827013639243
 21
123.83441247002401
 31
0.0
  0
LINE
  5
5D
  8
0
 10
120.001503517443
 20
120.74941308685079
 30
0.0
 11
120.0015035174425
 21
123.83441247002401
 31
0.0
  0
LINE
  5
5E
  8
0
 10
113.0733002871664
 20
123.83441247002401
 30
0.0
 11
122.31090459420039
 21
123.83441247002401
 31
0.0
  0
LINE
  5
5F
  8
0
 10
100.6921024406834
 20
142.48441247002381
 30
0.0
 11
100.6921024406834
 21
138.48441247002381
 31
0.0
  0
LINE
  5
60
  8
0
 10
91.692102440683428
 20
142.48441247002381
 30
0.0
 11
91.692102440683428
 21
142.98441247002381
 31
0.0
  0
LINE
  5
61
  8
0
 10
97.692102440683456
 20
142.48441247002381
 30
0.0
 11
97.692102440683456
 21
142.98441247002381
 31
0.0
  0
LINE
  5
62
  8
0
 10
97.692102440683456
 20
142.98441247002381
 30
0.0
 11
91.692102440683428
 21
142.98441247002381
 31
0.0
  0
LINE
  5
63
  8
0
 10
100.6921024406834
 20
138.48441247002381
 30
0.0
 11
90.692102440683442
 21
138.48441247002381
 31
0.0
  0
ARC
  5
64
  8
0
 10
90.692102440683442
 20
141.4844124700239
 30
0.0
 40
3.0
 50
180.00000000000071
 51
270.0
  0
LINE
  5
65
  8
0
 10
100.6921024406834
 20
142.48441247002381
 30
0.0
 11
89.692102440683442
 21
142.48441247002381
 31
0.0
  0
LINE
  5
66
  8
0
 10
89.692102440683442
 20
142.48441247002381
 30
0.0
 11
89.692102440683442
 21
142.48441247002509
 31
0.0
  0
ARC
  5
67
  8
0
 10
86.692102440683428
 20
142.48441247002509
 30
0.0
 40
3.0
 50
0.0000000000000509
 51
90.0
  0
LINE
  5
68
  8
0
 10
91.692102440683428
 20
138.48441247002381
 30
0.0
 11
91.692102440683428
 21
137.73441247002199
 31
0.0
  0
LINE
  5
69
  8
0
 10
97.692102440683456
 20
138.48441247002381
 30
0.0
 11
97.692102440683456
 21
137.73441247002199
 31
0.0
  0
LINE
  5
6A
  8
0
 10
86.692102440683328
 20
145.48441247002509
 30
0.0
 11
86.692102440683428
 21
134.48441247002381
 31
0.0
  0
LINE
  5
6B
  8
0
 10
92.192102440693006
 20
130.9844124700235
 30
0.0
 11
91.692102440685488
 21
131.484412470031
 31
0.0
  0
LINE
  5
6C
  8
0
 10
91.692102440685488
 20
131.484412470031
 30
0.0
 11
91.692102440685488
 21
132.484412470031
 31
0.0
  0
LINE
  5
6D
  8
0
 10
89.192102440683428
 20
132.484412470031
 30
0.0
 11
100.1921024406834
 21
132.484412470031
 31
0.0
  0
LINE
  5
6E
  8
0
 10
97.692102440681168
 20
131.484412470031
 30
0.0
 11
97.692102440681168
 21
132.484412470031
 31
0.0
  0
LINE
  5
6F
  8
0
 10
97.192102440673665
 20
130.9844124700235
 30
0.0
 11
97.692102440681168
 21
131.484412470031
 31
0.0
  0
LINE
  5
70
  8
0
 10
97.692102440681168
 20
131.484412470031
 30
0.0
 11
91.692102440685488
 21
131.484412470031
 31
0.0
  0
LINE
  5
71
  8
0
 10
97.192102440673665
 20
130.9844124700235
 30
0.0
 11
92.192102440693006
 21
130.9844124700235
 31
0.0
  0
LINE
  5
72
  8
0
 10
89.192102440683428
 20
132.984412470031
 30
0.0
 11
100.1921024406834
 21
132.984412470031
 31
0.0
  0
LINE
  5
73
  8
0
 10
89.192102440683428
 20
132.984412470031
 30
0.0
 11
89.192102440683428
 21
132.484412470031
 31
0.0
  0
LINE
  5
74
  8
0
 10
100.1921024406833
 20
132.984412470031
 30
0.0
 11
100.1921024406833
 21
132.484412470031
 31
0.0
  0
LINE
  5
75
  8
0
 10
92.192102440683442
 20
133.73441247002751
 30
0.0
 11
92.192102440683442
 21
132.984412470031
 31
0.0
  0
LINE
  5
76
  8
0
 10
97.192102440683442
 20
133.73441247002751
 30
0.0
 11
97.192102440683442
 21
132.984412470031
 31
0.0
  0
LINE
  5
77
  8
0
 10
56.192102440683207
 20
133.73441247002751
 30
0.0
 11
56.192102440683207
 21
132.984412470031
 31
0.0
  0
LINE
  5
78
  8
0
 10
61.192102440683207
 20
133.73441247002751
 30
0.0
 11
61.192102440683207
 21
132.984412470031
 31
0.0
  0
LINE
  5
79
  8
0
 10
53.192102440683207
 20
132.984412470031
 30
0.0
 11
53.192102440683207
 21
132.484412470031
 31
0.0
  0
LINE
  5
7A
  8
0
 10
64.192102440683215
 20
132.984412470031
 30
0.0
 11
64.192102440683215
 21
132.484412470031
 31
0.0
  0
LINE
  5
7B
  8
0
 10
64.192102440683215
 20
132.984412470031
 30
0.0
 11
53.192102440683207
 21
132.984412470031
 31
0.0
  0
LINE
  5
7C
  8
0
 10
56.192102440692992
 20
130.9844124700235
 30
0.0
 11
61.192102440673672
 21
130.9844124700235
 31
0.0
  0
LINE
  5
7D
  8
0
 10
55.692102440685368
 20
131.484412470031
 30
0.0
 11
61.692102440681168
 21
131.484412470031
 31
0.0
  0
LINE
  5
7E
  8
0
 10
56.192102440692878
 20
130.9844124700235
 30
0.0
 11
55.692102440685368
 21
131.484412470031
 31
0.0
  0
LINE
  5
7F
  8
0
 10
55.692102440685368
 20
131.484412470031
 30
0.0
 11
55.692102440685368
 21
132.484412470031
 31
0.0
  0
LINE
  5
80
  8
0
 10
64.192102440683215
 20
132.484412470031
 30
0.0
 11
53.192102440683207
 21
132.484412470031
 31
0.0
  0
LINE
  5
81
  8
0
 10
61.692102440681168
 20
131.484412470031
 30
0.0
 11
61.692102440681168
 21
132.484412470031
 31
0.0
  0
LINE
  5
82
  8
0
 10
61.192102440673672
 20
130.9844124700235
 30
0.0
 11
61.692102440681168
 21
131.484412470031
 31
0.0
  0
LINE
  5
83
  8
0
 10
55.692102440683207
 20
138.48441247002381
 30
0.0
 11
55.692102440683207
 21
137.73441247002199
 31
0.0
  0
LINE
  5
84
  8
0
 10
61.692102440683207
 20
138.48441247002381
 30
0.0
 11
61.692102440683207
 21
137.73441247002199
 31
0.0
  0
LINE
  5
85
  8
0
 10
65.692102440683215
 20
141.48441247002589
 30
0.0
 11
87.692102440683456
 21
141.4844124700239
 31
0.0
  0
ARC
  5
86
  8
0
 10
66.692102440683215
 20
142.48441247002509
 30
0.0
 40
3.0
 50
90.0
 51
179.99999999999989
  0
LINE
  5
87
  8
0
 10
66.692102440683215
 20
145.48441247002509
 30
0.0
 11
86.692102440683428
 21
145.48441247002509
 31
0.0
  0
LINE
  5
88
  8
0
 10
63.692102440683207
 20
142.48441247002381
 30
0.0
 11
63.692102440683207
 21
142.48441247002509
 31
0.0
  0
LINE
  5
89
  8
0
 10
52.692102440683222
 20
142.48441247002381
 30
0.0
 11
63.692102440683207
 21
142.48441247002381
 31
0.0
  0
ARC
  5
8A
  8
0
 10
62.692102440683222
 20
141.4844124700239
 30
0.0
 40
3.0
 50
270.0
 51
359.99999999999932
  0
LINE
  5
8B
  8
0
 10
52.692102440683222
 20
138.48441247002381
 30
0.0
 11
62.692102440683222
 21
138.48441247002381
 31
0.0
  0
LINE
  5
8C
  8
0
 10
55.692102440683207
 20
142.98441247002381
 30
0.0
 11
61.692102440683207
 21
142.98441247002381
 31
0.0
  0
LINE
  5
8D
  8
0
 10
55.692102440683207
 20
142.48441247002381
 30
0.0
 11
55.692102440683207
 21
142.98441247002381
 31
0.0
  0
LINE
  5
8E
  8
0
 10
61.692102440683207
 20
142.48441247002381
 30
0.0
 11
61.692102440683207
 21
142.98441247002381
 31
0.0
  0
LINE
  5
8F
  8
0
 10
52.692102440683222
 20
142.48441247002381
 30
0.0
 11
52.692102440683222
 21
138.48441247002381
 31
0.0
  0
LINE
  5
90
  8
0
 10
40.310904594200203
 20
123.83441247002401
 30
0.0
 11
31.07330028716623
 21
123.83441247002401
 31
0.0
  0
LINE
  5
91
  8
0
 10
33.382701363923587
 20
120.74941308685079
 30
0.0
 11
33.382701363924042
 21
123.83441247002401
 31
0.0
  0
LINE
  5
92
  8
0
 10
38.001503517442842
 20
120.74941308685079
 30
0.0
 11
38.001503517442387
 21
123.83441247002401
 31
0.0
  0
ARC
  5
93
  8
0
 10
35.692102440683207
 20
128.03488190702549
 30
0.0
 40
7.6427344100831682
 50
252.4120462259898
 51
287.5879537740102
  0
LINE
  5
94
  8
0
 10
31.792102440683809
 20
120.3344124700231
 30
0.0
 11
31.073300287165718
 21
120.74941308685079
 31
0.0
  0
ARC
  5
95
  8
0
 10
32.228000825544967
 20
122.4368056956793
 30
0.0
 40
2.044658198736927
 50
244.3842474676741
 51
304.38424746806908
  0
LINE
  5
96
  8
0
 10
31.073300287165718
 20
120.74941308685079
 30
0.0
 11
31.07330028716623
 21
123.83441247002401
 31
0.0
  0
ARC
  5
97
  8
0
 10
39.156204055821462
 20
122.4368056956793
 30
0.0
 40
2.044658198736927
 50
235.61575253193089
 51
295.61575253232593
  0
LINE
  5
98
  8
0
 10
40.3109045942007
 20
120.74941308685079
 30
0.0
 11
40.310904594200203
 21
123.83441247002401
 31
0.0
  0
LINE
  5
99
  8
0
 10
39.592102440682631
 20
120.3344124700231
 30
0.0
 11
40.3109045942007
 21
120.74941308685079
 31
0.0
  0
LINE
  5
9A
  8
0
 10
31.792102440683351
 20
120.33441247002391
 30
0.0
 11
39.592102440682631
 21
120.3344124700231
 31
0.0
  0
LINE
  5
9B
  8
0
 10
38.192102440683207
 20
125.2344124700238
 30
0.0
 11
38.192102440683207
 21
123.83441247002401
 31
0.0
  0
LINE
  5
9C
  8
3
 10
37.759102440683449
 20
125.2344124700238
 30
0.0
 11
37.759102440683449
 21
124.584390469699
 31
0.0
  0
LINE
  5
9D
  8
3
 10
33.62510244068298
 20
125.2344124700238
 30
0.0
 11
33.62510244068298
 21
124.584390469699
 31
0.0
  0
LINE
  5
9E
  8
0
 10
33.192102440683207
 20
125.2344124700238
 30
0.0
 11
33.192102440683207
 21
123.83441247002401
 31
0.0
  0
LINE
  5
9F
  8
0
 10
33.192102440683207
 20
124.584390469699
 30
0.0
 11
38.192102440683207
 21
124.584390469699
 31
0.0
  0
LINE
  5
A0
  8
0
 10
39.692102440683207
 20
128.23441247002361
 30
0.0
 11
49.692102440683328
 21
128.23441247002361
 31
0.0
  0
LINE
  5
A1
  8
0
 10
39.692102440683207
 20
125.2344124700238
 30
0.0
 11
29.692102440683211
 21
125.2344124700238
 31
0.0
  0
LINE
  5
A2
  8
0
 10
39.692102440683207
 20
129.39012369979901
 30
0.0
 11
39.692102440683207
 21
125.2344124700238
 31
0.0
  0
LINE
  5
A3
  8
0
 10
64.742102440683155
 20
137.73441247002199
 30
0.0
 11
64.742102440683155
 21
133.73441247002751
 31
0.0
  0
LINE
  5
A4
  8
0
 10
49.692102440683328
 20
133.73441247002569
 30
0.0
 11
64.742102440683155
 21
133.73441247002751
 31
0.0
  0
LINE
  5
A5
  8
0
 10
49.692102440683328
 20
137.73441247002199
 30
0.0
 11
64.742102440683155
 21
137.73441247002199
 31
0.0
  0
LINE
  5
A6
  8
0
 10
49.692102440683328
 20
133.73441247002569
 30
0.0
 11
49.692102440683207
 21
128.23441247002361
 31
0.0
  0
LINE
  5
A7
  8
0
 10
49.692102440683207
 20
143.2344124700241
 30
0.0
 11
49.692102440683328
 21
137.73441247002199
 31
0.0
  0
LINE
  5
A8
  8
0
 10
29.692102440683211
 20
143.2344124700241
 30
0.0
 11
49.692102440683328
 21
143.2344124700241
 31
0.0
  0
LINE
  5
A9
  8
0
 10
29.692102440683211
 20
125.2344124700238
 30
0.0
 11
29.692102440683211
 21
143.2344124700241
 31
0.0
  0
LINE
  5
AA
  8
0
 10
161.69210244068319
 20
211.46013189448431
 30
0.0
 11
186.69210244068319
 21
221.46013189448431
 31
0.0
  0
LINE
  5
AB
  8
0
 10
161.69210244068319
 20
211.46013189448431
 30
0.0
 11
186.69210244068319
 21
201.46013189448431
 31
0.0
  0
LINE
  5
AC
  8
0
 10
186.69210244068319
 20
221.46013189448431
 30
0.0
 11
186.69210244068319
 21
201.46013189448431
 31
0.0
  0
LINE
  5
AD
  8
0
 10
291.69210244068319
 20
134.48441247002381
 30
0.0
 11
301.69210244068353
 21
137.48441247002381
 31
0.0
  0
LINE
  5
AE
  8
0
 10
291.69210244068319
 20
141.48441247002589
 30
0.0
 11
291.69210244068319
 21
134.48441247002381
 31
0.0
  0
LINE
  5
AF
  8
0
 10
311.69210244068353
 20
134.48441247002381
 30
0.0
 11
301.69210244068319
 21
137.48441247002381
 31
0.0
  0
LINE
  5
B0
  8
0
 10
311.69210244068353
 20
137.48441247002381
 30
0.0
 11
291.69210244068319
 21
137.48441247002381
 31
0.0
  0
LINE
  5
B1
  8
0
 10
348.69210244068353
 20
125.2344124700238
 30
0.0
 11
348.69210244068353
 21
143.2344124700241
 31
0.0
  0
LINE
  5
B2
  8
0
 10
348.69210244068353
 20
143.2344124700241
 30
0.0
 11
328.6921024406833
 21
143.2344124700241
 31
0.0
  0
LINE
  5
B3
  8
0
 10
328.69210244068353
 20
143.2344124700241
 30
0.0
 11
328.6921024406833
 21
137.73441247002199
 31
0.0
  0
LINE
  5
B4
  8
0
 10
328.6921024406833
 20
133.73441247002569
 30
0.0
 11
328.69210244068353
 21
128.23441247002361
 31
0.0
  0
LINE
  5
B5
  8
0
 10
328.6921024406833
 20
137.73441247002199
 30
0.0
 11
313.6421024406834
 21
137.73441247002199
 31
0.0
  0
LINE
  5
B6
  8
0
 10
328.6921024406833
 20
133.73441247002569
 30
0.0
 11
313.6421024406834
 21
133.73441247002751
 31
0.0
  0
LINE
  5
B7
  8
0
 10
313.64210244068329
 20
137.73441247002199
 30
0.0
 11
313.64210244068329
 21
133.73441247002751
 31
0.0
  0
LINE
  5
B8
  8
0
 10
338.69210244068353
 20
129.39012369979901
 30
0.0
 11
338.69210244068353
 21
125.2344124700238
 31
0.0
  0
LINE
  5
B9
  8
0
 10
338.69210244068353
 20
125.2344124700238
 30
0.0
 11
348.69210244068353
 21
125.2344124700238
 31
0.0
  0
LINE
  5
BA
  8
0
 10
338.69210244068353
 20
128.23441247002361
 30
0.0
 11
328.6921024406833
 21
128.23441247002361
 31
0.0
  0
LINE
  5
BB
  8
0
 10
345.19210244068353
 20
124.584390469699
 30
0.0
 11
340.19210244068353
 21
124.584390469699
 31
0.0
  0
LINE
  5
BC
  8
0
 10
345.19210244068353
 20
125.2344124700238
 30
0.0
 11
345.19210244068353
 21
123.83441247002401
 31
0.0
  0
LINE
  5
BD
  8
3
 10
344.75910244068359
 20
125.2344124700238
 30
0.0
 11
344.75910244068359
 21
124.584390469699
 31
0.0
  0
LINE
  5
BE
  8
3
 10
344.75910244068359
 20
124.584390469699
 30
0.0
 11
345.19210244068228
 21
123.83441247002401
 31
0.0
  0
LINE
  5
BF
  8
3
 10
340.62510244068318
 20
124.584390469699
 30
0.0
 11
340.19210244068449
 21
123.83441247002401
 31
0.0
  0
LINE
  5
C0
  8
3
 10
340.62510244068318
 20
125.2344124700238
 30
0.0
 11
340.62510244068318
 21
124.584390469699
 31
0.0
  0
LINE
  5
C1
  8
0
 10
340.19210244068353
 20
125.2344124700238
 30
0.0
 11
340.19210244068353
 21
123.83441247002401
 31
0.0
  0
LINE
  5
C2
  8
0
 10
346.59210244068328
 20
120.33441247002391
 30
0.0
 11
338.792102440684
 21
120.3344124700231
 31
0.0
  0
LINE
  5
C3
  8
0
 10
338.792102440684
 20
120.3344124700231
 30
0.0
 11
338.07330028716592
 21
120.74941308685079
 31
0.0
  0
LINE
  5
C4
  8
0
 10
338.07330028716592
 20
120.74941308685079
 30
0.0
 11
338.07330028716649
 21
123.83441247002401
 31
0.0
  0
ARC
  5
C5
  8
0
 10
339.22800082554511
 20
122.4368056956793
 30
0.0
 40
2.044658198736927
 50
244.3842474676741
 51
304.38424746806908
  0
LINE
  5
C6
  8
0
 10
347.31090459420091
 20
120.74941308685079
 30
0.0
 11
347.31090459420039
 21
123.83441247002401
 31
0.0
  0
ARC
  5
C7
  8
0
 10
346.15620405582172
 20
122.4368056956793
 30
0.0
 40
2.044658198736927
 50
235.61575253193089
 51
295.61575253232593
  0
LINE
  5
C8
  8
0
 10
346.59210244068288
 20
120.3344124700231
 30
0.0
 11
347.31090459420091
 21
120.74941308685079
 31
0.0
  0
ARC
  5
C9
  8
0
 10
342.69210244068353
 20
128.03488190702549
 30
0.0
 40
7.6427344100831682
 50
252.41204622598971
 51
287.5879537740102
  0
LINE
  5
CA
  8
0
 10
340.38270136392367
 20
120.74941308685079
 30
0.0
 11
340.3827013639243
 21
123.83441247002401
 31
0.0
  0
LINE
  5
CB
  8
0
 10
345.0015035174431
 20
120.74941308685079
 30
0.0
 11
345.00150351744247
 21
123.83441247002401
 31
0.0
  0
LINE
  5
CC
  8
0
 10
338.07330028716649
 20
123.83441247002401
 30
0.0
 11
347.31090459420039
 21
123.83441247002401
 31
0.0
  0
LINE
  5
CD
  8
0
 10
325.69210244068353
 20
142.48441247002381
 30
0.0
 11
325.69210244068353
 21
138.48441247002381
 31
0.0
  0
LINE
  5
CE
  8
0
 10
316.69210244068353
 20
142.48441247002381
 30
0.0
 11
316.69210244068353
 21
142.98441247002381
 31
0.0
  0
LINE
  5
CF
  8
0
 10
322.69210244068353
 20
142.48441247002381
 30
0.0
 11
322.69210244068353
 21
142.98441247002381
 31
0.0
  0
LINE
  5
D0
  8
0
 10
322.69210244068353
 20
142.98441247002381
 30
0.0
 11
316.69210244068353
 21
142.98441247002381
 31
0.0
  0
LINE
  5
D1
  8
0
 10
325.69210244068353
 20
138.48441247002381
 30
0.0
 11
315.69210244068353
 21
138.48441247002381
 31
0.0
  0
ARC
  5
D2
  8
0
 10
315.69210244068353
 20
141.4844124700239
 30
0.0
 40
3.0
 50
180.00000000000071
 51
270.0
  0
LINE
  5
D3
  8
0
 10
325.69210244068353
 20
142.48441247002381
 30
0.0
 11
314.69210244068353
 21
142.48441247002381
 31
0.0
  0
ARC
  5
D4
  8
0
 10
311.69210244068353
 20
142.48441247002509
 30
0.0
 40
3.0
 50
359.99999999997613
 51
90.0
  0
LINE
  5
D5
  8
0
 10
316.69210244068353
 20
138.48441247002381
 30
0.0
 11
316.69210244068353
 21
137.73441247002199
 31
0.0
  0
LINE
  5
D6
  8
0
 10
322.69210244068353
 20
138.48441247002381
 30
0.0
 11
322.69210244068353
 21
137.73441247002199
 31
0.0
  0
LINE
  5
D7
  8
0
 10
311.69210244068353
 20
141.48441247002589
 30
0.0
 11
311.69210244068353
 21
134.48441247002381
 31
0.0
  0
LINE
  5
D8
  8
0
 10
317.19210244069302
 20
130.9844124700235
 30
0.0
 11
316.69210244068552
 21
131.484412470031
 31
0.0
  0
LINE
  5
D9
  8
0
 10
316.69210244068552
 20
131.484412470031
 30
0.0
 11
316.69210244068552
 21
132.484412470031
 31
0.0
  0
LINE
  5
DA
  8
0
 10
314.19210244068353
 20
132.484412470031
 30
0.0
 11
325.19210244068353
 21
132.484412470031
 31
0.0
  0
LINE
  5
DB
  8
0
 10
322.6921024406812
 20
131.484412470031
 30
0.0
 11
322.6921024406812
 21
132.484412470031
 31
0.0
  0
LINE
  5
DC
  8
0
 10
322.19210244067369
 20
130.9844124700235
 30
0.0
 11
322.6921024406812
 21
131.484412470031
 31
0.0
  0
LINE
  5
DD
  8
0
 10
322.6921024406812
 20
131.484412470031
 30
0.0
 11
316.69210244068552
 21
131.484412470031
 31
0.0
  0
LINE
  5
DE
  8
0
 10
322.19210244067369
 20
130.9844124700235
 30
0.0
 11
317.19210244069302
 21
130.9844124700235
 31
0.0
  0
LINE
  5
DF
  8
0
 10
314.19210244068353
 20
132.984412470031
 30
0.0
 11
325.19210244068353
 21
132.984412470031
 31
0.0
  0
LINE
  5
E0
  8
0
 10
314.19210244068353
 20
132.984412470031
 30
0.0
 11
314.19210244068353
 21
132.484412470031
 31
0.0
  0
LINE
  5
E1
  8
0
 10
325.19210244068341
 20
132.984412470031
 30
0.0
 11
325.19210244068341
 21
132.484412470031
 31
0.0
  0
LINE
  5
E2
  8
0
 10
317.19210244068353
 20
133.73441247002751
 30
0.0
 11
317.19210244068353
 21
132.984412470031
 31
0.0
  0
LINE
  5
E3
  8
0
 10
322.19210244068353
 20
133.73441247002751
 30
0.0
 11
322.19210244068353
 21
132.984412470031
 31
0.0
  0
LINE
  5
E4
  8
0
 10
281.19210244068319
 20
133.73441247002751
 30
0.0
 11
281.19210244068319
 21
132.984412470031
 31
0.0
  0
LINE
  5
E5
  8
0
 10
286.19210244068319
 20
133.73441247002751
 30
0.0
 11
286.19210244068319
 21
132.984412470031
 31
0.0
  0
LINE
  5
E6
  8
0
 10
278.1921024406833
 20
132.984412470031
 30
0.0
 11
278.1921024406833
 21
132.484412470031
 31
0.0
  0
LINE
  5
E7
  8
0
 10
289.19210244068319
 20
132.984412470031
 30
0.0
 11
289.19210244068319
 21
132.484412470031
 31
0.0
  0
LINE
  5
E8
  8
0
 10
289.19210244068319
 20
132.984412470031
 30
0.0
 11
278.1921024406833
 21
132.984412470031
 31
0.0
  0
LINE
  5
E9
  8
0
 10
281.19210244069302
 20
130.9844124700235
 30
0.0
 11
286.19210244067369
 21
130.9844124700235
 31
0.0
  0
LINE
  5
EA
  8
0
 10
280.6921024406854
 20
131.484412470031
 30
0.0
 11
286.6921024406812
 21
131.484412470031
 31
0.0
  0
LINE
  5
EB
  8
0
 10
281.19210244069291
 20
130.9844124700235
 30
0.0
 11
280.6921024406854
 21
131.484412470031
 31
0.0
  0
LINE
  5
EC
  8
0
 10
280.6921024406854
 20
131.484412470031
 30
0.0
 11
280.6921024406854
 21
132.484412470031
 31
0.0
  0
LINE
  5
ED
  8
0
 10
289.19210244068319
 20
132.484412470031
 30
0.0
 11
278.1921024406833
 21
132.484412470031
 31
0.0
  0
LINE
  5
EE
  8
0
 10
286.6921024406812
 20
131.484412470031
 30
0.0
 11
286.6921024406812
 21
132.484412470031
 31
0.0
  0
LINE
  5
EF
  8
0
 10
286.19210244067369
 20
130.9844124700235
 30
0.0
 11
286.6921024406812
 21
131.484412470031
 31
0.0
  0
LINE
  5
F0
  8
0
 10
203.42292823302751
 20
142.48441247002381
 30
0.0
 11
200.69210244068319
 21
142.48441247002381
 31
0.0
  0
LINE
  5
F1
  8
0
 10
200.69210244068319
 20
143.48441056267521
 30
0.0
 11
200.69210244068319
 21
140.23441247002381
 31
0.0
  0
LINE
  5
F2
  8
0
 10
212.7294915258793
 20
142.48441247002381
 30
0.0
 11
209.96127664833909
 21
142.48441247002381
 31
0.0
  0
LINE
  5
F3
  8
0
 10
213.28855011332479
 20
141.4844124700239
 30
0.0
 11
214.74210244068331
 21
141.4844124700239
 31
0.0
  0
LINE
  5
F4
  8
0
 10
280.69210244068319
 20
138.48441247002381
 30
0.0
 11
280.69210244068319
 21
137.73441247002199
 31
0.0
  0
LINE
  5
F5
  8
0
 10
286.6921024406833
 20
138.48441247002381
 30
0.0
 11
286.6921024406833
 21
137.73441247002199
 31
0.0
  0
LINE
  5
F6
  8
0
 10
290.69210244068319
 20
141.48441247002589
 30
0.0
 11
312.69210244068353
 21
141.4844124700239
 31
0.0
  0
ARC
  5
F7
  8
0
 10
291.69210244068319
 20
142.48441247002509
 30
0.0
 40
3.0
 50
90.0
 51
180.0000000000239
  0
LINE
  5
F8
  8
0
 10
291.69210244068319
 20
145.48441247002509
 30
0.0
 11
311.69210244068353
 21
145.48441247002509
 31
0.0
  0
LINE
  5
F9
  8
0
 10
277.69210244068319
 20
142.48441247002381
 30
0.0
 11
288.6921024406833
 21
142.48441247002381
 31
0.0
  0
ARC
  5
FA
  8
0
 10
287.69210244068319
 20
141.4844124700239
 30
0.0
 40
3.0
 50
270.0
 51
359.99999999999932
  0
LINE
  5
FB
  8
0
 10
277.69210244068319
 20
138.48441247002381
 30
0.0
 11
287.69210244068319
 21
138.48441247002381
 31
0.0
  0
LINE
  5
FC
  8
0
 10
280.69210244068319
 20
142.98441247002381
 30
0.0
 11
286.6921024406833
 21
142.98441247002381
 31
0.0
  0
LINE
  5
FD
  8
0
 10
280.69210244068319
 20
142.48441247002381
 30
0.0
 11
280.69210244068319
 21
142.98441247002381
 31
0.0
  0
LINE
  5
FE
  8
0
 10
286.6921024406833
 20
142.48441247002381
 30
0.0
 11
286.6921024406833
 21
142.98441247002381
 31
0.0
  0
LINE
  5
FF
  8
0
 10
277.69210244068319
 20
142.48441247002381
 30
0.0
 11
277.69210244068319
 21
138.48441247002381
 31
0.0
  0
LINE
  5
100
  8
0
 10
265.31090459420022
 20
123.83441247002401
 30
0.0
 11
256.07330028716632
 21
123.83441247002401
 31
0.0
  0
LINE
  5
101
  8
0
 10
258.38270136392362
 20
120.74941308685079
 30
0.0
 11
258.38270136392413
 21
123.83441247002401
 31
0.0
  0
LINE
  5
102
  8
0
 10
263.00150351744293
 20
120.74941308685079
 30
0.0
 11
263.00150351744242
 21
123.83441247002401
 31
0.0
  0
ARC
  5
103
  8
0
 10
260.69210244068319
 20
128.03488190702549
 30
0.0
 40
7.6427344100831682
 50
252.4120462259898
 51
287.5879537740102
  0
LINE
  5
104
  8
0
 10
256.79210244068378
 20
120.3344124700231
 30
0.0
 11
256.07330028716581
 21
120.74941308685079
 31
0.0
  0
ARC
  5
105
  8
0
 10
257.228000825545
 20
122.4368056956793
 30
0.0
 40
2.044658198736927
 50
244.3842474676741
 51
304.38424746806908
  0
LINE
  5
106
  8
0
 10
256.07330028716581
 20
120.74941308685079
 30
0.0
 11
256.07330028716632
 21
123.83441247002401
 31
0.0
  0
ARC
  5
107
  8
0
 10
264.15620405582149
 20
122.4368056956793
 30
0.0
 40
2.044658198736927
 50
235.61575253193089
 51
295.61575253232593
  0
LINE
  5
108
  8
0
 10
265.31090459420068
 20
120.74941308685079
 30
0.0
 11
265.31090459420022
 21
123.83441247002401
 31
0.0
  0
LINE
  5
109
  8
0
 10
264.59210244068271
 20
120.3344124700231
 30
0.0
 11
265.31090459420068
 21
120.74941308685079
 31
0.0
  0
LINE
  5
10A
  8
0
 10
256.79210244068338
 20
120.33441247002391
 30
0.0
 11
264.59210244068271
 21
120.3344124700231
 31
0.0
  0
LINE
  5
10B
  8
0
 10
263.19210244068319
 20
125.2344124700238
 30
0.0
 11
263.19210244068319
 21
123.83441247002401
 31
0.0
  0
LINE
  5
10C
  8
3
 10
262.75910244068348
 20
125.2344124700238
 30
0.0
 11
262.75910244068348
 21
124.584390469699
 31
0.0
  0
LINE
  5
10D
  8
3
 10
262.75910244068348
 20
124.584390469699
 30
0.0
 11
263.19210244068211
 21
123.83441247002401
 31
0.0
  0
LINE
  5
10E
  8
3
 10
258.62510244068301
 20
124.584390469699
 30
0.0
 11
258.19210244068438
 21
123.83441247002401
 31
0.0
  0
LINE
  5
10F
  8
3
 10
258.62510244068301
 20
125.2344124700238
 30
0.0
 11
258.62510244068301
 21
124.584390469699
 31
0.0
  0
LINE
  5
110
  8
0
 10
258.19210244068319
 20
125.2344124700238
 30
0.0
 11
258.19210244068319
 21
123.83441247002401
 31
0.0
  0
LINE
  5
111
  8
0
 10
258.19210244068319
 20
124.584390469699
 30
0.0
 11
263.19210244068319
 21
124.584390469699
 31
0.0
  0
LINE
  5
112
  8
0
 10
264.69210244068319
 20
128.23441247002361
 30
0.0
 11
274.69210244068319
 21
128.23441247002361
 31
0.0
  0
LINE
  5
113
  8
0
 10
264.69210244068319
 20
125.2344124700238
 30
0.0
 11
254.69210244068319
 21
125.2344124700238
 31
0.0
  0
LINE
  5
114
  8
0
 10
264.69210244068319
 20
129.39012369979901
 30
0.0
 11
264.69210244068319
 21
125.2344124700238
 31
0.0
  0
LINE
  5
115
  8
0
 10
289.7421024406832
 20
137.73441247002199
 30
0.0
 11
289.7421024406832
 21
133.73441247002751
 31
0.0
  0
LINE
  5
116
  8
0
 10
274.69210244068319
 20
133.73441247002569
 30
0.0
 11
289.7421024406832
 21
133.73441247002751
 31
0.0
  0
LINE
  5
117
  8
0
 10
274.69210244068319
 20
137.73441247002199
 30
0.0
 11
289.7421024406832
 21
137.73441247002199
 31
0.0
  0
LINE
  5
118
  8
0
 10
274.69210244068319
 20
133.73441247002569
 30
0.0
 11
274.69210244068319
 21
128.23441247002361
 31
0.0
  0
LINE
  5
119
  8
0
 10
274.69210244068319
 20
143.2344124700241
 30
0.0
 11
274.69210244068319
 21
137.73441247002199
 31
0.0
  0
LINE
  5
11A
  8
0
 10
254.69210244068319
 20
143.2344124700241
 30
0.0
 11
274.69210244068319
 21
143.2344124700241
 31
0.0
  0
LINE
  5
11B
  8
0
 10
254.69210244068319
 20
125.2344124700238
 30
0.0
 11
254.69210244068319
 21
143.2344124700241
 31
0.0
  0
LINE
  5
11C
  8
0
 10
206.69210244068319
 20
120.74941308685079
 30
0.0
 11
206.69210244068319
 21
123.83441247002401
 31
0.0
  0
LINE
  5
11D
  8
0
 10
202.79210244068329
 20
120.33441247002391
 30
0.0
 11
210.59210244068319
 21
120.33441247002391
 31
0.0
  0
LINE
  5
11E
  8
0
 10
202.7921024406831
 20
120.33441247002349
 30
0.0
 11
202.69210244068319
 21
120.3921474969424
 31
0.0
  0
ARC
  5
11F
  8
0
 10
204.69210244068319
 20
126.16885650324581
 30
0.0
 40
5.776709006303439
 50
249.7438419995691
 51
290.25615800043079
  0
LINE
  5
120
  8
0
 10
202.69210244068319
 20
120.3921474969424
 30
0.0
 11
202.69210244068319
 21
123.83441247002401
 31
0.0
  0
LINE
  5
121
  8
0
 10
210.69210244068319
 20
123.83441247002401
 30
0.0
 11
202.69210244068319
 21
123.83441247002401
 31
0.0
  0
LINE
  5
122
  8
0
 10
210.69210244068319
 20
120.3921474969424
 30
0.0
 11
210.69210244068319
 21
123.83441247002401
 31
0.0
  0
LINE
  5
123
  8
0
 10
210.59210244068339
 20
120.33441247002349
 30
0.0
 11
210.69210244068319
 21
120.3921474969424
 31
0.0
  0
ARC
  5
124
  8
0
 10
208.69210244068319
 20
126.16885650324581
 30
0.0
 40
5.776709006303439
 50
249.74384199956921
 51
290.25615800043079
  0
LINE
  5
125
  8
0
 10
204.19210244068319
 20
124.584390469699
 30
0.0
 11
209.19210244068319
 21
124.584390469699
 31
0.0
  0
LINE
  5
126
  8
0
 10
204.19210244068319
 20
125.2344124700238
 30
0.0
 11
204.19210244068319
 21
123.83441247002401
 31
0.0
  0
LINE
  5
127
  8
3
 10
204.62510244068309
 20
125.2344124700238
 30
0.0
 11
204.62510244068309
 21
124.584390469699
 31
0.0
  0
LINE
  5
128
  8
3
 10
208.75910244068339
 20
125.2344124700238
 30
0.0
 11
208.75910244068339
 21
124.584390469699
 31
0.0
  0
LINE
  5
129
  8
0
 10
209.19210244068319
 20
125.2344124700238
 30
0.0
 11
209.19210244068319
 21
123.83441247002401
 31
0.0
  0
LINE
  5
12A
  8
0
 10
204.77181600371571
 20
142.98441247002381
 30
0.0
 11
203.69210244068319
 21
142.98441247002381
 31
0.0
  0
LINE
  5
12B
  8
0
 10
214.74210244068331
 20
145.4844124700239
 30
0.0
 11
193.0740684519333
 21
145.4844124700239
 31
0.0
  0
ARC
  5
12C
  8
0
 10
206.69210244068319
 20
135.73441247002381
 30
0.0
 40
7.5
 50
302.23095263550272
 51
237.76904736449731
  0
LINE
  5
12D
  8
0
 10
210.69210244068319
 20
125.2344124700238
 30
0.0
 11
210.69210244068319
 21
129.39012369979889
 31
0.0
  0
LINE
  5
12E
  8
0
 10
202.69210244068319
 20
125.2344124700238
 30
0.0
 11
202.69210244068319
 21
129.39012369979889
 31
0.0
  0
LINE
  5
12F
  8
0
 10
210.69210244068319
 20
125.2344124700238
 30
0.0
 11
202.69210244068319
 21
125.2344124700238
 31
0.0
  0
CIRCLE
  5
130
  8
0
 10
206.69210244068319
 20
135.73441247002381
 30
0.0
 40
4.0
  0
LINE
  5
131
  8
0
 10
209.6921024406833
 20
142.98441247002381
 30
0.0
 11
208.61238887765089
 21
142.98441247002381
 31
0.0
  0
LINE
  5
132
  8
0
 10
203.69210244068319
 20
142.60827601245771
 30
0.0
 11
203.69210244068319
 21
142.9844132959301
 31
0.0
  0
LINE
  5
133
  8
0
 10
209.69210244068319
 20
142.60827601245771
 30
0.0
 11
209.69210244068319
 21
142.98441247002381
 31
0.0
  0
LINE
  5
134
  8
0
 10
161.69210244068319
 20
221.46013189448431
 30
0.0
 11
161.69210244068319
 21
201.46013189448431
 31
0.0
  0
LINE
  5
135
  8
0
 10
214.74210244068331
 20
211.46013189448431
 30
0.0
 11
212.6549449032097
 21
192.7934162376321
 31
0.0
  0
LINE
  5
136
  8
0
 10
200.69210244068319
 20
193.46013189448419
 30
0.0
 11
200.69210244068319
 21
197.46013189448419
 31
0.0
  0
LINE
  5
137
  8
0
 10
196.69210244068319
 20
201.46013189448431
 30
0.0
 11
161.69210244068319
 21
201.46013189448431
 31
0.0
  0
ARC
  5
138
  8
0
 10
206.69210244068319
 20
193.46013189448419
 30
0.0
 40
6.0
 50
180.0
 51
353.62015905472481
  0
CIRCLE
  5
139
  8
0
 10
206.69210244068319
 20
193.46013189448419
 30
0.0
 40
3.0
  0
ARC
  5
13A
  8
0
 10
196.69210244068319
 20
197.46013189448419
 30
0.0
 40
4.0
 50
0.0
 51
90.000000000000014
  0
LINE
  5
13B
  8
0
 10
200.56508578689079
 20
198.46013189448431
 30
0.0
 11
213.28855011332479
 21
198.46013189448431
 31
0.0
  0
LINE
  5
13C
  8
0
 10
199.19210244068299
 20
164.46013189448419
 30
0.0
 11
199.19210244068299
 21
197.5101318944842
 31
0.0
  0
LINE
  5
13D
  8
0
 10
214.19210244068341
 20
164.46013189448419
 30
0.0
 11
214.19210244068341
 21
197.5101318944842
 31
0.0
  0
LINE
  5
13E
  8
0
 10
214.19210244068341
 20
164.46013189448419
 30
0.0
 11
199.19210244068299
 21
164.46013189448419
 31
0.0
  0
ARC
  5
13F
  8
0
 10
201.19210244068299
 20
197.5101318944842
 30
0.0
 40
2.0
 50
117.92333584245949
 51
180.0
  0
ARC
  5
140
  8
0
 10
212.19210244068341
 20
197.5101318944842
 30
0.0
 40
2.0
 50
0.0
 51
54.144940336618703
  0
LINE
  5
141
  8
0
 10
213.92051858808381
 20
184.46013189448431
 30
0.0
 11
199.46368629328279
 21
184.46013189448431
 31
0.0
  0
LINE
  5
142
  8
0
 10
213.92051858808381
 20
184.46013189448431
 30
0.0
 11
213.92051858808381
 21
198.51640105400591
 31
0.0
  0
LINE
  5
143
  8
0
 10
199.46368629328271
 20
184.46013189448431
 30
0.0
 11
199.46368629328271
 21
198.51640105400949
 31
0.0
  0
LINE
  5
144
  8
0
 10
199.46368629328271
 20
238.46013189448431
 30
0.0
 11
199.46368629328271
 21
224.40386273495901
 31
0.0
  0
LINE
  5
145
  8
0
 10
213.92051858808381
 20
238.46013189448431
 30
0.0
 11
213.92051858808381
 21
224.40386273496259
 31
0.0
  0
LINE
  5
146
  8
0
 10
213.92051858808381
 20
238.46013189448431
 30
0.0
 11
199.46368629328279
 21
238.46013189448431
 31
0.0
  0
ARC
  5
147
  8
0
 10
212.19210244068341
 20
225.41013189448429
 30
0.0
 40
2.0
 50
305.85505966338133
 51
0.0
  0
ARC
  5
148
  8
0
 10
201.19210244068299
 20
225.41013189448429
 30
0.0
 40
2.0
 50
180.0
 51
242.07666415754039
  0
LINE
  5
149
  8
0
 10
214.19210244068341
 20
258.46013189448428
 30
0.0
 11
199.19210244068299
 21
258.46013189448428
 31
0.0
  0
LINE
  5
14A
  8
0
 10
214.19210244068341
 20
258.46013189448428
 30
0.0
 11
214.19210244068341
 21
225.41013189448429
 31
0.0
  0
LINE
  5
14B
  8
0
 10
199.19210244068299
 20
258.46013189448428
 30
0.0
 11
199.19210244068299
 21
225.41013189448429
 31
0.0
  0
LINE
  5
14C
  8
1
 10
156.69210244068319
 20
211.46013189448431
 30
0.0
 11
219.74210244068399
 21
211.46013189448431
 31
0.0
  0
LINE
  5
14D
  8
0
 10
200.56508578689079
 20
224.46013189448431
 30
0.0
 11
213.28855011332479
 21
224.46013189448431
 31
0.0
  0
ARC
  5
14E
  8
0
 10
193.0740684519333
 20
140.4844124700239
 30
0.0
 40
1.0
 50
90.000000000000014
 51
131.81031489577839
  0
ARC
  5
14F
  8
0
 10
186.31013642943319
 20
142.48441247002381
 30
0.0
 40
1.0
 50
270.0
 51
311.8103148957785
  0
ARC
  5
150
  8
0
 10
193.0740684519333
 20
140.4844124700239
 30
0.0
 40
5.0
 50
90.0
 51
131.8103148957785
  0
ARC
  5
151
  8
2
 10
186.31013642943319
 20
142.48441247002381
 30
0.0
 40
5.0
 50
270.0
 51
276.86509363490529
  0
LINE
  5
152
  8
2
 10
161.69210244068319
 20
137.48441247002381
 30
0.0
 11
186.31013642943319
 21
137.48441247002381
 31
0.0
  0
LINE
  5
153
  8
0
 10
161.69210244068319
 20
141.4844124700239
 30
0.0
 11
161.6921024406833
 21
134.48441247002381
 31
0.0
  0
LINE
  5
154
  8
0
 10
186.31013642943319
 20
141.4844124700239
 30
0.0
 11
161.69210244068319
 21
141.4844124700239
 31
0.0
  0
LINE
  5
155
  8
0
 10
193.0740684519333
 20
141.4844124700239
 30
0.0
 11
198.69210244068319
 21
141.4844124700239
 31
0.0
  0
LINE
  5
156
  8
0
 10
192.407403904543
 20
141.22977035806201
 30
0.0
 11
189.6434697627665
 21
138.75763250752419
 31
0.0
  0
LINE
  5
157
  8
0
 10
186.97680309609979
 20
141.73905647752389
 30
0.0
 11
189.7407351186001
 21
144.21119243252349
 31
0.0
  0
LINE
  5
158
  8
0
 10
214.74210244068331
 20
141.4844124700239
 30
0.0
 11
214.74210244068331
 21
145.4844124700239
 31
0.0
  0
ARC
  5
159
  8
0
 10
196.69210244068319
 20
225.46013189448431
 30
0.0
 40
4.0
 50
270.0
 51
0.0
  0
CIRCLE
  5
15A
  8
0
 10
206.69210244068319
 20
229.46013189448431
 30
0.0
 40
3.0
  0
ARC
  5
15B
  8
0
 10
206.69210244068319
 20
229.46013189448431
 30
0.0
 40
6.0
 50
6.379840945275248
 51
180.0
  0
LINE
  5
15C
  8
0
 10
196.69210244068319
 20
221.46013189448431
 30
0.0
 11
161.69210244068319
 21
221.46013189448431
 31
0.0
  0
LINE
  5
15D
  8
0
 10
200.69210244068319
 20
229.46013189448431
 30
0.0
 11
200.69210244068319
 21
225.46013189448431
 31
0.0
  0
LINE
  5
15E
  8
0
 10
214.74210244068331
 20
211.46013189448431
 30
0.0
 11
212.6549449032097
 21
230.1268475513364
 31
0.0
  0
LINE
  5
15F
  8
0
 10
210.74210244068331
 20
215.5101318944842
 30
0.0
 11
202.64210244068329
 21
215.5101318944842
 31
0.0
  0
LINE
  5
160
  8
0
 10
210.74210244068331
 20
207.41013189448429
 30
0.0
 11
210.74210244068331
 21
215.5101318944842
 31
0.0
  0
LINE
  5
161
  8
0
 10
202.64210244068329
 20
207.41013189448429
 30
0.0
 11
210.74210244068331
 21
207.41013189448429
 31
0.0
  0
LINE
  5
162
  8
0
 10
202.64210244068329
 20
215.5101318944842
 30
0.0
 11
202.64210244068329
 21
207.41013189448429
 31
0.0
  0
LINE
  5
163
  8
0
 10
202.64210244068329
 20
63.041606714628138
 30
0.0
 11
202.64210244068329
 21
54.941606714628229
 31
0.0
  0
LINE
  5
164
  8
0
 10
202.64210244068329
 20
54.941606714628229
 30
0.0
 11
210.74210244068331
 21
54.941606714628229
 31
0.0
  0
LINE
  5
165
  8
0
 10
210.74210244068331
 20
54.941606714628229
 30
0.0
 11
210.74210244068331
 21
63.041606714628138
 31
0.0
  0
LINE
  5
166
  8
0
 10
210.74210244068331
 20
63.041606714628138
 30
0.0
 11
202.64210244068329
 21
63.041606714628138
 31
0.0
  0
LINE
  5
167
  8
0
 10
214.74210244068331
 20
58.99160671462819
 30
0.0
 11
212.6549449032097
 21
77.658322371480338
 31
0.0
  0
LINE
  5
168
  8
0
 10
200.69210244068319
 20
76.99160671462819
 30
0.0
 11
200.69210244068319
 21
72.99160671462819
 31
0.0
  0
LINE
  5
169
  8
0
 10
196.69210244068319
 20
68.99160671462819
 30
0.0
 11
161.69210244068319
 21
68.99160671462819
 31
0.0
  0
ARC
  5
16A
  8
0
 10
206.69210244068319
 20
76.99160671462819
 30
0.0
 40
6.0
 50
6.379840945275248
 51
180.0
  0
CIRCLE
  5
16B
  8
0
 10
206.69210244068319
 20
76.99160671462819
 30
0.0
 40
3.0
  0
ARC
  5
16C
  8
0
 10
196.69210244068319
 20
72.99160671462819
 30
0.0
 40
4.0
 50
270.0
 51
0.0
  0
LINE
  5
16D
  8
0
 10
199.19210244068299
 20
105.9916067146282
 30
0.0
 11
199.19210244068299
 21
72.941606714628236
 31
0.0
  0
LINE
  5
16E
  8
0
 10
214.19210244068341
 20
105.9916067146282
 30
0.0
 11
214.19210244068341
 21
72.941606714628236
 31
0.0
  0
LINE
  5
16F
  8
0
 10
214.19210244068341
 20
105.9916067146282
 30
0.0
 11
199.19210244068299
 21
105.9916067146282
 31
0.0
  0
ARC
  5
170
  8
0
 10
201.19210244068299
 20
72.941606714628236
 30
0.0
 40
2.0
 50
180.0
 51
242.07666415754039
  0
ARC
  5
171
  8
0
 10
212.19210244068341
 20
72.941606714628236
 30
0.0
 40
2.0
 50
305.85505966338133
 51
0.0
  0
LINE
  5
172
  8
0
 10
213.92051858808381
 20
85.99160671462819
 30
0.0
 11
199.46368629328279
 21
85.99160671462819
 31
0.0
  0
LINE
  5
173
  8
0
 10
213.92051858808381
 20
85.99160671462819
 30
0.0
 11
213.92051858808381
 21
71.935337555101583
 31
0.0
  0
LINE
  5
174
  8
0
 10
199.46368629328271
 20
85.99160671462819
 30
0.0
 11
199.46368629328271
 21
71.935337555105193
 31
0.0
  0
LINE
  5
175
  8
0
 10
199.46368629328271
 20
31.99160671462819
 30
0.0
 11
199.46368629328271
 21
46.047875874149042
 31
0.0
  0
LINE
  5
176
  8
0
 10
213.92051858808381
 20
31.99160671462819
 30
0.0
 11
213.92051858808381
 21
46.047875874152652
 31
0.0
  0
ARC
  5
177
  8
0
 10
212.19210244068341
 20
45.041606714628138
 30
0.0
 40
2.0
 50
0.0
 51
54.144940336618703
  0
ARC
  5
178
  8
0
 10
201.19210244068299
 20
45.041606714628138
 30
0.0
 40
2.0
 50
117.92333584245949
 51
180.0
  0
LINE
  5
179
  8
0
 10
214.19210244068341
 20
11.99160671462819
 30
0.0
 11
199.19210244068299
 21
11.99160671462819
 31
0.0
  0
LINE
  5
17A
  8
0
 10
214.19210244068341
 20
11.99160671462819
 30
0.0
 11
214.19210244068341
 21
45.041606714628138
 31
0.0
  0
LINE
  5
17B
  8
0
 10
199.19210244068299
 20
11.99160671462819
 30
0.0
 11
199.19210244068299
 21
45.041606714628138
 31
0.0
  0
ARC
  5
17C
  8
0
 10
196.69210244068319
 20
44.99160671462819
 30
0.0
 40
4.0
 50
0.0
 51
90.000000000000014
  0
CIRCLE
  5
17D
  8
0
 10
206.69210244068319
 20
40.99160671462819
 30
0.0
 40
3.0
  0
ARC
  5
17E
  8
0
 10
206.69210244068319
 20
40.99160671462819
 30
0.0
 40
6.0
 50
180.0
 51
353.62015905472481
  0
LINE
  5
17F
  8
0
 10
196.69210244068319
 20
48.99160671462819
 30
0.0
 11
161.69210244068319
 21
48.99160671462819
 31
0.0
  0
LINE
  5
180
  8
0
 10
200.69210244068319
 20
40.99160671462819
 30
0.0
 11
200.69210244068319
 21
44.99160671462819
 31
0.0
  0
LINE
  5
181
  8
0
 10
214.74210244068331
 20
58.99160671462819
 30
0.0
 11
212.6549449032097
 21
40.324891057776043
 31
0.0
  0
LINE
  5
182
  8
0
 10
161.69210244068319
 20
68.99160671462819
 30
0.0
 11
161.69210244068319
 21
48.99160671462819
 31
0.0
  0
LINE
  5
183
  8
1
 10
206.69210244068319
 20
110.9916067146282
 30
0.0
 11
206.69210244068319
 21
6.9916067146281904
 31
0.0
  0
LINE
  5
184
  8
0
 10
161.69210244068319
 20
58.99160671462819
 30
0.0
 11
186.69210244068319
 21
48.99160671462819
 31
0.0
  0
LINE
  5
185
  8
0
 10
161.69210244068319
 20
58.99160671462819
 30
0.0
 11
186.69210244068319
 21
68.99160671462819
 31
0.0
  0
LINE
  5
186
  8
0
 10
210.69210244068319
 20
105.99160671462811
 30
0.0
 11
210.69210244068319
 21
95.991606714627949
 31
0.0
  0
LINE
  5
187
  8
0
 10
202.69210244068319
 20
105.99160671462811
 30
0.0
 11
202.69210244068319
 21
95.991606714627949
 31
0.0
  0
LINE
  5
188
  8
0
 10
202.69210244068319
 20
95.991606714627949
 30
0.0
 11
205.6203056709588
 21
95.991606714627949
 31
0.0
  0
CIRCLE
  5
189
  8
0
 10
206.69210244068319
 20
99.991606714627963
 30
0.0
 40
3.8999999999999999
  0
LINE
  5
18A
  8
0
 10
206.6921024406831
 20
104.6104088681449
 30
0.0
 11
202.69210244068319
 21
102.3010077913865
 31
0.0
  0
LINE
  5
18B
  8
0
 10
210.69210244068319
 20
102.3010077913864
 30
0.0
 11
206.6921024406831
 21
104.6104088681449
 31
0.0
  0
LINE
  5
18C
  8
0
 10
206.6921024406831
 20
95.372804561111025
 30
0.0
 11
210.6921024406831
 21
97.682205637869473
 31
0.0
  0
LINE
  5
18D
  8
0
 10
202.69210244068319
 20
97.682205637869473
 30
0.0
 11
206.6921024406831
 21
95.372804561111025
 31
0.0
  0
LINE
  5
18E
  8
0
 10
207.7638992104076
 20
95.991606714627949
 30
0.0
 11
210.69210244068319
 21
95.991606714627949
 31
0.0
  0
LINE
  5
18F
  8
0
 10
210.69210244068319
 20
21.991606714628428
 30
0.0
 11
210.69210244068319
 21
11.99160671462819
 31
0.0
  0
LINE
  5
190
  8
0
 10
202.69210244068319
 20
21.991606714628428
 30
0.0
 11
202.69210244068319
 21
11.99160671462819
 31
0.0
  0
LINE
  5
191
  8
0
 10
202.69210244068319
 20
21.991606714628421
 30
0.0
 11
205.62030567095869
 21
21.991606714628421
 31
0.0
  0
CIRCLE
  5
192
  8
0
 10
206.69210244068319
 20
17.9916067146284
 30
0.0
 40
3.8999999999999999
  0
LINE
  5
193
  8
0
 10
206.6921024406831
 20
22.610408868145392
 30
0.0
 11
202.69210244068319
 21
20.301007791386951
 31
0.0
  0
LINE
  5
194
  8
0
 10
210.69210244068319
 20
20.301007791386901
 30
0.0
 11
206.6921024406831
 21
22.610408868145392
 31
0.0
  0
LINE
  5
195
  8
0
 10
206.6921024406831
 20
13.372804561111479
 30
0.0
 11
210.6921024406831
 21
15.68220563786991
 31
0.0
  0
LINE
  5
196
  8
0
 10
202.69210244068319
 20
15.68220563786991
 30
0.0
 11
206.6921024406831
 21
13.372804561111479
 31
0.0
  0
LINE
  5
197
  8
0
 10
207.7638992104076
 20
21.991606714628421
 30
0.0
 11
210.69210244068319
 21
21.991606714628421
 31
0.0
  0
ARC
  5
198
  8
0
 10
206.69210244068319
 20
40.991606714628141
 30
0.0
 40
4.5
 50
53.147212792939939
 51
306.85278720706009
  0
LINE
  5
199
  8
0
 10
206.19210244068361
 20
38.03356682307836
 30
0.0
 11
206.19210244068361
 21
37.93219500647357
 31
0.0
  0
LINE
  5
19A
  8
0
 10
203.811870597508
 20
40.152402013992649
 30
0.0
 11
203.66528966621169
 21
40.09905091808983
 31
0.0
  0
ARC
  5
19B
  8
0
 10
206.69210244068319
 20
40.991606714628141
 30
0.0
 40
3.399999999999999
 50
200.9731138607857
 51
256.22585300197551
  0
ARC
  5
19C
  8
0
 10
203.75079470204309
 20
39.864127762893332
 30
0.0
 40
0.25
 50
110.00000000000141
 51
200.97311386078931
  0
ARC
  5
19D
  8
0
 10
205.94210244068361
 20
37.93219500647357
 30
0.0
 40
0.25
 50
256.22585300197341
 51
0.0
  0
LINE
  5
19E
  8
0
 10
208.7904979420872
 20
38.847606640072449
 30
0.0
 11
209.19714455185931
 21
38.699599378250149
 31
0.0
  0
LINE
  5
19F
  8
0
 10
203.81187059750999
 20
41.830811415262843
 30
0.0
 11
203.66528966621169
 21
41.884162511166458
 31
0.0
  0
ARC
  5
1A0
  8
0
 10
208.9398637759225
 20
37.992726255904387
 30
0.0
 40
0.752238664761018
 50
306.85278720706037
 51
70.000000000000071
  0
ARC
  5
1A1
  8
0
 10
203.75079470204309
 20
42.119085666362963
 30
0.0
 40
0.25
 50
159.0268861392106
 51
249.99999999999849
  0
ARC
  5
1A2
  8
0
 10
206.69210244068319
 20
40.991606714628141
 30
0.0
 40
3.399999999999999
 50
103.77414699802451
 51
159.0268861392143
  0
ARC
  5
1A3
  8
0
 10
205.94210244068361
 20
44.051018422782732
 30
0.0
 40
0.25
 50
0.0
 51
103.77414699802659
  0
LINE
  5
1A4
  8
0
 10
206.19210244068361
 20
43.949646606177957
 30
0.0
 11
206.19210244068361
 21
44.051018422782732
 31
0.0
  0
LINE
  5
1A5
  8
0
 10
208.79049794208601
 20
43.135606789183377
 30
0.0
 11
209.19714455185931
 21
43.28361405100614
 31
0.0
  0
ARC
  5
1A6
  8
0
 10
208.9398637759225
 20
43.990487173351902
 30
0.0
 40
0.752238664761018
 50
290.0
 51
53.147212792939627
  0
LINE
  5
1A7
  8
0
 10
200.56508578689079
 20
71.991606714628205
 30
0.0
 11
213.28855011332479
 21
71.991606714628205
 31
0.0
  0
LINE
  5
1A8
  8
0
 10
213.92051858808381
 20
31.991606714628201
 30
0.0
 11
199.46368629328279
 21
31.991606714628201
 31
0.0
  0
CIRCLE
  5
1A9
  8
0
 10
206.69210244068319
 20
76.991606714628176
 30
0.0
 40
2.5
  0
CIRCLE
  5
1AA
  8
0
 10
206.69210244068319
 20
40.99160671462819
 30
0.0
 40
2.5
  0
LINE
  5
1AB
  8
0
 10
200.56508578689079
 20
45.991606714628183
 30
0.0
 11
213.28855011332479
 21
45.991606714628183
 31
0.0
  0
ARC
  5
1AC
  8
0
 10
208.9398637759225
 20
73.992726255904472
 30
0.0
 40
0.752238664761018
 50
306.85278720706037
 51
70.000000000000071
  0
LINE
  5
1AD
  8
0
 10
208.79049794208601
 20
74.847606640072996
 30
0.0
 11
209.19714455185931
 21
74.699599378250241
 31
0.0
  0
LINE
  5
1AE
  8
0
 10
206.19210244068361
 20
74.033566823078417
 30
0.0
 11
206.19210244068361
 21
73.932195006473648
 31
0.0
  0
ARC
  5
1AF
  8
0
 10
205.94210244068361
 20
73.932195006473648
 30
0.0
 40
0.25
 50
256.22585300197341
 51
360.0
  0
ARC
  5
1B0
  8
0
 10
206.69210244068319
 20
76.991606714628233
 30
0.0
 40
3.399999999999999
 50
200.9731138607857
 51
256.22585300197551
  0
ARC
  5
1B1
  8
0
 10
203.75079470204309
 20
75.864127762893418
 30
0.0
 40
0.25
 50
110.00000000000141
 51
200.97311386078931
  0
ARC
  5
1B2
  8
0
 10
208.9398637759225
 20
79.990487173351994
 30
0.0
 40
0.752238664761018
 50
290.0
 51
53.147212792939627
  0
LINE
  5
1B3
  8
0
 10
203.81187059750999
 20
76.152402013993537
 30
0.0
 11
203.66528966621169
 21
76.099050918089915
 31
0.0
  0
LINE
  5
1B4
  8
0
 10
208.7904979420872
 20
79.135606789183925
 30
0.0
 11
209.19714455185931
 21
79.283614051006225
 31
0.0
  0
ARC
  5
1B5
  8
0
 10
205.94210244068361
 20
80.051018422782818
 30
0.0
 40
0.25
 50
360.0
 51
103.77414699802659
  0
ARC
  5
1B6
  8
0
 10
203.75079470204309
 20
78.119085666363034
 30
0.0
 40
0.25
 50
159.0268861392106
 51
249.99999999999849
  0
ARC
  5
1B7
  8
0
 10
206.69210244068319
 20
76.991606714628233
 30
0.0
 40
3.399999999999999
 50
103.77414699802451
 51
159.0268861392143
  0
LINE
  5
1B8
  8
0
 10
203.811870597508
 20
77.830811415263724
 30
0.0
 11
203.66528966621169
 21
77.884162511166551
 31
0.0
  0
LINE
  5
1B9
  8
0
 10
206.19210244068361
 20
79.949646606178021
 30
0.0
 11
206.19210244068361
 21
80.051018422782818
 31
0.0
  0
ARC
  5
1BA
  8
0
 10
206.69210244068319
 20
76.991606714628233
 30
0.0
 40
4.5
 50
53.147212792939833
 51
306.85278720706009
  0
LINE
  5
1BB
  8
2
 10
123.6921024406834
 20
131.7344124700229
 30
0.0
 11
108.6921024406834
 21
131.7344124700229
 31
0.0
  0
LINE
  5
1BC
  8
2
 10
123.6921024406834
 20
139.73441247002481
 30
0.0
 11
108.6921024406834
 21
139.73441247002469
 31
0.0
  0
LINE
  5
1BD
  8
2
 10
108.6921024406834
 20
131.7344124700229
 30
0.0
 11
108.6921024406834
 21
139.73441247002469
 31
0.0
  0
LINE
  5
1BE
  8
2
 10
108.6921024406834
 20
131.7344124700229
 30
0.0
 11
106.3827013639244
 21
135.73441247002381
 31
0.0
  0
LINE
  5
1BF
  8
2
 10
108.6921024406834
 20
139.73441247002481
 30
0.0
 11
106.3827013639244
 21
135.73441247002381
 31
0.0
  0
LINE
  5
1C0
  8
1
 10
83.64210244068326
 20
135.73441247002481
 30
0.0
 11
128.69210244068341
 21
135.73441247002481
 31
0.0
  0
LINE
  5
1C1
  8
1
 10
94.692102440683442
 20
145.98441247002381
 30
0.0
 11
94.692102440683456
 21
127.9844124700235
 31
0.0
  0
LINE
  5
1C2
  8
1
 10
117.6921024406836
 20
117.33441247002349
 30
0.0
 11
117.6921024406836
 21
134.7344124700229
 31
0.0
  0
LINE
  5
1C3
  8
1
 10
76.692102440683342
 20
150.48441247002509
 30
0.0
 11
76.6921024406833
 21
132.48441247002381
 31
0.0
  0
LINE
  5
1C4
  8
1
 10
58.692102440683158
 20
145.98441247002381
 30
0.0
 11
58.692102440683144
 21
127.9844124700235
 31
0.0
  0
LINE
  5
1C5
  8
1
 10
69.74210244068334
 20
135.73441247002481
 30
0.0
 11
24.692102440683161
 21
135.73441247002481
 31
0.0
  0
LINE
  5
1C6
  8
1
 10
35.692102440682987
 20
117.33441247002349
 30
0.0
 11
35.692102440682987
 21
134.7344124700229
 31
0.0
  0
LINE
  5
1C7
  8
2
 10
44.692102440683158
 20
139.73441247002481
 30
0.0
 11
47.001503517442217
 21
135.73441247002381
 31
0.0
  0
LINE
  5
1C8
  8
2
 10
44.692102440683158
 20
131.7344124700229
 30
0.0
 11
47.001503517442217
 21
135.73441247002381
 31
0.0
  0
LINE
  5
1C9
  8
2
 10
44.692102440683158
 20
131.7344124700229
 30
0.0
 11
44.692102440683172
 21
139.73441247002469
 31
0.0
  0
LINE
  5
1CA
  8
2
 10
29.692102440683168
 20
139.73441247002481
 30
0.0
 11
44.692102440683172
 21
139.73441247002469
 31
0.0
  0
LINE
  5
1CB
  8
2
 10
29.692102440683161
 20
131.7344124700229
 30
0.0
 11
44.692102440683158
 21
131.7344124700229
 31
0.0
  0
LINE
  5
1CC
  8
1
 10
219.19210244068319
 20
135.73441247002381
 30
0.0
 11
194.19210244068319
 21
135.73441247002381
 31
0.0
  0
LINE
  5
1CD
  8
1
 10
206.69210244068319
 20
148.23441247002381
 30
0.0
 11
206.69210244068319
 21
115.33441247002391
 31
0.0
  0
LINE
  5
1CE
  8
1
 10
214.19210244068319
 20
76.991606714628233
 30
0.0
 11
199.19210244068319
 21
76.991606714628233
 31
0.0
  0
LINE
  5
1CF
  8
1
 10
213.59210244068319
 20
99.991606714627963
 30
0.0
 11
199.79210244068321
 21
99.991606714627963
 31
0.0
  0
LINE
  5
1D0
  8
1
 10
156.69210244068319
 20
58.99160671462819
 30
0.0
 11
219.74210244068331
 21
58.991606714628197
 31
0.0
  0
LINE
  5
1D1
  8
1
 10
214.19210244068319
 20
40.991606714628183
 30
0.0
 11
199.19210244068319
 21
40.991606714628183
 31
0.0
  0
LINE
  5
1D2
  8
1
 10
213.59210244068319
 20
17.99160671462846
 30
0.0
 11
199.79210244068321
 21
17.99160671462846
 31
0.0
  0
LINE
  5
1D3
  8
2
 10
348.69210244068353
 20
131.7344124700229
 30
0.0
 11
333.69210244068353
 21
131.7344124700229
 31
0.0
  0
LINE
  5
1D4
  8
2
 10
348.69210244068353
 20
139.73441247002481
 30
0.0
 11
333.69210244068353
 21
139.73441247002469
 31
0.0
  0
LINE
  5
1D5
  8
2
 10
333.69210244068353
 20
131.7344124700229
 30
0.0
 11
333.69210244068353
 21
139.73441247002469
 31
0.0
  0
LINE
  5
1D6
  8
2
 10
333.69210244068353
 20
131.7344124700229
 30
0.0
 11
331.38270136392441
 21
135.73441247002381
 31
0.0
  0
LINE
  5
1D7
  8
2
 10
333.69210244068353
 20
139.73441247002481
 30
0.0
 11
331.38270136392441
 21
135.73441247002381
 31
0.0
  0
LINE
  5
1D8
  8
1
 10
342.6921024406837
 20
117.33441247002349
 30
0.0
 11
342.6921024406837
 21
134.7344124700229
 31
0.0
  0
LINE
  5
1D9
  8
1
 10
308.64210244068329
 20
135.73441247002481
 30
0.0
 11
353.69210244068353
 21
135.73441247002481
 31
0.0
  0
LINE
  5
1DA
  8
1
 10
319.69210244068353
 20
145.98441247002381
 30
0.0
 11
319.69210244068353
 21
127.9844124700235
 31
0.0
  0
LINE
  5
1DB
  8
1
 10
301.6921024406833
 20
150.48441247002509
 30
0.0
 11
301.69210244068341
 21
132.48441247002381
 31
0.0
  0
LINE
  5
1DC
  8
1
 10
260.69210244068302
 20
117.33441247002349
 30
0.0
 11
260.69210244068302
 21
134.7344124700229
 31
0.0
  0
LINE
  5
1DD
  8
1
 10
283.69210244068319
 20
145.98441247002381
 30
0.0
 11
283.69210244068319
 21
127.9844124700235
 31
0.0
  0
LINE
  5
1DE
  8
1
 10
294.74210244068342
 20
135.73441247002481
 30
0.0
 11
249.69210244068319
 21
135.73441247002481
 31
0.0
  0
LINE
  5
1DF
  8
2
 10
269.6921024406833
 20
139.73441247002481
 30
0.0
 11
272.0015035174423
 21
135.73441247002381
 31
0.0
  0
LINE
  5
1E0
  8
2
 10
269.6921024406833
 20
131.7344124700229
 30
0.0
 11
272.0015035174423
 21
135.73441247002381
 31
0.0
  0
LINE
  5
1E1
  8
2
 10
269.6921024406833
 20
131.7344124700229
 30
0.0
 11
269.6921024406833
 21
139.73441247002469
 31
0.0
  0
LINE
  5
1E2
  8
2
 10
254.69210244068319
 20
139.73441247002481
 30
0.0
 11
269.6921024406833
 21
139.73441247002469
 31
0.0
  0
LINE
  5
1E3
  8
2
 10
254.69210244068319
 20
131.7344124700229
 30
0.0
 11
269.6921024406833
 21
131.7344124700229
 31
0.0
  0
LINE
  5
1E4
  8
1
 10
213.59210244068319
 20
170.4601318944845
 30
0.0
 11
199.79210244068321
 21
170.4601318944845
 31
0.0
  0
LINE
  5
1E5
  8
1
 10
214.19210244068319
 20
193.46013189448419
 30
0.0
 11
199.19210244068319
 21
193.46013189448419
 31
0.0
  0
LINE
  5
1E6
  8
1
 10
206.69210244068319
 20
159.46013189448431
 30
0.0
 11
206.69210244068319
 21
263.46013189448428
 31
0.0
  0
LINE
  5
1E7
  8
1
 10
214.19210244068319
 20
229.46013189448431
 30
0.0
 11
199.19210244068319
 21
229.46013189448431
 31
0.0
  0
LINE
  5
1E8
  8
1
 10
213.59210244068319
 20
252.46013189448399
 30
0.0
 11
199.79210244068321
 21
252.46013189448399
 31
0.0
  0
POLYLINE
  5
1E9
  8
0
 66
     1
 10
0.0
 20
0.0
 30
0.0
  0
VERTEX
  5
1EA
  8
0
 10
213.28855011332479
 20
145.4844124700239
 30
0.0
 42
0.2951564889077727
  0
VERTEX
  5
1EB
  8
0
 10
213.13791366071229
 20
145.38700383464661
 30
0.0
 42
0.0597026756707248
  0
VERTEX
  5
1EC
  8
0
 10
212.8932359950615
 20
144.6057328135835
 30
0.0
 42
0.026807023431294
 70
     2
 50
259.44385182340392
  0
VERTEX
  5
1ED
  8
0
 10
212.77721005805009
 20
143.72264486014731
 30
0.0
 42
0.019261662197193
 50
259.44385182340392
  0
VERTEX
  5
1EE
  8
0
 10
212.7294915258793
 20
142.48441247002381
 30
0.0
 42
0.0192616621971789
  0
SEQEND
  5
1EF
  8
0
  0
POLYLINE
  5
1F0
  8
0
 66
     1
 10
0.0
 20
0.0
 30
0.0
  0
VERTEX
  5
1F1
  8
0
 10
213.28855011332479
 20
141.4844124700239
 30
0.0
 42
0.2951564889077727
  0
VERTEX
  5
1F2
  8
0
 10
213.13791366071229
 20
141.38700383464661
 30
0.0
 42
0.0597026756707248
  0
VERTEX
  5
1F3
  8
0
 10
212.8932359950615
 20
140.6057328135835
 30
0.0
 42
0.0162823316483459
 70
     2
 50
259.44385182340392
  0
VERTEX
  5
1F4
  8
0
 10
212.8114572012004
 20
140.07071242677679
 30
0.0
 42
0.019261662197193
 50
259.44385182340392
  0
SEQEND
  5
1F5
  8
0
  0
ARC
  5
1F6
  8
0
 10
198.69210244068319
 20
143.4844124700239
 30
0.0
 40
2.0
 50
359.99994535848663
 51
90.0
  0
LINE
  5
1F7
  8
0
 10
192.6921024406833
 20
68.99160671462819
 30
0.0
 11
192.6921024406833
 21
48.99160671462819
 31
0.0
  0
TEXT
  5
349
  8
0
 62
     3
 10
0.0
 20
0.0
 30
0.0
 40
10.0
  1
SWC4522
  7
STANDARD1
  0
ENDSEC
  0
EOF
