  0
SECTION
  2
HEADER
  9
$ACADVER
  1
AC1009
  9
$INSBASE
 10
0.0
 20
0.0
 30
0.0
  9
$EXTMIN
 10
0.0
 20
-2.960436562073669
 30
0.0
  9
$EXTMAX
 10
239.5694878963682
 20
198.51447351507281
 30
0.0
  9
$LIMMIN
 10
0.0
 20
0.0
  9
$LIMMAX
 10
375.0
 20
270.0
  9
$ORTHOMODE
 70
     1
  9
$REGENMODE
 70
     1
  9
$FILLMODE
 70
     1
  9
$QTEXTMODE
 70
     0
  9
$MIRRTEXT
 70
     0
  9
$DRAGMODE
 70
     2
  9
$LTSCALE
 40
10.0
  9
$OSMODE
 70
    37
  9
$ATTMODE
 70
     1
  9
$TEXTSIZE
 40
4.000000000000048
  9
$TRACEWID
 40
0.05
  9
$TEXTSTYLE
  7
STANDARD
  9
$CLAYER
  8
0
  9
$CELTYPE
  6
BYLAYER
  9
$CECOLOR
 62
   256
  9
$DIMSCALE
 40
1.0
  9
$DIMASZ
 40
3.0
  9
$DIMEXO
 40
2.0
  9
$DIMDLI
 40
0.38
  9
$DIMRND
 40
0.0
  9
$DIMDLE
 40
0.0
  9
$DIMEXE
 40
2.0
  9
$DIMTP
 40
0.0
  9
$DIMTM
 40
0.0
  9
$DIMTXT
 40
3.2000000000000002
  9
$DIMCEN
 40
0.0
  9
$DIMTSZ
 40
0.0
  9
$DIMTOL
 70
     0
  9
$DIMLIM
 70
     0
  9
$DIMTIH
 70
     0
  9
$DIMTOH
 70
     0
  9
$DIMSE1
 70
     0
  9
$DIMSE2
 70
     0
  9
$DIMTAD
 70
     1
  9
$DIMZIN
 70
     0
  9
$DIMBLK
  1

  9
$DIMASO
 70
     1
  9
$DIMSHO
 70
     0
  9
$DIMPOST
  1

  9
$DIMAPOST
  1

  9
$DIMALT
 70
     0
  9
$DIMALTD
 70
     2
  9
$DIMALTF
 40
25.399999999999999
  9
$DIMLFAC
 40
1.0
  9
$DIMTOFL
 70
     1
  9
$DIMTVP
 40
1.6000000000000001
  9
$DIMTIX
 70
     1
  9
$DIMSOXD
 70
     0
  9
$DIMSAH
 70
     0
  9
$DIMBLK1
  1

  9
$DIMBLK2
  1

  9
$DIMSTYLE
  2
STANDARD
  9
$DIMCLRD
 70
     0
  9
$DIMCLRE
 70
     0
  9
$DIMCLRT
 70
     0
  9
$DIMTFAC
 40
1.0
  9
$DIMGAP
 40
0.09
  9
$LUNITS
 70
     2
  9
$LUPREC
 70
     4
  9
$SKETCHINC
 40
0.1
  9
$FILLETRAD
 40
0.0
  9
$AUNITS
 70
     0
  9
$AUPREC
 70
     4
  9
$MENU
  1
E:\r13\win\SUPPORT\ACAD
  9
$ELEVATION
 40
0.0
  9
$PELEVATION
 40
0.0
  9
$THICKNESS
 40
0.0
  9
$LIMCHECK
 70
     0
  9
$BLIPMODE
 70
     0
  9
$CHAMFERA
 40
0.0
  9
$CHAMFERB
 40
0.0
  9
$SKPOLY
 70
     0
  9
$TDCREATE
 40
2449839.7850462962
  9
$TDUPDATE
 40
2459429.5744483559
  9
$TDINDWG
 40
0.0396754977
  9
$TDUSRTIMER
 40
0.0396754977
  9
$USRTIMER
 70
     1
  9
$ANGBASE
 50
0.0
  9
$ANGDIR
 70
     0
  9
$PDMODE
 70
     0
  9
$PDSIZE
 40
0.0
  9
$PLINEWID
 40
0.0
  9
$COORDS
 70
     1
  9
$SPLFRAME
 70
     0
  9
$SPLINETYPE
 70
     6
  9
$SPLINESEGS
 70
     8
  9
$ATTDIA
 70
     0
  9
$ATTREQ
 70
     1
  9
$HANDLING
 70
     1
  9
$HANDSEED
  5
C1A
  9
$SURFTAB1
 70
     6
  9
$SURFTAB2
 70
     6
  9
$SURFTYPE
 70
     6
  9
$SURFU
 70
     6
  9
$SURFV
 70
     6
  9
$UCSNAME
  2

  9
$UCSORG
 10
0.0
 20
0.0
 30
0.0
  9
$UCSXDIR
 10
1.0
 20
0.0
 30
0.0
  9
$UCSYDIR
 10
0.0
 20
1.0
 30
0.0
  9
$PUCSNAME
  2

  9
$PUCSORG
 10
0.0
 20
0.0
 30
0.0
  9
$PUCSXDIR
 10
1.0
 20
0.0
 30
0.0
  9
$PUCSYDIR
 10
0.0
 20
1.0
 30
0.0
  9
$USERI1
 70
     0
  9
$USERI2
 70
     1
  9
$USERI3
 70
     1
  9
$USERI4
 70
     0
  9
$USERI5
 70
     0
  9
$USERR1
 40
0.0
  9
$USERR2
 40
0.0
  9
$USERR3
 40
0.0
  9
$USERR4
 40
0.0
  9
$USERR5
 40
0.0
  9
$WORLDVIEW
 70
     1
  9
$SHADEDGE
 70
     3
  9
$SHADEDIF
 70
    70
  9
$TILEMODE
 70
     1
  9
$MAXACTVP
 70
    16
  9
$PLIMCHECK
 70
     0
  9
$PEXTMIN
 10
1.0000000000000000E+020
 20
1.0000000000000000E+020
 30
1.0000000000000000E+020
  9
$PEXTMAX
 10
-1.0000000000000000E+020
 20
-1.0000000000000000E+020
 30
-1.0000000000000000E+020
  9
$PLIMMIN
 10
0.0
 20
0.0
  9
$PLIMMAX
 10
12.0
 20
9.0
  9
$UNITMODE
 70
     0
  9
$VISRETAIN
 70
     0
  9
$PLINEGEN
 70
     0
  9
$PSLTSCALE
 70
     0
  0
ENDSEC
  0
SECTION
  2
TABLES
  0
TABLE
  2
VPORT
 70
     1
  0
VPORT
  2
*ACTIVE
 70
     0
 10
0.0
 20
0.0
 11
1.0
 21
1.0
 12
219.00154122051839
 22
97.776413245174027
 13
0.0
 23
0.0
 14
10.0
 24
10.0
 15
10.0
 25
10.0
 16
0.0
 26
0.0
 36
1.0
 17
0.0
 27
0.0
 37
0.0
 40
203.2631811319134
 41
2.3805970149253728
 42
50.0
 43
0.0
 44
0.0
 50
0.0
 51
0.0
 71
     0
 72
   500
 73
     1
 74
     0
 75
     0
 76
     0
 77
     0
 78
     2
  0
ENDTAB
  0
TABLE
  2
LTYPE
 70
     4
  0
LTYPE
  2
CONTINUOUS
 70
     0
  3
Solid Line
 72
    65
 73
     0
 40
0.0
  0
LTYPE
  2
CENTER
 70
     0
  3
____ _ ____ _ ____ _ ____ _ ____ _ ____ _ ____
 72
    65
 73
     4
 40
2.0
 49
1.25
 49
-0.25
 49
0.25
 49
-0.25
  0
LTYPE
  2
HIDDEN
 70
     0
  3
_ _ _ _ _ _ _ _ _ _ _ _ _ _ _ _ _ _ _ _ _ _ _
 72
    65
 73
     2
 40
0.375
 49
0.25
 49
-0.125
  0
LTYPE
  2
PHANTOM2
 70
     0
  3
___ _ _ ___ _ _ ___ _ _ ___ _ _
 72
    65
 73
     6
 40
1.25
 49
0.625
 49
-0.125
 49
0.125
 49
-0.125
 49
0.125
 49
-0.125
  0
ENDTAB
  0
TABLE
  2
LAYER
 70
     3
  0
LAYER
  2
0
 70
     0
 62
     7
  6
CONTINUOUS
  0
LAYER
  2
1
 70
     0
 62
     1
  6
CENTER
  0
LAYER
  2
2
 70
     0
 62
     2
  6
HIDDEN
  0
ENDTAB
  0
TABLE
  2
STYLE
 70
     2
  0
STYLE
  2
STANDARD
 70
     0
 40
0.0
 41
1.0
 50
0.0
 71
     0
 42
4.000000000000048
  3
TXT
  4
BIGFONT
  0
STYLE
  2
STANDARD1
 70
     0
 40
0.0
 41
1.0
 50
0.0
 71
     0
 42
3.0
  3
txt
  4

  0
ENDTAB
  0
TABLE
  2
VIEW
 70
     1
  0
VIEW
  2
ALL
 70
     0
 40
270.0
 10
220.99159663865549
 20
135.0
 41
0.0
 11
0.0
 21
0.0
 31
1.0
 12
0.0
 22
0.0
 32
0.0
 42
0.0
 43
0.0
 44
0.0
 50
0.0
 71
     0
  0
ENDTAB
  0
TABLE
  2
UCS
 70
     0
  0
ENDTAB
  0
TABLE
  2
APPID
 70
     4
  0
APPID
  2
ACAD
 70
     0
  0
APPID
  2
ACAD_MLEADERVER
 70
     0
  0
APPID
  2
ACAD_NAV_VCDISPLAY
 70
     0
  0
APPID
  2
ACAD_EXEMPT_FROM_CAD_STANDARDS
 70
     0
  0
ENDTAB
  0
TABLE
  2
DIMSTYLE
 70
     1
  0
DIMSTYLE
  2
STANDARD
 70
     0
  3

  4

  5

  6

  7

 40
1.0
 41
0.18
 42
0.0625
 43
0.38
 44
0.18
 45
0.0
 46
0.0
 47
0.0
 48
0.0
140
0.18
141
0.09
142
0.0
143
25.399999999999999
144
1.0
145
0.0
146
1.0
147
0.09
 71
     0
 72
     0
 73
     1
 74
     1
 75
     0
 76
     0
 77
     0
 78
     0
170
     0
171
     2
172
     0
173
     0
174
     0
175
     0
176
     0
177
     0
178
     0
  0
ENDTAB
  0
ENDSEC
  0
SECTION
  2
BLOCKS
  0
BLOCK
  8
0
  2
$MODEL_SPACE
 70
     0
 10
0.0
 20
0.0
 30
0.0
  3
$MODEL_SPACE
  1

  0
ENDBLK
  5
123
  8
0
  0
BLOCK
 67
     1
  8
0
  2
$PAPER_SPACE
 70
     0
 10
0.0
 20
0.0
 30
0.0
  3
$PAPER_SPACE
  1

  0
ENDBLK
  5
121
 67
     1
  8
0
  0
ENDSEC
  0
SECTION
  2
ENTITIES
  0
TEXT
  5
20D
  8
0
 62
     3
 10
0.0
 20
0.0
 30
0.0
 40
10.0
  1
TAKR63-SUS-LB
  7
STANDARD1
  0
ARC
  5
305
  8
0
 10
129.99999997615009
 20
162.01447351507289
 30
0.0
 40
31.499999999999989
 50
240.7084199327972
 51
249.83668248280151
  0
ARC
  5
306
  8
0
 10
6.6202184673605871
 20
188.7157980143852
 30
0.0
 40
120.7971239511814
 50
333.35449772172882
 51
340.52988899750102
  0
ARC
  5
308
  8
0
 10
129.99999997615009
 20
162.01447351507289
 30
0.0
 40
31.5
 50
120.7084199328027
 51
129.83668248280151
  0
ARC
  5
309
  8
0
 10
214.81391605795139
 20
255.51383636270339
 30
0.0
 40
120.79712394655751
 50
213.35449772166049
 51
220.52988899765839
  0
ARC
  5
30B
  8
0
 10
129.99999997615009
 20
162.01447351507289
 30
0.0
 40
31.50000000000006
 50
0.7084199328000365
 51
9.8366824828004145
  0
ARC
  5
30C
  8
0
 10
168.56586539778851
 20
41.813786183333583
 30
0.0
 40
120.7971239331161
 50
93.354497721455417
 51
100.52988899826531
  0
LINE
  5
30F
  8
0
 10
146.49038103295001
 20
160.57665134147291
 30
0.0
 11
119.14203575735
 21
132.44498564287289
 31
0.0
  0
LINE
  5
310
  8
0
 10
122.99999997615009
 20
177.01447351507289
 30
0.0
 11
161.03690975974999
 21
167.3959446042729
 31
0.0
  0
LINE
  5
311
  8
0
 10
120.50961891945011
 20
148.45229568857289
 30
0.0
 11
109.82105441135
 21
186.2024902979729
 31
0.0
  0
CIRCLE
  5
312
  8
0
 10
129.99999997615009
 20
162.01447351507289
 30
0.0
 40
9.0000000000000124
  0
ARC
  5
313
  8
0
 10
129.99999997615009
 20
162.01447351507289
 30
0.0
 40
31.499999999999989
 50
110.16331751719839
 51
120.7084199328027
  0
LINE
  5
314
  8
0
 10
119.14203575735
 20
191.58396138717291
 30
0.0
 11
136.66518342205001
 21
173.55890988507289
 31
0.0
  0
ARC
  5
315
  8
0
 10
129.99999997615009
 20
162.01447351507289
 30
0.0
 40
31.50000000000006
 50
350.16331751720031
 51
0.7084199328000365
  0
LINE
  5
316
  8
0
 10
161.03690975974999
 20
156.63300242587289
 30
0.0
 11
136.66518342205001
 21
150.47003714497291
 31
0.0
  0
ARC
  5
317
  8
0
 10
129.99999997615009
 20
162.01447351507289
 30
0.0
 40
31.5
 50
230.16331751719849
 51
240.7084199327972
  0
LINE
  5
318
  8
0
 10
109.82105441135
 20
137.8264567320729
 30
0.0
 11
116.6696330844501
 21
162.01447351507289
 31
0.0
  0
LINE
  5
319
  8
1
 10
129.99999997615009
 20
125.51447351507279
 30
0.0
 11
129.99999997615009
 21
198.51447351507281
 31
0.0
  0
LINE
  5
31C
  8
1
 10
93.499999976150093
 20
162.01447351507289
 30
0.0
 11
166.49999997615009
 21
162.01447351507289
 31
0.0
  0
ARC
  5
321
  8
0
 10
139.2627596072999
 20
200.66958503999999
 30
0.0
 40
129.99999999999449
 50
270.98608277279629
 51
279.84920507649889
  0
ARC
  5
322
  8
0
 10
120.7372403927999
 20
200.66958503999999
 30
0.0
 40
129.99999999999449
 50
268.20687701690127
 51
269.01391722720359
  0
POLYLINE
  5
323
  8
0
 66
     1
 10
0.0
 20
0.0
 30
0.0
 70
   128
  0
VERTEX
  5
902
  8
0
 10
121.0000000426999
 20
85.271684146100014
 30
0.0
  0
VERTEX
  5
903
  8
0
 10
119.6420667646
 20
85.197525995999996
 30
0.0
  0
VERTEX
  5
904
  8
0
 10
116.66956949119989
 20
84.992458692600025
 30
0.0
  0
SEQEND
  5
905
  8
0
  0
POLYLINE
  5
324
  8
0
 66
     1
 10
0.0
 20
0.0
 30
0.0
 70
   128
  0
VERTEX
  5
906
  8
0
 10
156.8382469501999
 20
83.458409202600023
 30
0.0
  0
VERTEX
  5
907
  8
0
 10
156.75541685389999
 20
83.471928435800024
 30
0.0
  0
VERTEX
  5
908
  8
0
 10
155.1815840077999
 20
83.695051291799984
 30
0.0
  0
SEQEND
  5
909
  8
0
  0
ARC
  5
325
  8
0
 10
132.09625722350361
 20
-61.09219807706431
 30
0.0
 40
146.52661083605841
 50
84.400916808703826
 51
87.299454241452651
  0
LINE
  5
326
  8
0
 10
118.5
 20
70.688837406299996
 30
0.0
 11
118.5
 21
55.299999999999997
 31
0.0
  0
LINE
  5
327
  8
0
 10
141.5
 20
55.299999999999997
 30
0.0
 11
141.5
 21
70.688837406299996
 31
0.0
  0
ARC
  5
328
  8
0
 10
129.99999997615009
 20
-81.418178007777144
 30
0.0
 40
166.93265152284991
 50
86.909459290233613
 51
93.090540709766387
  0
LINE
  5
32B
  8
0
 10
124.39999999999991
 20
55.299999999999997
 30
0.0
 11
124.39999999999991
 21
55.0
 31
0.0
  0
LINE
  5
32C
  8
0
 10
135.59999999999991
 20
55.0
 30
0.0
 11
135.59999999999991
 21
55.299999999999997
 31
0.0
  0
LINE
  5
32D
  8
0
 10
161.5
 20
72.585608135399994
 30
0.0
 11
161.5
 21
82.292506766700001
 31
0.0
  0
LINE
  5
32E
  8
0
 10
119.14203578119989
 20
72.585608135399994
 30
0.0
 11
109.8210544351999
 21
72.585608135399994
 31
0.0
  0
LINE
  5
32F
  8
0
 10
109.8210544351999
 20
72.585608135399994
 30
0.0
 11
109.8210544351999
 21
77.026090834000001
 31
0.0
  0
POLYLINE
  5
330
  8
0
 10
114.58848983230911
 20
82.682569250357702
 30
0.0
 66
     1
 70
     8
  0
VERTEX
  8
0
  5
90E
 10
114.588
 20
82.6826
 30
0.000000
  70
    32
  0
VERTEX
  8
0
  5
90F
 10
114.549
 20
82.6371
 30
0.000000
  70
    32
  0
VERTEX
  8
0
  5
910
 10
114.510
 20
82.5917
 30
0.000000
  70
    32
  0
VERTEX
  8
0
  5
911
 10
114.470
 20
82.5464
 30
0.000000
  70
    32
  0
VERTEX
  8
0
  5
912
 10
114.431
 20
82.5010
 30
0.000000
  70
    32
  0
VERTEX
  8
0
  5
913
 10
114.391
 20
82.4556
 30
0.000000
  70
    32
  0
VERTEX
  8
0
  5
914
 10
114.352
 20
82.4103
 30
0.000000
  70
    32
  0
VERTEX
  8
0
  5
915
 10
114.313
 20
82.3650
 30
0.000000
  70
    32
  0
VERTEX
  8
0
  5
916
 10
114.274
 20
82.3196
 30
0.000000
  70
    32
  0
VERTEX
  8
0
  5
917
 10
114.234
 20
82.2743
 30
0.000000
  70
    32
  0
VERTEX
  8
0
  5
918
 10
114.195
 20
82.2291
 30
0.000000
  70
    32
  0
VERTEX
  8
0
  5
919
 10
114.156
 20
82.1838
 30
0.000000
  70
    32
  0
VERTEX
  8
0
  5
91A
 10
114.117
 20
82.1386
 30
0.000000
  70
    32
  0
VERTEX
  8
0
  5
91B
 10
114.078
 20
82.0933
 30
0.000000
  70
    32
  0
VERTEX
  8
0
  5
91C
 10
114.039
 20
82.0481
 30
0.000000
  70
    32
  0
VERTEX
  8
0
  5
91D
 10
114.000
 20
82.0029
 30
0.000000
  70
    32
  0
VERTEX
  8
0
  5
91E
 10
113.961
 20
81.9577
 30
0.000000
  70
    32
  0
VERTEX
  8
0
  5
91F
 10
113.922
 20
81.9126
 30
0.000000
  70
    32
  0
VERTEX
  8
0
  5
920
 10
113.883
 20
81.8674
 30
0.000000
  70
    32
  0
VERTEX
  8
0
  5
921
 10
113.844
 20
81.8223
 30
0.000000
  70
    32
  0
VERTEX
  8
0
  5
922
 10
113.805
 20
81.7772
 30
0.000000
  70
    32
  0
VERTEX
  8
0
  5
923
 10
113.766
 20
81.7321
 30
0.000000
  70
    32
  0
VERTEX
  8
0
  5
924
 10
113.727
 20
81.6870
 30
0.000000
  70
    32
  0
VERTEX
  8
0
  5
925
 10
113.689
 20
81.6420
 30
0.000000
  70
    32
  0
VERTEX
  8
0
  5
926
 10
113.650
 20
81.5969
 30
0.000000
  70
    32
  0
VERTEX
  8
0
  5
927
 10
113.611
 20
81.5519
 30
0.000000
  70
    32
  0
VERTEX
  8
0
  5
928
 10
113.572
 20
81.5069
 30
0.000000
  70
    32
  0
VERTEX
  8
0
  5
929
 10
113.534
 20
81.4619
 30
0.000000
  70
    32
  0
VERTEX
  8
0
  5
92A
 10
113.495
 20
81.4169
 30
0.000000
  70
    32
  0
VERTEX
  8
0
  5
92B
 10
113.457
 20
81.3720
 30
0.000000
  70
    32
  0
VERTEX
  8
0
  5
92C
 10
113.418
 20
81.3271
 30
0.000000
  70
    32
  0
VERTEX
  8
0
  5
92D
 10
113.380
 20
81.2821
 30
0.000000
  70
    32
  0
VERTEX
  8
0
  5
92E
 10
113.341
 20
81.2372
 30
0.000000
  70
    32
  0
VERTEX
  8
0
  5
92F
 10
113.303
 20
81.1924
 30
0.000000
  70
    32
  0
VERTEX
  8
0
  5
930
 10
113.264
 20
81.1475
 30
0.000000
  70
    32
  0
VERTEX
  8
0
  5
931
 10
113.226
 20
81.1027
 30
0.000000
  70
    32
  0
VERTEX
  8
0
  5
932
 10
113.188
 20
81.0578
 30
0.000000
  70
    32
  0
VERTEX
  8
0
  5
933
 10
113.149
 20
81.0130
 30
0.000000
  70
    32
  0
VERTEX
  8
0
  5
934
 10
113.111
 20
80.9682
 30
0.000000
  70
    32
  0
VERTEX
  8
0
  5
935
 10
113.073
 20
80.9235
 30
0.000000
  70
    32
  0
VERTEX
  8
0
  5
936
 10
113.035
 20
80.8787
 30
0.000000
  70
    32
  0
VERTEX
  8
0
  5
937
 10
112.997
 20
80.8340
 30
0.000000
  70
    32
  0
VERTEX
  8
0
  5
938
 10
112.959
 20
80.7893
 30
0.000000
  70
    32
  0
VERTEX
  8
0
  5
939
 10
112.920
 20
80.7446
 30
0.000000
  70
    32
  0
VERTEX
  8
0
  5
93A
 10
112.882
 20
80.6999
 30
0.000000
  70
    32
  0
VERTEX
  8
0
  5
93B
 10
112.844
 20
80.6553
 30
0.000000
  70
    32
  0
VERTEX
  8
0
  5
93C
 10
112.806
 20
80.6106
 30
0.000000
  70
    32
  0
VERTEX
  8
0
  5
93D
 10
112.769
 20
80.5660
 30
0.000000
  70
    32
  0
VERTEX
  8
0
  5
93E
 10
112.731
 20
80.5214
 30
0.000000
  70
    32
  0
VERTEX
  8
0
  5
93F
 10
112.693
 20
80.4769
 30
0.000000
  70
    32
  0
VERTEX
  8
0
  5
940
 10
112.655
 20
80.4323
 30
0.000000
  70
    32
  0
VERTEX
  8
0
  5
941
 10
112.617
 20
80.3878
 30
0.000000
  70
    32
  0
VERTEX
  8
0
  5
942
 10
112.579
 20
80.3433
 30
0.000000
  70
    32
  0
VERTEX
  8
0
  5
943
 10
112.542
 20
80.2988
 30
0.000000
  70
    32
  0
VERTEX
  8
0
  5
944
 10
112.504
 20
80.2543
 30
0.000000
  70
    32
  0
VERTEX
  8
0
  5
945
 10
112.466
 20
80.2099
 30
0.000000
  70
    32
  0
VERTEX
  8
0
  5
946
 10
112.429
 20
80.1654
 30
0.000000
  70
    32
  0
VERTEX
  8
0
  5
947
 10
112.391
 20
80.1210
 30
0.000000
  70
    32
  0
VERTEX
  8
0
  5
948
 10
112.354
 20
80.0766
 30
0.000000
  70
    32
  0
VERTEX
  8
0
  5
949
 10
112.316
 20
80.0322
 30
0.000000
  70
    32
  0
VERTEX
  8
0
  5
94A
 10
112.279
 20
79.9879
 30
0.000000
  70
    32
  0
VERTEX
  8
0
  5
94B
 10
112.241
 20
79.9436
 30
0.000000
  70
    32
  0
VERTEX
  8
0
  5
94C
 10
112.204
 20
79.8993
 30
0.000000
  70
    32
  0
VERTEX
  8
0
  5
94D
 10
112.166
 20
79.8550
 30
0.000000
  70
    32
  0
VERTEX
  8
0
  5
94E
 10
112.129
 20
79.8107
 30
0.000000
  70
    32
  0
VERTEX
  8
0
  5
94F
 10
112.092
 20
79.7665
 30
0.000000
  70
    32
  0
VERTEX
  8
0
  5
950
 10
112.055
 20
79.7223
 30
0.000000
  70
    32
  0
VERTEX
  8
0
  5
951
 10
112.017
 20
79.6781
 30
0.000000
  70
    32
  0
VERTEX
  8
0
  5
952
 10
111.980
 20
79.6339
 30
0.000000
  70
    32
  0
VERTEX
  8
0
  5
953
 10
111.943
 20
79.5897
 30
0.000000
  70
    32
  0
VERTEX
  8
0
  5
954
 10
111.906
 20
79.5456
 30
0.000000
  70
    32
  0
VERTEX
  8
0
  5
955
 10
111.869
 20
79.5015
 30
0.000000
  70
    32
  0
VERTEX
  8
0
  5
956
 10
111.832
 20
79.4574
 30
0.000000
  70
    32
  0
VERTEX
  8
0
  5
957
 10
111.795
 20
79.4133
 30
0.000000
  70
    32
  0
VERTEX
  8
0
  5
958
 10
111.758
 20
79.3693
 30
0.000000
  70
    32
  0
VERTEX
  8
0
  5
959
 10
111.721
 20
79.3252
 30
0.000000
  70
    32
  0
VERTEX
  8
0
  5
95A
 10
111.684
 20
79.2812
 30
0.000000
  70
    32
  0
VERTEX
  8
0
  5
95B
 10
111.647
 20
79.2373
 30
0.000000
  70
    32
  0
VERTEX
  8
0
  5
95C
 10
111.611
 20
79.1933
 30
0.000000
  70
    32
  0
VERTEX
  8
0
  5
95D
 10
111.574
 20
79.1494
 30
0.000000
  70
    32
  0
VERTEX
  8
0
  5
95E
 10
111.537
 20
79.1054
 30
0.000000
  70
    32
  0
VERTEX
  8
0
  5
95F
 10
111.500
 20
79.0616
 30
0.000000
  70
    32
  0
VERTEX
  8
0
  5
960
 10
111.464
 20
79.0177
 30
0.000000
  70
    32
  0
VERTEX
  8
0
  5
961
 10
111.427
 20
78.9738
 30
0.000000
  70
    32
  0
VERTEX
  8
0
  5
962
 10
111.391
 20
78.9300
 30
0.000000
  70
    32
  0
VERTEX
  8
0
  5
963
 10
111.354
 20
78.8862
 30
0.000000
  70
    32
  0
VERTEX
  8
0
  5
964
 10
111.318
 20
78.8425
 30
0.000000
  70
    32
  0
VERTEX
  8
0
  5
965
 10
111.281
 20
78.7987
 30
0.000000
  70
    32
  0
VERTEX
  8
0
  5
966
 10
111.245
 20
78.7550
 30
0.000000
  70
    32
  0
VERTEX
  8
0
  5
967
 10
111.208
 20
78.7113
 30
0.000000
  70
    32
  0
VERTEX
  8
0
  5
968
 10
111.172
 20
78.6676
 30
0.000000
  70
    32
  0
VERTEX
  8
0
  5
969
 10
111.136
 20
78.6239
 30
0.000000
  70
    32
  0
VERTEX
  8
0
  5
96A
 10
111.100
 20
78.5803
 30
0.000000
  70
    32
  0
VERTEX
  8
0
  5
96B
 10
111.063
 20
78.5367
 30
0.000000
  70
    32
  0
VERTEX
  8
0
  5
96C
 10
111.027
 20
78.4931
 30
0.000000
  70
    32
  0
VERTEX
  8
0
  5
96D
 10
110.991
 20
78.4495
 30
0.000000
  70
    32
  0
VERTEX
  8
0
  5
96E
 10
110.955
 20
78.4060
 30
0.000000
  70
    32
  0
VERTEX
  8
0
  5
96F
 10
110.919
 20
78.3625
 30
0.000000
  70
    32
  0
VERTEX
  8
0
  5
970
 10
110.883
 20
78.3190
 30
0.000000
  70
    32
  0
VERTEX
  8
0
  5
971
 10
110.847
 20
78.2755
 30
0.000000
  70
    32
  0
VERTEX
  8
0
  5
972
 10
110.811
 20
78.2321
 30
0.000000
  70
    32
  0
VERTEX
  8
0
  5
973
 10
110.775
 20
78.1887
 30
0.000000
  70
    32
  0
VERTEX
  8
0
  5
974
 10
110.739
 20
78.1453
 30
0.000000
  70
    32
  0
VERTEX
  8
0
  5
975
 10
110.703
 20
78.1019
 30
0.000000
  70
    32
  0
VERTEX
  8
0
  5
976
 10
110.668
 20
78.0586
 30
0.000000
  70
    32
  0
VERTEX
  8
0
  5
977
 10
110.632
 20
78.0153
 30
0.000000
  70
    32
  0
VERTEX
  8
0
  5
978
 10
110.596
 20
77.9720
 30
0.000000
  70
    32
  0
VERTEX
  8
0
  5
979
 10
110.561
 20
77.9287
 30
0.000000
  70
    32
  0
VERTEX
  8
0
  5
97A
 10
110.525
 20
77.8855
 30
0.000000
  70
    32
  0
VERTEX
  8
0
  5
97B
 10
110.489
 20
77.8423
 30
0.000000
  70
    32
  0
VERTEX
  8
0
  5
97C
 10
110.454
 20
77.7991
 30
0.000000
  70
    32
  0
VERTEX
  8
0
  5
97D
 10
110.418
 20
77.7559
 30
0.000000
  70
    32
  0
VERTEX
  8
0
  5
97E
 10
110.383
 20
77.7128
 30
0.000000
  70
    32
  0
VERTEX
  8
0
  5
97F
 10
110.347
 20
77.6697
 30
0.000000
  70
    32
  0
VERTEX
  8
0
  5
980
 10
110.312
 20
77.6266
 30
0.000000
  70
    32
  0
VERTEX
  8
0
  5
981
 10
110.277
 20
77.5835
 30
0.000000
  70
    32
  0
VERTEX
  8
0
  5
982
 10
110.241
 20
77.5405
 30
0.000000
  70
    32
  0
VERTEX
  8
0
  5
983
 10
110.206
 20
77.4975
 30
0.000000
  70
    32
  0
VERTEX
  8
0
  5
984
 10
110.171
 20
77.4545
 30
0.000000
  70
    32
  0
VERTEX
  8
0
  5
985
 10
110.136
 20
77.4115
 30
0.000000
  70
    32
  0
VERTEX
  8
0
  5
986
 10
110.101
 20
77.3686
 30
0.000000
  70
    32
  0
VERTEX
  8
0
  5
987
 10
110.066
 20
77.3257
 30
0.000000
  70
    32
  0
VERTEX
  8
0
  5
988
 10
110.030
 20
77.2828
 30
0.000000
  70
    32
  0
VERTEX
  8
0
  5
989
 10
109.995
 20
77.2399
 30
0.000000
  70
    32
  0
VERTEX
  8
0
  5
98A
 10
109.961
 20
77.1971
 30
0.000000
  70
    32
  0
VERTEX
  8
0
  5
98B
 10
109.926
 20
77.1543
 30
0.000000
  70
    32
  0
VERTEX
  8
0
  5
98C
 10
109.891
 20
77.1116
 30
0.000000
  70
    32
  0
VERTEX
  8
0
  5
98D
 10
109.856
 20
77.0688
 30
0.000000
  70
    32
  0
VERTEX
  8
0
  5
98E
 10
109.821
 20
77.0261
 30
0.000000
  70
    32
  0
SEQEND
  8
0
  5
98F
  0
LINE
  5
331
  8
0
 10
119.14203578119989
 20
82.682569250600011
 30
0.0
 11
114.5884898321
 21
82.682569250600011
 31
0.0
  0
LINE
  5
332
  8
0
 10
119.14203578119989
 20
72.585608135399994
 30
0.0
 11
119.14203578119989
 21
82.682569250600011
 31
0.0
  0
ARC
  5
333
  8
0
 10
136.3094422442
 20
151.1773089365
 30
0.0
 40
80.444858626788715
 50
257.67797897340267
 51
270.25337276039852
  0
ARC
  5
334
  8
0
 10
137.1613689756999
 20
225.46100244089999
 30
0.0
 40
154.72856114160481
 50
269.8162628462008
 51
278.87654705309728
  0
LINE
  5
335
  8
0
 10
161.5
 20
72.585608135399994
 30
0.0
 11
161.03690978360001
 21
72.585608135399994
 31
0.0
  0
ARC
  5
336
  8
0
 10
116.70120229619999
 20
84.4364071615
 30
0.0
 40
13.70320663740671
 50
239.86209018849959
 51
269.86800295149828
  0
LINE
  5
337
  8
0
 10
141.5
 20
70.688837406299996
 30
0.0
 11
118.5
 21
70.688837406299996
 31
0.0
  0
ARC
  5
339
  8
0
 10
139.1973601627999
 20
-1.677692537700004
 30
0.0
 40
86.711416809113018
 50
85.175334915798246
 51
103.3729232002965
  0
ARC
  5
33A
  8
0
 10
135.04105743145541
 20
33.030969929438598
 30
0.0
 40
53.69905806020013
 50
105.7004981154185
 51
112.3878221514329
  0
ARC
  5
33C
  8
0
 10
117.6625078047999
 20
70.645674527500006
 30
0.0
 40
14.36576574785591
 50
78.569027581200601
 51
123.0822934580998
  0
ARC
  5
33D
  8
0
 10
130.4001590025
 20
-89.439626461900005
 30
0.0
 40
174.90883514426011
 50
79.758809756200321
 51
84.78618987889763
  0
LINE
  5
33E
  8
0
 10
146.49038105679989
 20
84.726483584100009
 30
0.0
 11
146.2945827028
 21
84.745527632099993
 31
0.0
  0
LINE
  5
341
  8
0
 10
136.66518344589991
 20
76.918301604699991
 30
0.0
 11
146.4903810567782
 21
84.726483584080839
 31
0.0
  0
LINE
  5
342
  8
0
 10
136.66518344589991
 20
70.7332368884
 30
0.0
 11
136.66518344589991
 21
76.918301604699991
 31
0.0
  0
POLYLINE
  5
344
  8
0
 10
161.03690978308313
 20
77.0260908334769
 30
0.0
 66
     1
 70
     8
  0
VERTEX
  8
0
  5
990
 10
161.037
 20
77.0261
 30
0.000000
  70
    32
  0
VERTEX
  8
0
  5
991
 10
161.045
 20
77.0688
 30
0.000000
  70
    32
  0
VERTEX
  8
0
  5
992
 10
161.052
 20
77.1116
 30
0.000000
  70
    32
  0
VERTEX
  8
0
  5
993
 10
161.060
 20
77.1543
 30
0.000000
  70
    32
  0
VERTEX
  8
0
  5
994
 10
161.067
 20
77.1971
 30
0.000000
  70
    32
  0
VERTEX
  8
0
  5
995
 10
161.075
 20
77.2399
 30
0.000000
  70
    32
  0
VERTEX
  8
0
  5
996
 10
161.082
 20
77.2828
 30
0.000000
  70
    32
  0
VERTEX
  8
0
  5
997
 10
161.090
 20
77.3257
 30
0.000000
  70
    32
  0
VERTEX
  8
0
  5
998
 10
161.097
 20
77.3686
 30
0.000000
  70
    32
  0
VERTEX
  8
0
  5
999
 10
161.104
 20
77.4115
 30
0.000000
  70
    32
  0
VERTEX
  8
0
  5
99A
 10
161.111
 20
77.4545
 30
0.000000
  70
    32
  0
VERTEX
  8
0
  5
99B
 10
161.118
 20
77.4975
 30
0.000000
  70
    32
  0
VERTEX
  8
0
  5
99C
 10
161.125
 20
77.5405
 30
0.000000
  70
    32
  0
VERTEX
  8
0
  5
99D
 10
161.132
 20
77.5835
 30
0.000000
  70
    32
  0
VERTEX
  8
0
  5
99E
 10
161.139
 20
77.6266
 30
0.000000
  70
    32
  0
VERTEX
  8
0
  5
99F
 10
161.146
 20
77.6697
 30
0.000000
  70
    32
  0
VERTEX
  8
0
  5
9A0
 10
161.152
 20
77.7128
 30
0.000000
  70
    32
  0
VERTEX
  8
0
  5
9A1
 10
161.159
 20
77.7559
 30
0.000000
  70
    32
  0
VERTEX
  8
0
  5
9A2
 10
161.166
 20
77.7991
 30
0.000000
  70
    32
  0
VERTEX
  8
0
  5
9A3
 10
161.172
 20
77.8423
 30
0.000000
  70
    32
  0
VERTEX
  8
0
  5
9A4
 10
161.179
 20
77.8855
 30
0.000000
  70
    32
  0
VERTEX
  8
0
  5
9A5
 10
161.185
 20
77.9287
 30
0.000000
  70
    32
  0
VERTEX
  8
0
  5
9A6
 10
161.192
 20
77.9720
 30
0.000000
  70
    32
  0
VERTEX
  8
0
  5
9A7
 10
161.198
 20
78.0153
 30
0.000000
  70
    32
  0
VERTEX
  8
0
  5
9A8
 10
161.204
 20
78.0586
 30
0.000000
  70
    32
  0
VERTEX
  8
0
  5
9A9
 10
161.210
 20
78.1019
 30
0.000000
  70
    32
  0
VERTEX
  8
0
  5
9AA
 10
161.216
 20
78.1453
 30
0.000000
  70
    32
  0
VERTEX
  8
0
  5
9AB
 10
161.222
 20
78.1887
 30
0.000000
  70
    32
  0
VERTEX
  8
0
  5
9AC
 10
161.228
 20
78.2321
 30
0.000000
  70
    32
  0
VERTEX
  8
0
  5
9AD
 10
161.234
 20
78.2755
 30
0.000000
  70
    32
  0
VERTEX
  8
0
  5
9AE
 10
161.240
 20
78.3190
 30
0.000000
  70
    32
  0
VERTEX
  8
0
  5
9AF
 10
161.246
 20
78.3625
 30
0.000000
  70
    32
  0
VERTEX
  8
0
  5
9B0
 10
161.252
 20
78.4060
 30
0.000000
  70
    32
  0
VERTEX
  8
0
  5
9B1
 10
161.257
 20
78.4495
 30
0.000000
  70
    32
  0
VERTEX
  8
0
  5
9B2
 10
161.263
 20
78.4931
 30
0.000000
  70
    32
  0
VERTEX
  8
0
  5
9B3
 10
161.268
 20
78.5367
 30
0.000000
  70
    32
  0
VERTEX
  8
0
  5
9B4
 10
161.274
 20
78.5803
 30
0.000000
  70
    32
  0
VERTEX
  8
0
  5
9B5
 10
161.279
 20
78.6239
 30
0.000000
  70
    32
  0
VERTEX
  8
0
  5
9B6
 10
161.284
 20
78.6676
 30
0.000000
  70
    32
  0
VERTEX
  8
0
  5
9B7
 10
161.290
 20
78.7113
 30
0.000000
  70
    32
  0
VERTEX
  8
0
  5
9B8
 10
161.295
 20
78.7550
 30
0.000000
  70
    32
  0
VERTEX
  8
0
  5
9B9
 10
161.300
 20
78.7987
 30
0.000000
  70
    32
  0
VERTEX
  8
0
  5
9BA
 10
161.305
 20
78.8425
 30
0.000000
  70
    32
  0
VERTEX
  8
0
  5
9BB
 10
161.310
 20
78.8862
 30
0.000000
  70
    32
  0
VERTEX
  8
0
  5
9BC
 10
161.315
 20
78.9300
 30
0.000000
  70
    32
  0
VERTEX
  8
0
  5
9BD
 10
161.320
 20
78.9738
 30
0.000000
  70
    32
  0
VERTEX
  8
0
  5
9BE
 10
161.325
 20
79.0177
 30
0.000000
  70
    32
  0
VERTEX
  8
0
  5
9BF
 10
161.329
 20
79.0616
 30
0.000000
  70
    32
  0
VERTEX
  8
0
  5
9C0
 10
161.334
 20
79.1054
 30
0.000000
  70
    32
  0
VERTEX
  8
0
  5
9C1
 10
161.339
 20
79.1494
 30
0.000000
  70
    32
  0
VERTEX
  8
0
  5
9C2
 10
161.343
 20
79.1933
 30
0.000000
  70
    32
  0
VERTEX
  8
0
  5
9C3
 10
161.348
 20
79.2373
 30
0.000000
  70
    32
  0
VERTEX
  8
0
  5
9C4
 10
161.352
 20
79.2812
 30
0.000000
  70
    32
  0
VERTEX
  8
0
  5
9C5
 10
161.357
 20
79.3252
 30
0.000000
  70
    32
  0
VERTEX
  8
0
  5
9C6
 10
161.361
 20
79.3693
 30
0.000000
  70
    32
  0
VERTEX
  8
0
  5
9C7
 10
161.365
 20
79.4133
 30
0.000000
  70
    32
  0
VERTEX
  8
0
  5
9C8
 10
161.369
 20
79.4574
 30
0.000000
  70
    32
  0
VERTEX
  8
0
  5
9C9
 10
161.373
 20
79.5015
 30
0.000000
  70
    32
  0
VERTEX
  8
0
  5
9CA
 10
161.377
 20
79.5456
 30
0.000000
  70
    32
  0
VERTEX
  8
0
  5
9CB
 10
161.381
 20
79.5897
 30
0.000000
  70
    32
  0
VERTEX
  8
0
  5
9CC
 10
161.385
 20
79.6339
 30
0.000000
  70
    32
  0
VERTEX
  8
0
  5
9CD
 10
161.389
 20
79.6781
 30
0.000000
  70
    32
  0
VERTEX
  8
0
  5
9CE
 10
161.393
 20
79.7223
 30
0.000000
  70
    32
  0
VERTEX
  8
0
  5
9CF
 10
161.396
 20
79.7665
 30
0.000000
  70
    32
  0
VERTEX
  8
0
  5
9D0
 10
161.400
 20
79.8107
 30
0.000000
  70
    32
  0
VERTEX
  8
0
  5
9D1
 10
161.404
 20
79.8550
 30
0.000000
  70
    32
  0
VERTEX
  8
0
  5
9D2
 10
161.407
 20
79.8993
 30
0.000000
  70
    32
  0
VERTEX
  8
0
  5
9D3
 10
161.411
 20
79.9436
 30
0.000000
  70
    32
  0
VERTEX
  8
0
  5
9D4
 10
161.414
 20
79.9879
 30
0.000000
  70
    32
  0
VERTEX
  8
0
  5
9D5
 10
161.417
 20
80.0322
 30
0.000000
  70
    32
  0
VERTEX
  8
0
  5
9D6
 10
161.421
 20
80.0766
 30
0.000000
  70
    32
  0
VERTEX
  8
0
  5
9D7
 10
161.424
 20
80.1210
 30
0.000000
  70
    32
  0
VERTEX
  8
0
  5
9D8
 10
161.427
 20
80.1654
 30
0.000000
  70
    32
  0
VERTEX
  8
0
  5
9D9
 10
161.430
 20
80.2099
 30
0.000000
  70
    32
  0
VERTEX
  8
0
  5
9DA
 10
161.433
 20
80.2543
 30
0.000000
  70
    32
  0
VERTEX
  8
0
  5
9DB
 10
161.436
 20
80.2988
 30
0.000000
  70
    32
  0
VERTEX
  8
0
  5
9DC
 10
161.439
 20
80.3433
 30
0.000000
  70
    32
  0
VERTEX
  8
0
  5
9DD
 10
161.441
 20
80.3878
 30
0.000000
  70
    32
  0
VERTEX
  8
0
  5
9DE
 10
161.444
 20
80.4323
 30
0.000000
  70
    32
  0
VERTEX
  8
0
  5
9DF
 10
161.447
 20
80.4769
 30
0.000000
  70
    32
  0
VERTEX
  8
0
  5
9E0
 10
161.449
 20
80.5214
 30
0.000000
  70
    32
  0
VERTEX
  8
0
  5
9E1
 10
161.452
 20
80.5660
 30
0.000000
  70
    32
  0
VERTEX
  8
0
  5
9E2
 10
161.454
 20
80.6106
 30
0.000000
  70
    32
  0
VERTEX
  8
0
  5
9E3
 10
161.457
 20
80.6553
 30
0.000000
  70
    32
  0
VERTEX
  8
0
  5
9E4
 10
161.459
 20
80.6999
 30
0.000000
  70
    32
  0
VERTEX
  8
0
  5
9E5
 10
161.461
 20
80.7446
 30
0.000000
  70
    32
  0
VERTEX
  8
0
  5
9E6
 10
161.464
 20
80.7893
 30
0.000000
  70
    32
  0
VERTEX
  8
0
  5
9E7
 10
161.466
 20
80.8340
 30
0.000000
  70
    32
  0
VERTEX
  8
0
  5
9E8
 10
161.468
 20
80.8787
 30
0.000000
  70
    32
  0
VERTEX
  8
0
  5
9E9
 10
161.470
 20
80.9235
 30
0.000000
  70
    32
  0
VERTEX
  8
0
  5
9EA
 10
161.472
 20
80.9682
 30
0.000000
  70
    32
  0
VERTEX
  8
0
  5
9EB
 10
161.474
 20
81.0130
 30
0.000000
  70
    32
  0
VERTEX
  8
0
  5
9EC
 10
161.476
 20
81.0578
 30
0.000000
  70
    32
  0
VERTEX
  8
0
  5
9ED
 10
161.477
 20
81.1027
 30
0.000000
  70
    32
  0
VERTEX
  8
0
  5
9EE
 10
161.479
 20
81.1475
 30
0.000000
  70
    32
  0
VERTEX
  8
0
  5
9EF
 10
161.481
 20
81.1924
 30
0.000000
  70
    32
  0
VERTEX
  8
0
  5
9F0
 10
161.482
 20
81.2372
 30
0.000000
  70
    32
  0
VERTEX
  8
0
  5
9F1
 10
161.484
 20
81.2821
 30
0.000000
  70
    32
  0
VERTEX
  8
0
  5
9F2
 10
161.485
 20
81.3271
 30
0.000000
  70
    32
  0
VERTEX
  8
0
  5
9F3
 10
161.486
 20
81.3720
 30
0.000000
  70
    32
  0
VERTEX
  8
0
  5
9F4
 10
161.488
 20
81.4169
 30
0.000000
  70
    32
  0
VERTEX
  8
0
  5
9F5
 10
161.489
 20
81.4619
 30
0.000000
  70
    32
  0
VERTEX
  8
0
  5
9F6
 10
161.490
 20
81.5069
 30
0.000000
  70
    32
  0
VERTEX
  8
0
  5
9F7
 10
161.491
 20
81.5519
 30
0.000000
  70
    32
  0
VERTEX
  8
0
  5
9F8
 10
161.492
 20
81.5969
 30
0.000000
  70
    32
  0
VERTEX
  8
0
  5
9F9
 10
161.493
 20
81.6420
 30
0.000000
  70
    32
  0
VERTEX
  8
0
  5
9FA
 10
161.494
 20
81.6870
 30
0.000000
  70
    32
  0
VERTEX
  8
0
  5
9FB
 10
161.495
 20
81.7321
 30
0.000000
  70
    32
  0
VERTEX
  8
0
  5
9FC
 10
161.496
 20
81.7772
 30
0.000000
  70
    32
  0
VERTEX
  8
0
  5
9FD
 10
161.496
 20
81.8223
 30
0.000000
  70
    32
  0
VERTEX
  8
0
  5
9FE
 10
161.497
 20
81.8674
 30
0.000000
  70
    32
  0
VERTEX
  8
0
  5
9FF
 10
161.498
 20
81.9126
 30
0.000000
  70
    32
  0
VERTEX
  8
0
  5
A00
 10
161.498
 20
81.9577
 30
0.000000
  70
    32
  0
VERTEX
  8
0
  5
A01
 10
161.499
 20
82.0029
 30
0.000000
  70
    32
  0
VERTEX
  8
0
  5
A02
 10
161.499
 20
82.0481
 30
0.000000
  70
    32
  0
VERTEX
  8
0
  5
A03
 10
161.499
 20
82.0933
 30
0.000000
  70
    32
  0
VERTEX
  8
0
  5
A04
 10
161.500
 20
82.1386
 30
0.000000
  70
    32
  0
VERTEX
  8
0
  5
A05
 10
161.500
 20
82.1838
 30
0.000000
  70
    32
  0
VERTEX
  8
0
  5
A06
 10
161.500
 20
82.2291
 30
0.000000
  70
    32
  0
VERTEX
  8
0
  5
A07
 10
161.500
 20
82.2743
 30
0.000000
  70
    32
  0
VERTEX
  8
0
  5
A08
 10
161.500
 20
82.3196
 30
0.000000
  70
    32
  0
VERTEX
  8
0
  5
A09
 10
161.500
 20
82.3650
 30
0.000000
  70
    32
  0
VERTEX
  8
0
  5
A0A
 10
161.500
 20
82.4103
 30
0.000000
  70
    32
  0
VERTEX
  8
0
  5
A0B
 10
161.500
 20
82.4556
 30
0.000000
  70
    32
  0
VERTEX
  8
0
  5
A0C
 10
161.499
 20
82.5010
 30
0.000000
  70
    32
  0
VERTEX
  8
0
  5
A0D
 10
161.499
 20
82.5464
 30
0.000000
  70
    32
  0
VERTEX
  8
0
  5
A0E
 10
161.499
 20
82.5917
 30
0.000000
  70
    32
  0
VERTEX
  8
0
  5
A0F
 10
161.498
 20
82.6371
 30
0.000000
  70
    32
  0
VERTEX
  8
0
  5
A10
 10
161.498
 20
82.6826
 30
0.000000
  70
    32
  0
SEQEND
  8
0
  5
A11
  0
LINE
  5
345
  8
0
 10
161.03690978360001
 20
77.026090834000001
 30
0.0
 11
136.66518344589991
 21
76.918301604699991
 31
0.0
  0
LINE
  5
346
  8
0
 10
161.03690978360001
 20
72.585608135399994
 30
0.0
 11
161.03690978360001
 21
77.026090834000001
 31
0.0
  0
LINE
  5
348
  8
0
 10
118.5
 20
55.299999999999997
 30
0.0
 11
141.5
 21
55.299999999999997
 31
0.0
  0
LINE
  5
349
  8
0
 10
109.8210544351999
 20
82.682569250600011
 30
0.0
 11
109.8210544351999
 21
77.026090834000001
 31
0.0
  0
LINE
  5
34A
  8
0
 10
134.5
 20
85.271684146100014
 30
0.0
 11
121.0000000426999
 21
85.271684146100014
 31
0.0
  0
LINE
  5
34B
  8
0
 10
138.9999999522999
 20
85.271684146100014
 30
0.0
 11
134.5
 21
85.271684146100014
 31
0.0
  0
LINE
  5
34D
  8
0
 10
124.39999999999991
 20
55.0
 30
0.0
 11
135.59999999999991
 21
55.0
 31
0.0
  0
ARC
  5
34E
  8
0
 10
209.10296932064281
 20
-78.69117441580002
 30
0.0
 40
164.1629589723222
 50
92.829229371279325
 51
95.66994417823993
  0
POLYLINE
  5
34F
  8
0
 66
     1
 10
0.0
 20
0.0
 30
0.0
 70
   128
  0
VERTEX
  5
90A
  8
0
 10
223.2292346515076
 20
84.979535284299914
 30
0.0
  0
VERTEX
  5
90B
  8
0
 10
220.10216330015001
 20
85.212291608499982
 30
0.0
  0
VERTEX
  5
90C
  8
0
 10
219.00000002384991
 20
85.271684146100014
 30
0.0
  0
SEQEND
  5
90D
  8
0
  0
LINE
  5
351
  8
0
 10
198.50000002384991
 20
70.688837406299996
 30
0.0
 11
198.50000002384991
 21
55.299999999999997
 31
0.0
  0
LINE
  5
352
  8
0
 10
221.50000002384991
 20
55.299999999999997
 30
0.0
 11
221.50000002384991
 21
70.688837406299996
 31
0.0
  0
ARC
  5
353
  8
0
 10
210.00000004440059
 20
-81.670799415786718
 30
0.0
 40
167.18490606942029
 50
86.914126924615502
 51
93.085873075384498
  0
LINE
  5
356
  8
0
 10
204.40000002385
 20
55.299999999999997
 30
0.0
 11
204.40000002385
 21
55.0
 31
0.0
  0
LINE
  5
357
  8
0
 10
215.6000000238499
 20
55.0
 30
0.0
 11
215.6000000238499
 21
55.299999999999997
 31
0.0
  0
ARC
  5
358
  8
0
 10
201.06018383655001
 20
-6.6376747199999988
 30
0.0
 40
91.671638671885276
 50
85.30592208130146
 51
103.0051572659037
  0
ARC
  5
359
  8
0
 10
209.3932480993218
 20
-44.27312434251926
 30
0.0
 40
129.9402537739584
 50
77.696158346125713
 51
83.101714174225847
  0
ARC
  5
35A
  8
0
 10
222.43871812575
 20
73.12566561860001
 30
0.0
 40
11.88019959549907
 50
77.549709874697896
 51
126.4438258816019
  0
LINE
  5
35B
  8
0
 10
215.38147111305
 20
82.682569250600011
 30
0.0
 11
210.38946430035
 21
82.682569250600011
 31
0.0
  0
ARC
  5
35C
  8
0
 10
207.1384819248708
 20
81.614914299613787
 30
0.0
 40
3.4218085130632878
 50
18.180694642508652
 51
65.413575993829539
  0
ARC
  5
360
  8
0
 10
198.7183561415207
 20
159.7864000200349
 30
0.0
 40
89.097830181786861
 50
258.15552784825269
 51
269.85958247836641
  0
ARC
  5
361
  8
0
 10
198.38791414654989
 20
82.136799615999976
 30
0.0
 40
11.403763384834789
 50
270.33989253010202
 51
303.11797803689768
  0
LINE
  5
362
  8
0
 10
215.38147111305
 20
72.585608135399994
 30
0.0
 11
204.6185289346499
 21
72.585608135399994
 31
0.0
  0
ARC
  5
363
  8
0
 10
221.60774065814999
 20
82.122342696599986
 30
0.0
 40
11.38928173938025
 50
236.8605942782028
 51
269.68153515480088
  0
ARC
  5
364
  8
0
 10
221.24238176078299
 20
160.16042881122581
 30
0.0
 40
89.471962288190923
 50
270.164973017433
 51
281.81991665572838
  0
LINE
  5
366
  8
0
 10
221.50000002384991
 20
70.688837406299996
 30
0.0
 11
198.50000002384991
 21
70.688837406299996
 31
0.0
  0
LINE
  5
367
  8
0
 10
204.6185289346499
 20
72.585608135399994
 30
0.0
 11
204.6185289346499
 21
77.026090834000001
 31
0.0
  0
POLYLINE
  5
368
  8
0
 10
204.61852893564509
 20
77.026090832978326
 30
0.0
 66
     1
 70
     8
  0
VERTEX
  8
0
  5
A12
 10
204.619
 20
77.0261
 30
0.000000
  70
    32
  0
VERTEX
  8
0
  5
A13
 10
204.663
 20
77.0688
 30
0.000000
  70
    32
  0
VERTEX
  8
0
  5
A14
 10
204.708
 20
77.1116
 30
0.000000
  70
    32
  0
VERTEX
  8
0
  5
A15
 10
204.752
 20
77.1543
 30
0.000000
  70
    32
  0
VERTEX
  8
0
  5
A16
 10
204.797
 20
77.1971
 30
0.000000
  70
    32
  0
VERTEX
  8
0
  5
A17
 10
204.842
 20
77.2399
 30
0.000000
  70
    32
  0
VERTEX
  8
0
  5
A18
 10
204.886
 20
77.2828
 30
0.000000
  70
    32
  0
VERTEX
  8
0
  5
A19
 10
204.931
 20
77.3257
 30
0.000000
  70
    32
  0
VERTEX
  8
0
  5
A1A
 10
204.976
 20
77.3686
 30
0.000000
  70
    32
  0
VERTEX
  8
0
  5
A1B
 10
205.021
 20
77.4115
 30
0.000000
  70
    32
  0
VERTEX
  8
0
  5
A1C
 10
205.065
 20
77.4545
 30
0.000000
  70
    32
  0
VERTEX
  8
0
  5
A1D
 10
205.110
 20
77.4975
 30
0.000000
  70
    32
  0
VERTEX
  8
0
  5
A1E
 10
205.155
 20
77.5405
 30
0.000000
  70
    32
  0
VERTEX
  8
0
  5
A1F
 10
205.200
 20
77.5835
 30
0.000000
  70
    32
  0
VERTEX
  8
0
  5
A20
 10
205.244
 20
77.6266
 30
0.000000
  70
    32
  0
VERTEX
  8
0
  5
A21
 10
205.289
 20
77.6697
 30
0.000000
  70
    32
  0
VERTEX
  8
0
  5
A22
 10
205.334
 20
77.7128
 30
0.000000
  70
    32
  0
VERTEX
  8
0
  5
A23
 10
205.379
 20
77.7559
 30
0.000000
  70
    32
  0
VERTEX
  8
0
  5
A24
 10
205.424
 20
77.7991
 30
0.000000
  70
    32
  0
VERTEX
  8
0
  5
A25
 10
205.468
 20
77.8423
 30
0.000000
  70
    32
  0
VERTEX
  8
0
  5
A26
 10
205.513
 20
77.8855
 30
0.000000
  70
    32
  0
VERTEX
  8
0
  5
A27
 10
205.558
 20
77.9287
 30
0.000000
  70
    32
  0
VERTEX
  8
0
  5
A28
 10
205.603
 20
77.9720
 30
0.000000
  70
    32
  0
VERTEX
  8
0
  5
A29
 10
205.648
 20
78.0153
 30
0.000000
  70
    32
  0
VERTEX
  8
0
  5
A2A
 10
205.693
 20
78.0586
 30
0.000000
  70
    32
  0
VERTEX
  8
0
  5
A2B
 10
205.737
 20
78.1019
 30
0.000000
  70
    32
  0
VERTEX
  8
0
  5
A2C
 10
205.782
 20
78.1453
 30
0.000000
  70
    32
  0
VERTEX
  8
0
  5
A2D
 10
205.827
 20
78.1887
 30
0.000000
  70
    32
  0
VERTEX
  8
0
  5
A2E
 10
205.872
 20
78.2321
 30
0.000000
  70
    32
  0
VERTEX
  8
0
  5
A2F
 10
205.917
 20
78.2755
 30
0.000000
  70
    32
  0
VERTEX
  8
0
  5
A30
 10
205.962
 20
78.3190
 30
0.000000
  70
    32
  0
VERTEX
  8
0
  5
A31
 10
206.007
 20
78.3625
 30
0.000000
  70
    32
  0
VERTEX
  8
0
  5
A32
 10
206.052
 20
78.4060
 30
0.000000
  70
    32
  0
VERTEX
  8
0
  5
A33
 10
206.097
 20
78.4495
 30
0.000000
  70
    32
  0
VERTEX
  8
0
  5
A34
 10
206.142
 20
78.4931
 30
0.000000
  70
    32
  0
VERTEX
  8
0
  5
A35
 10
206.187
 20
78.5367
 30
0.000000
  70
    32
  0
VERTEX
  8
0
  5
A36
 10
206.232
 20
78.5803
 30
0.000000
  70
    32
  0
VERTEX
  8
0
  5
A37
 10
206.277
 20
78.6239
 30
0.000000
  70
    32
  0
VERTEX
  8
0
  5
A38
 10
206.322
 20
78.6676
 30
0.000000
  70
    32
  0
VERTEX
  8
0
  5
A39
 10
206.367
 20
78.7113
 30
0.000000
  70
    32
  0
VERTEX
  8
0
  5
A3A
 10
206.412
 20
78.7550
 30
0.000000
  70
    32
  0
VERTEX
  8
0
  5
A3B
 10
206.457
 20
78.7987
 30
0.000000
  70
    32
  0
VERTEX
  8
0
  5
A3C
 10
206.502
 20
78.8425
 30
0.000000
  70
    32
  0
VERTEX
  8
0
  5
A3D
 10
206.547
 20
78.8862
 30
0.000000
  70
    32
  0
VERTEX
  8
0
  5
A3E
 10
206.592
 20
78.9300
 30
0.000000
  70
    32
  0
VERTEX
  8
0
  5
A3F
 10
206.637
 20
78.9738
 30
0.000000
  70
    32
  0
VERTEX
  8
0
  5
A40
 10
206.682
 20
79.0177
 30
0.000000
  70
    32
  0
VERTEX
  8
0
  5
A41
 10
206.727
 20
79.0616
 30
0.000000
  70
    32
  0
VERTEX
  8
0
  5
A42
 10
206.772
 20
79.1054
 30
0.000000
  70
    32
  0
VERTEX
  8
0
  5
A43
 10
206.817
 20
79.1494
 30
0.000000
  70
    32
  0
VERTEX
  8
0
  5
A44
 10
206.862
 20
79.1933
 30
0.000000
  70
    32
  0
VERTEX
  8
0
  5
A45
 10
206.907
 20
79.2373
 30
0.000000
  70
    32
  0
VERTEX
  8
0
  5
A46
 10
206.952
 20
79.2812
 30
0.000000
  70
    32
  0
VERTEX
  8
0
  5
A47
 10
206.997
 20
79.3252
 30
0.000000
  70
    32
  0
VERTEX
  8
0
  5
A48
 10
207.042
 20
79.3693
 30
0.000000
  70
    32
  0
VERTEX
  8
0
  5
A49
 10
207.087
 20
79.4133
 30
0.000000
  70
    32
  0
VERTEX
  8
0
  5
A4A
 10
207.132
 20
79.4574
 30
0.000000
  70
    32
  0
VERTEX
  8
0
  5
A4B
 10
207.177
 20
79.5015
 30
0.000000
  70
    32
  0
VERTEX
  8
0
  5
A4C
 10
207.223
 20
79.5456
 30
0.000000
  70
    32
  0
VERTEX
  8
0
  5
A4D
 10
207.268
 20
79.5897
 30
0.000000
  70
    32
  0
VERTEX
  8
0
  5
A4E
 10
207.313
 20
79.6339
 30
0.000000
  70
    32
  0
VERTEX
  8
0
  5
A4F
 10
207.358
 20
79.6781
 30
0.000000
  70
    32
  0
VERTEX
  8
0
  5
A50
 10
207.403
 20
79.7223
 30
0.000000
  70
    32
  0
VERTEX
  8
0
  5
A51
 10
207.448
 20
79.7665
 30
0.000000
  70
    32
  0
VERTEX
  8
0
  5
A52
 10
207.493
 20
79.8107
 30
0.000000
  70
    32
  0
VERTEX
  8
0
  5
A53
 10
207.539
 20
79.8550
 30
0.000000
  70
    32
  0
VERTEX
  8
0
  5
A54
 10
207.584
 20
79.8993
 30
0.000000
  70
    32
  0
VERTEX
  8
0
  5
A55
 10
207.629
 20
79.9436
 30
0.000000
  70
    32
  0
VERTEX
  8
0
  5
A56
 10
207.674
 20
79.9879
 30
0.000000
  70
    32
  0
VERTEX
  8
0
  5
A57
 10
207.719
 20
80.0322
 30
0.000000
  70
    32
  0
VERTEX
  8
0
  5
A58
 10
207.764
 20
80.0766
 30
0.000000
  70
    32
  0
VERTEX
  8
0
  5
A59
 10
207.810
 20
80.1210
 30
0.000000
  70
    32
  0
VERTEX
  8
0
  5
A5A
 10
207.855
 20
80.1654
 30
0.000000
  70
    32
  0
VERTEX
  8
0
  5
A5B
 10
207.900
 20
80.2099
 30
0.000000
  70
    32
  0
VERTEX
  8
0
  5
A5C
 10
207.945
 20
80.2543
 30
0.000000
  70
    32
  0
VERTEX
  8
0
  5
A5D
 10
207.990
 20
80.2988
 30
0.000000
  70
    32
  0
VERTEX
  8
0
  5
A5E
 10
208.036
 20
80.3433
 30
0.000000
  70
    32
  0
VERTEX
  8
0
  5
A5F
 10
208.081
 20
80.3878
 30
0.000000
  70
    32
  0
VERTEX
  8
0
  5
A60
 10
208.126
 20
80.4323
 30
0.000000
  70
    32
  0
VERTEX
  8
0
  5
A61
 10
208.171
 20
80.4769
 30
0.000000
  70
    32
  0
VERTEX
  8
0
  5
A62
 10
208.216
 20
80.5214
 30
0.000000
  70
    32
  0
VERTEX
  8
0
  5
A63
 10
208.262
 20
80.5660
 30
0.000000
  70
    32
  0
VERTEX
  8
0
  5
A64
 10
208.307
 20
80.6106
 30
0.000000
  70
    32
  0
VERTEX
  8
0
  5
A65
 10
208.352
 20
80.6553
 30
0.000000
  70
    32
  0
VERTEX
  8
0
  5
A66
 10
208.397
 20
80.6999
 30
0.000000
  70
    32
  0
VERTEX
  8
0
  5
A67
 10
208.443
 20
80.7446
 30
0.000000
  70
    32
  0
VERTEX
  8
0
  5
A68
 10
208.488
 20
80.7893
 30
0.000000
  70
    32
  0
VERTEX
  8
0
  5
A69
 10
208.533
 20
80.8340
 30
0.000000
  70
    32
  0
VERTEX
  8
0
  5
A6A
 10
208.578
 20
80.8787
 30
0.000000
  70
    32
  0
VERTEX
  8
0
  5
A6B
 10
208.623
 20
80.9235
 30
0.000000
  70
    32
  0
VERTEX
  8
0
  5
A6C
 10
208.669
 20
80.9682
 30
0.000000
  70
    32
  0
VERTEX
  8
0
  5
A6D
 10
208.714
 20
81.0130
 30
0.000000
  70
    32
  0
VERTEX
  8
0
  5
A6E
 10
208.759
 20
81.0578
 30
0.000000
  70
    32
  0
VERTEX
  8
0
  5
A6F
 10
208.805
 20
81.1027
 30
0.000000
  70
    32
  0
VERTEX
  8
0
  5
A70
 10
208.850
 20
81.1475
 30
0.000000
  70
    32
  0
VERTEX
  8
0
  5
A71
 10
208.895
 20
81.1924
 30
0.000000
  70
    32
  0
VERTEX
  8
0
  5
A72
 10
208.940
 20
81.2372
 30
0.000000
  70
    32
  0
VERTEX
  8
0
  5
A73
 10
208.986
 20
81.2821
 30
0.000000
  70
    32
  0
VERTEX
  8
0
  5
A74
 10
209.031
 20
81.3271
 30
0.000000
  70
    32
  0
VERTEX
  8
0
  5
A75
 10
209.076
 20
81.3720
 30
0.000000
  70
    32
  0
VERTEX
  8
0
  5
A76
 10
209.121
 20
81.4169
 30
0.000000
  70
    32
  0
VERTEX
  8
0
  5
A77
 10
209.167
 20
81.4619
 30
0.000000
  70
    32
  0
VERTEX
  8
0
  5
A78
 10
209.212
 20
81.5069
 30
0.000000
  70
    32
  0
VERTEX
  8
0
  5
A79
 10
209.257
 20
81.5519
 30
0.000000
  70
    32
  0
VERTEX
  8
0
  5
A7A
 10
209.303
 20
81.5969
 30
0.000000
  70
    32
  0
VERTEX
  8
0
  5
A7B
 10
209.348
 20
81.6420
 30
0.000000
  70
    32
  0
VERTEX
  8
0
  5
A7C
 10
209.393
 20
81.6870
 30
0.000000
  70
    32
  0
VERTEX
  8
0
  5
A7D
 10
209.438
 20
81.7321
 30
0.000000
  70
    32
  0
VERTEX
  8
0
  5
A7E
 10
209.484
 20
81.7772
 30
0.000000
  70
    32
  0
VERTEX
  8
0
  5
A7F
 10
209.529
 20
81.8223
 30
0.000000
  70
    32
  0
VERTEX
  8
0
  5
A80
 10
209.574
 20
81.8674
 30
0.000000
  70
    32
  0
VERTEX
  8
0
  5
A81
 10
209.620
 20
81.9126
 30
0.000000
  70
    32
  0
VERTEX
  8
0
  5
A82
 10
209.665
 20
81.9577
 30
0.000000
  70
    32
  0
VERTEX
  8
0
  5
A83
 10
209.710
 20
82.0029
 30
0.000000
  70
    32
  0
VERTEX
  8
0
  5
A84
 10
209.755
 20
82.0481
 30
0.000000
  70
    32
  0
VERTEX
  8
0
  5
A85
 10
209.801
 20
82.0933
 30
0.000000
  70
    32
  0
VERTEX
  8
0
  5
A86
 10
209.846
 20
82.1386
 30
0.000000
  70
    32
  0
VERTEX
  8
0
  5
A87
 10
209.891
 20
82.1838
 30
0.000000
  70
    32
  0
VERTEX
  8
0
  5
A88
 10
209.937
 20
82.2291
 30
0.000000
  70
    32
  0
VERTEX
  8
0
  5
A89
 10
209.982
 20
82.2743
 30
0.000000
  70
    32
  0
VERTEX
  8
0
  5
A8A
 10
210.027
 20
82.3196
 30
0.000000
  70
    32
  0
VERTEX
  8
0
  5
A8B
 10
210.072
 20
82.3650
 30
0.000000
  70
    32
  0
VERTEX
  8
0
  5
A8C
 10
210.118
 20
82.4103
 30
0.000000
  70
    32
  0
VERTEX
  8
0
  5
A8D
 10
210.163
 20
82.4556
 30
0.000000
  70
    32
  0
VERTEX
  8
0
  5
A8E
 10
210.208
 20
82.5010
 30
0.000000
  70
    32
  0
VERTEX
  8
0
  5
A8F
 10
210.254
 20
82.5464
 30
0.000000
  70
    32
  0
VERTEX
  8
0
  5
A90
 10
210.299
 20
82.5917
 30
0.000000
  70
    32
  0
VERTEX
  8
0
  5
A91
 10
210.344
 20
82.6371
 30
0.000000
  70
    32
  0
VERTEX
  8
0
  5
A92
 10
210.389
 20
82.6826
 30
0.000000
  70
    32
  0
SEQEND
  8
0
  5
A93
  0
LINE
  5
369
  8
0
 10
215.38147111305
 20
72.585608135399994
 30
0.0
 11
215.38147111305
 21
82.682569250600011
 31
0.0
  0
LINE
  5
36B
  8
0
 10
204.6185289346499
 20
77.026090834000001
 30
0.0
 11
198.45556365384991
 21
76.918301604699991
 31
0.0
  0
LINE
  5
36C
  8
0
 10
198.45556365384991
 20
76.918301604699991
 30
0.0
 11
208.56217785037759
 21
84.726483584037297
 31
0.0
  0
LINE
  5
36D
  8
0
 10
198.45556365384991
 20
70.7332368884
 30
0.0
 11
198.45556365384991
 21
76.918301604699991
 31
0.0
  0
LINE
  5
36E
  8
0
 10
221.54443639384999
 20
76.918301604699991
 30
0.0
 11
225.00000002384991
 21
84.726483584043734
 31
0.0
  0
LINE
  5
36F
  8
0
 10
221.54443639384999
 20
70.7332368884
 30
0.0
 11
221.54443639384999
 21
76.918301604699991
 31
0.0
  0
LINE
  5
371
  8
0
 10
180.43051215164991
 20
72.585608135399994
 30
0.0
 11
180.43051215164991
 21
82.682569250600011
 31
0.0
  0
LINE
  5
373
  8
0
 10
198.50000002384991
 20
55.29999999999999
 30
0.0
 11
221.50000002384991
 21
55.299999999999997
 31
0.0
  0
LINE
  5
375
  8
0
 10
202.2057713898499
 20
85.271684146100014
 30
0.0
 11
201.00000006495
 21
85.271684146100014
 31
0.0
  0
LINE
  5
376
  8
0
 10
218.99999997854999
 20
85.271684146100014
 30
0.0
 11
202.2057713898499
 21
85.271684146100014
 31
0.0
  0
LINE
  5
377
  8
0
 10
204.40000002385
 20
55.0
 30
0.0
 11
215.6000000238499
 21
55.0
 31
0.0
  0
LINE
  5
379
  8
0
 10
239.56948789604999
 20
77.026090834000001
 30
0.0
 11
221.54443639384999
 21
76.918301604699991
 31
0.0
  0
LINE
  5
37A
  8
0
 10
239.56948789604999
 20
72.585608135399994
 30
0.0
 11
239.56948789604999
 21
77.026090834000001
 31
0.0
  0
POLYLINE
  5
37B
  8
0
 10
239.5694878963682
 20
77.026090834273703
 30
0.0
 66
     1
 70
     8
  0
VERTEX
  8
0
  5
A94
 10
239.569
 20
77.0261
 30
0.000000
  70
    32
  0
VERTEX
  8
0
  5
A95
 10
239.554
 20
77.0688
 30
0.000000
  70
    32
  0
VERTEX
  8
0
  5
A96
 10
239.538
 20
77.1116
 30
0.000000
  70
    32
  0
VERTEX
  8
0
  5
A97
 10
239.522
 20
77.1543
 30
0.000000
  70
    32
  0
VERTEX
  8
0
  5
A98
 10
239.507
 20
77.1971
 30
0.000000
  70
    32
  0
VERTEX
  8
0
  5
A99
 10
239.491
 20
77.2399
 30
0.000000
  70
    32
  0
VERTEX
  8
0
  5
A9A
 10
239.475
 20
77.2828
 30
0.000000
  70
    32
  0
VERTEX
  8
0
  5
A9B
 10
239.459
 20
77.3257
 30
0.000000
  70
    32
  0
VERTEX
  8
0
  5
A9C
 10
239.443
 20
77.3686
 30
0.000000
  70
    32
  0
VERTEX
  8
0
  5
A9D
 10
239.427
 20
77.4115
 30
0.000000
  70
    32
  0
VERTEX
  8
0
  5
A9E
 10
239.410
 20
77.4545
 30
0.000000
  70
    32
  0
VERTEX
  8
0
  5
A9F
 10
239.394
 20
77.4975
 30
0.000000
  70
    32
  0
VERTEX
  8
0
  5
AA0
 10
239.378
 20
77.5405
 30
0.000000
  70
    32
  0
VERTEX
  8
0
  5
AA1
 10
239.361
 20
77.5835
 30
0.000000
  70
    32
  0
VERTEX
  8
0
  5
AA2
 10
239.345
 20
77.6266
 30
0.000000
  70
    32
  0
VERTEX
  8
0
  5
AA3
 10
239.328
 20
77.6697
 30
0.000000
  70
    32
  0
VERTEX
  8
0
  5
AA4
 10
239.312
 20
77.7128
 30
0.000000
  70
    32
  0
VERTEX
  8
0
  5
AA5
 10
239.295
 20
77.7559
 30
0.000000
  70
    32
  0
VERTEX
  8
0
  5
AA6
 10
239.279
 20
77.7991
 30
0.000000
  70
    32
  0
VERTEX
  8
0
  5
AA7
 10
239.262
 20
77.8423
 30
0.000000
  70
    32
  0
VERTEX
  8
0
  5
AA8
 10
239.245
 20
77.8855
 30
0.000000
  70
    32
  0
VERTEX
  8
0
  5
AA9
 10
239.228
 20
77.9287
 30
0.000000
  70
    32
  0
VERTEX
  8
0
  5
AAA
 10
239.211
 20
77.9720
 30
0.000000
  70
    32
  0
VERTEX
  8
0
  5
AAB
 10
239.194
 20
78.0153
 30
0.000000
  70
    32
  0
VERTEX
  8
0
  5
AAC
 10
239.177
 20
78.0586
 30
0.000000
  70
    32
  0
VERTEX
  8
0
  5
AAD
 10
239.160
 20
78.1019
 30
0.000000
  70
    32
  0
VERTEX
  8
0
  5
AAE
 10
239.143
 20
78.1453
 30
0.000000
  70
    32
  0
VERTEX
  8
0
  5
AAF
 10
239.126
 20
78.1887
 30
0.000000
  70
    32
  0
VERTEX
  8
0
  5
AB0
 10
239.109
 20
78.2321
 30
0.000000
  70
    32
  0
VERTEX
  8
0
  5
AB1
 10
239.091
 20
78.2755
 30
0.000000
  70
    32
  0
VERTEX
  8
0
  5
AB2
 10
239.074
 20
78.3190
 30
0.000000
  70
    32
  0
VERTEX
  8
0
  5
AB3
 10
239.056
 20
78.3625
 30
0.000000
  70
    32
  0
VERTEX
  8
0
  5
AB4
 10
239.039
 20
78.4060
 30
0.000000
  70
    32
  0
VERTEX
  8
0
  5
AB5
 10
239.021
 20
78.4495
 30
0.000000
  70
    32
  0
VERTEX
  8
0
  5
AB6
 10
239.004
 20
78.4931
 30
0.000000
  70
    32
  0
VERTEX
  8
0
  5
AB7
 10
238.986
 20
78.5367
 30
0.000000
  70
    32
  0
VERTEX
  8
0
  5
AB8
 10
238.968
 20
78.5803
 30
0.000000
  70
    32
  0
VERTEX
  8
0
  5
AB9
 10
238.950
 20
78.6239
 30
0.000000
  70
    32
  0
VERTEX
  8
0
  5
ABA
 10
238.932
 20
78.6676
 30
0.000000
  70
    32
  0
VERTEX
  8
0
  5
ABB
 10
238.914
 20
78.7113
 30
0.000000
  70
    32
  0
VERTEX
  8
0
  5
ABC
 10
238.896
 20
78.7550
 30
0.000000
  70
    32
  0
VERTEX
  8
0
  5
ABD
 10
238.878
 20
78.7987
 30
0.000000
  70
    32
  0
VERTEX
  8
0
  5
ABE
 10
238.860
 20
78.8425
 30
0.000000
  70
    32
  0
VERTEX
  8
0
  5
ABF
 10
238.842
 20
78.8862
 30
0.000000
  70
    32
  0
VERTEX
  8
0
  5
AC0
 10
238.824
 20
78.9300
 30
0.000000
  70
    32
  0
VERTEX
  8
0
  5
AC1
 10
238.806
 20
78.9738
 30
0.000000
  70
    32
  0
VERTEX
  8
0
  5
AC2
 10
238.787
 20
79.0177
 30
0.000000
  70
    32
  0
VERTEX
  8
0
  5
AC3
 10
238.769
 20
79.0616
 30
0.000000
  70
    32
  0
VERTEX
  8
0
  5
AC4
 10
238.750
 20
79.1054
 30
0.000000
  70
    32
  0
VERTEX
  8
0
  5
AC5
 10
238.732
 20
79.1494
 30
0.000000
  70
    32
  0
VERTEX
  8
0
  5
AC6
 10
238.713
 20
79.1933
 30
0.000000
  70
    32
  0
VERTEX
  8
0
  5
AC7
 10
238.695
 20
79.2373
 30
0.000000
  70
    32
  0
VERTEX
  8
0
  5
AC8
 10
238.676
 20
79.2812
 30
0.000000
  70
    32
  0
VERTEX
  8
0
  5
AC9
 10
238.657
 20
79.3252
 30
0.000000
  70
    32
  0
VERTEX
  8
0
  5
ACA
 10
238.638
 20
79.3693
 30
0.000000
  70
    32
  0
VERTEX
  8
0
  5
ACB
 10
238.619
 20
79.4133
 30
0.000000
  70
    32
  0
VERTEX
  8
0
  5
ACC
 10
238.600
 20
79.4574
 30
0.000000
  70
    32
  0
VERTEX
  8
0
  5
ACD
 10
238.581
 20
79.5015
 30
0.000000
  70
    32
  0
VERTEX
  8
0
  5
ACE
 10
238.562
 20
79.5456
 30
0.000000
  70
    32
  0
VERTEX
  8
0
  5
ACF
 10
238.543
 20
79.5897
 30
0.000000
  70
    32
  0
VERTEX
  8
0
  5
AD0
 10
238.524
 20
79.6339
 30
0.000000
  70
    32
  0
VERTEX
  8
0
  5
AD1
 10
238.505
 20
79.6781
 30
0.000000
  70
    32
  0
VERTEX
  8
0
  5
AD2
 10
238.485
 20
79.7223
 30
0.000000
  70
    32
  0
VERTEX
  8
0
  5
AD3
 10
238.466
 20
79.7665
 30
0.000000
  70
    32
  0
VERTEX
  8
0
  5
AD4
 10
238.447
 20
79.8107
 30
0.000000
  70
    32
  0
VERTEX
  8
0
  5
AD5
 10
238.427
 20
79.8550
 30
0.000000
  70
    32
  0
VERTEX
  8
0
  5
AD6
 10
238.408
 20
79.8993
 30
0.000000
  70
    32
  0
VERTEX
  8
0
  5
AD7
 10
238.388
 20
79.9436
 30
0.000000
  70
    32
  0
VERTEX
  8
0
  5
AD8
 10
238.368
 20
79.9879
 30
0.000000
  70
    32
  0
VERTEX
  8
0
  5
AD9
 10
238.349
 20
80.0322
 30
0.000000
  70
    32
  0
VERTEX
  8
0
  5
ADA
 10
238.329
 20
80.0766
 30
0.000000
  70
    32
  0
VERTEX
  8
0
  5
ADB
 10
238.309
 20
80.1210
 30
0.000000
  70
    32
  0
VERTEX
  8
0
  5
ADC
 10
238.289
 20
80.1654
 30
0.000000
  70
    32
  0
VERTEX
  8
0
  5
ADD
 10
238.269
 20
80.2099
 30
0.000000
  70
    32
  0
VERTEX
  8
0
  5
ADE
 10
238.249
 20
80.2543
 30
0.000000
  70
    32
  0
VERTEX
  8
0
  5
ADF
 10
238.229
 20
80.2988
 30
0.000000
  70
    32
  0
VERTEX
  8
0
  5
AE0
 10
238.209
 20
80.3433
 30
0.000000
  70
    32
  0
VERTEX
  8
0
  5
AE1
 10
238.189
 20
80.3878
 30
0.000000
  70
    32
  0
VERTEX
  8
0
  5
AE2
 10
238.169
 20
80.4323
 30
0.000000
  70
    32
  0
VERTEX
  8
0
  5
AE3
 10
238.148
 20
80.4769
 30
0.000000
  70
    32
  0
VERTEX
  8
0
  5
AE4
 10
238.128
 20
80.5214
 30
0.000000
  70
    32
  0
VERTEX
  8
0
  5
AE5
 10
238.107
 20
80.5660
 30
0.000000
  70
    32
  0
VERTEX
  8
0
  5
AE6
 10
238.087
 20
80.6106
 30
0.000000
  70
    32
  0
VERTEX
  8
0
  5
AE7
 10
238.066
 20
80.6553
 30
0.000000
  70
    32
  0
VERTEX
  8
0
  5
AE8
 10
238.046
 20
80.6999
 30
0.000000
  70
    32
  0
VERTEX
  8
0
  5
AE9
 10
238.025
 20
80.7446
 30
0.000000
  70
    32
  0
VERTEX
  8
0
  5
AEA
 10
238.004
 20
80.7893
 30
0.000000
  70
    32
  0
VERTEX
  8
0
  5
AEB
 10
237.984
 20
80.8340
 30
0.000000
  70
    32
  0
VERTEX
  8
0
  5
AEC
 10
237.963
 20
80.8787
 30
0.000000
  70
    32
  0
VERTEX
  8
0
  5
AED
 10
237.942
 20
80.9235
 30
0.000000
  70
    32
  0
VERTEX
  8
0
  5
AEE
 10
237.921
 20
80.9682
 30
0.000000
  70
    32
  0
VERTEX
  8
0
  5
AEF
 10
237.900
 20
81.0130
 30
0.000000
  70
    32
  0
VERTEX
  8
0
  5
AF0
 10
237.879
 20
81.0578
 30
0.000000
  70
    32
  0
VERTEX
  8
0
  5
AF1
 10
237.858
 20
81.1027
 30
0.000000
  70
    32
  0
VERTEX
  8
0
  5
AF2
 10
237.837
 20
81.1475
 30
0.000000
  70
    32
  0
VERTEX
  8
0
  5
AF3
 10
237.815
 20
81.1924
 30
0.000000
  70
    32
  0
VERTEX
  8
0
  5
AF4
 10
237.794
 20
81.2372
 30
0.000000
  70
    32
  0
VERTEX
  8
0
  5
AF5
 10
237.773
 20
81.2821
 30
0.000000
  70
    32
  0
VERTEX
  8
0
  5
AF6
 10
237.751
 20
81.3271
 30
0.000000
  70
    32
  0
VERTEX
  8
0
  5
AF7
 10
237.730
 20
81.3720
 30
0.000000
  70
    32
  0
VERTEX
  8
0
  5
AF8
 10
237.708
 20
81.4169
 30
0.000000
  70
    32
  0
VERTEX
  8
0
  5
AF9
 10
237.687
 20
81.4619
 30
0.000000
  70
    32
  0
VERTEX
  8
0
  5
AFA
 10
237.665
 20
81.5069
 30
0.000000
  70
    32
  0
VERTEX
  8
0
  5
AFB
 10
237.644
 20
81.5519
 30
0.000000
  70
    32
  0
VERTEX
  8
0
  5
AFC
 10
237.622
 20
81.5969
 30
0.000000
  70
    32
  0
VERTEX
  8
0
  5
AFD
 10
237.600
 20
81.6420
 30
0.000000
  70
    32
  0
VERTEX
  8
0
  5
AFE
 10
237.578
 20
81.6870
 30
0.000000
  70
    32
  0
VERTEX
  8
0
  5
AFF
 10
237.556
 20
81.7321
 30
0.000000
  70
    32
  0
VERTEX
  8
0
  5
B00
 10
237.534
 20
81.7772
 30
0.000000
  70
    32
  0
VERTEX
  8
0
  5
B01
 10
237.512
 20
81.8223
 30
0.000000
  70
    32
  0
VERTEX
  8
0
  5
B02
 10
237.490
 20
81.8674
 30
0.000000
  70
    32
  0
VERTEX
  8
0
  5
B03
 10
237.468
 20
81.9126
 30
0.000000
  70
    32
  0
VERTEX
  8
0
  5
B04
 10
237.446
 20
81.9577
 30
0.000000
  70
    32
  0
VERTEX
  8
0
  5
B05
 10
237.424
 20
82.0029
 30
0.000000
  70
    32
  0
VERTEX
  8
0
  5
B06
 10
237.401
 20
82.0481
 30
0.000000
  70
    32
  0
VERTEX
  8
0
  5
B07
 10
237.379
 20
82.0933
 30
0.000000
  70
    32
  0
VERTEX
  8
0
  5
B08
 10
237.356
 20
82.1386
 30
0.000000
  70
    32
  0
VERTEX
  8
0
  5
B09
 10
237.334
 20
82.1838
 30
0.000000
  70
    32
  0
VERTEX
  8
0
  5
B0A
 10
237.311
 20
82.2291
 30
0.000000
  70
    32
  0
VERTEX
  8
0
  5
B0B
 10
237.289
 20
82.2743
 30
0.000000
  70
    32
  0
VERTEX
  8
0
  5
B0C
 10
237.266
 20
82.3196
 30
0.000000
  70
    32
  0
VERTEX
  8
0
  5
B0D
 10
237.244
 20
82.3650
 30
0.000000
  70
    32
  0
VERTEX
  8
0
  5
B0E
 10
237.221
 20
82.4103
 30
0.000000
  70
    32
  0
VERTEX
  8
0
  5
B0F
 10
237.198
 20
82.4556
 30
0.000000
  70
    32
  0
VERTEX
  8
0
  5
B10
 10
237.175
 20
82.5010
 30
0.000000
  70
    32
  0
VERTEX
  8
0
  5
B11
 10
237.152
 20
82.5464
 30
0.000000
  70
    32
  0
VERTEX
  8
0
  5
B12
 10
237.129
 20
82.5917
 30
0.000000
  70
    32
  0
VERTEX
  8
0
  5
B13
 10
237.106
 20
82.6371
 30
0.000000
  70
    32
  0
VERTEX
  8
0
  5
B14
 10
237.083
 20
82.6826
 30
0.000000
  70
    32
  0
SEQEND
  8
0
  5
B15
  0
ARC
  5
37C
  8
0
 10
59.262759631049789
 20
200.66958503999999
 30
0.0
 40
129.99999999999449
 50
270.98608277279629
 51
274.03171581089907
  0
ARC
  5
37D
  8
0
 10
40.73724041654981
 20
200.66958503999999
 30
0.0
 40
129.99999999999449
 50
265.96842964210009
 51
269.01391722720359
  0
ARC
  5
37F
  8
0
 10
52.027043195665037
 20
-64.367609685134141
 30
0.0
 40
149.8016701664923
 50
83.724837654953276
 51
87.332036356047936
  0
LINE
  5
380
  8
0
 10
38.500000023849793
 20
70.688837406299996
 30
0.0
 11
38.500000023849793
 21
55.299999999999997
 31
0.0
  0
LINE
  5
381
  8
0
 10
61.50000002384985
 20
55.299999999999997
 30
0.0
 11
61.50000002384985
 21
70.688837406299996
 31
0.0
  0
ARC
  5
382
  8
0
 10
50.000000026299972
 20
-81.667816093123918
 30
0.0
 40
167.18192707151431
 50
86.914071892279367
 51
93.085928107720605
  0
LINE
  5
385
  8
0
 10
44.400000023849827
 20
55.299999999999997
 30
0.0
 11
44.400000023849827
 21
55.0
 31
0.0
  0
LINE
  5
386
  8
0
 10
55.600000023849809
 20
55.0
 30
0.0
 11
55.600000023849809
 21
55.299999999999997
 31
0.0
  0
LINE
  5
387
  8
0
 10
79.569487895949806
 20
72.585608135399994
 30
0.0
 11
74.188016806749772
 21
72.585608135399994
 31
0.0
  0
ARC
  5
388
  8
0
 10
64.483028206449774
 20
139.7321872222
 30
0.0
 40
68.820522731461409
 50
273.26321364340077
 51
282.6629037392014
  0
ARC
  5
389
  8
0
 10
35.508424234549807
 20
139.5329715206
 30
0.0
 40
68.624287952727443
 50
257.3075974735018
 51
266.73458487839622
  0
LINE
  5
38A
  8
0
 10
25.81198324084977
 20
72.585608135399994
 30
0.0
 11
20.43051215164979
 21
72.585608135399994
 31
0.0
  0
ARC
  5
38B
  8
0
 10
49.459353931749831
 20
222.5216871133
 30
0.0
 40
151.78941306908069
 50
261.03734601399862
 51
270.20407750550129
  0
ARC
  5
38C
  8
0
 10
50.491655894249789
 20
223.16139489540001
 30
0.0
 40
152.42895092104609
 50
269.81519353749781
 51
278.94338294289861
  0
LINE
  5
38D
  8
0
 10
61.50000002384985
 20
70.688837406299996
 30
0.0
 11
38.500000023849793
 21
70.688837406299996
 31
0.0
  0
ARC
  5
38E
  8
0
 10
60.177514637549791
 20
0.3035617235000032
 30
0.0
 40
84.630665293471836
 50
76.753761586696129
 51
84.424108891100346
  0
LINE
  5
38F
  8
0
 10
79.569487895949806
 20
82.682569250600011
 30
0.0
 11
77.47244720904979
 21
82.682569250600011
 31
0.0
  0
ARC
  5
390
  8
0
 10
50.751625696930383
 20
-50.814823731962314
 30
0.0
 40
136.14534966505531
 50
78.681259939907036
 51
84.600785017745864
  0
ARC
  5
392
  8
0
 10
53.494307185349783
 20
-78.961058033
 30
0.0
 40
163.9968697883767
 50
86.480362998298261
 51
99.717932619402404
  0
LINE
  5
393
  8
0
 10
25.81198324084977
 20
82.682569250600011
 30
0.0
 11
22.9170171151498
 21
82.682569250600011
 31
0.0
  0
ARC
  5
394
  8
0
 10
50.02389723824944
 20
-41.302483847996008
 30
0.0
 40
126.9136570345559
 50
96.798552654752953
 51
102.3325379323978
  0
POLYLINE
  5
398
  8
0
 10
74.188016807635137
 20
77.026090833215733
 30
0.0
 66
     1
 70
     8
  0
VERTEX
  8
0
  5
B16
 10
74.1880
 20
77.0261
 30
0.000000
  70
    32
  0
VERTEX
  8
0
  5
B17
 10
74.2170
 20
77.0688
 30
0.000000
  70
    32
  0
VERTEX
  8
0
  5
B18
 10
74.2459
 20
77.1116
 30
0.000000
  70
    32
  0
VERTEX
  8
0
  5
B19
 10
74.2748
 20
77.1543
 30
0.000000
  70
    32
  0
VERTEX
  8
0
  5
B1A
 10
74.3037
 20
77.1971
 30
0.000000
  70
    32
  0
VERTEX
  8
0
  5
B1B
 10
74.3325
 20
77.2399
 30
0.000000
  70
    32
  0
VERTEX
  8
0
  5
B1C
 10
74.3612
 20
77.2828
 30
0.000000
  70
    32
  0
VERTEX
  8
0
  5
B1D
 10
74.3899
 20
77.3257
 30
0.000000
  70
    32
  0
VERTEX
  8
0
  5
B1E
 10
74.4185
 20
77.3686
 30
0.000000
  70
    32
  0
VERTEX
  8
0
  5
B1F
 10
74.4471
 20
77.4115
 30
0.000000
  70
    32
  0
VERTEX
  8
0
  5
B20
 10
74.4757
 20
77.4545
 30
0.000000
  70
    32
  0
VERTEX
  8
0
  5
B21
 10
74.5041
 20
77.4975
 30
0.000000
  70
    32
  0
VERTEX
  8
0
  5
B22
 10
74.5326
 20
77.5405
 30
0.000000
  70
    32
  0
VERTEX
  8
0
  5
B23
 10
74.5610
 20
77.5835
 30
0.000000
  70
    32
  0
VERTEX
  8
0
  5
B24
 10
74.5893
 20
77.6266
 30
0.000000
  70
    32
  0
VERTEX
  8
0
  5
B25
 10
74.6176
 20
77.6697
 30
0.000000
  70
    32
  0
VERTEX
  8
0
  5
B26
 10
74.6458
 20
77.7128
 30
0.000000
  70
    32
  0
VERTEX
  8
0
  5
B27
 10
74.6740
 20
77.7559
 30
0.000000
  70
    32
  0
VERTEX
  8
0
  5
B28
 10
74.7021
 20
77.7991
 30
0.000000
  70
    32
  0
VERTEX
  8
0
  5
B29
 10
74.7302
 20
77.8423
 30
0.000000
  70
    32
  0
VERTEX
  8
0
  5
B2A
 10
74.7582
 20
77.8855
 30
0.000000
  70
    32
  0
VERTEX
  8
0
  5
B2B
 10
74.7862
 20
77.9287
 30
0.000000
  70
    32
  0
VERTEX
  8
0
  5
B2C
 10
74.8141
 20
77.9720
 30
0.000000
  70
    32
  0
VERTEX
  8
0
  5
B2D
 10
74.8420
 20
78.0153
 30
0.000000
  70
    32
  0
VERTEX
  8
0
  5
B2E
 10
74.8698
 20
78.0586
 30
0.000000
  70
    32
  0
VERTEX
  8
0
  5
B2F
 10
74.8976
 20
78.1019
 30
0.000000
  70
    32
  0
VERTEX
  8
0
  5
B30
 10
74.9253
 20
78.1453
 30
0.000000
  70
    32
  0
VERTEX
  8
0
  5
B31
 10
74.9530
 20
78.1887
 30
0.000000
  70
    32
  0
VERTEX
  8
0
  5
B32
 10
74.9806
 20
78.2321
 30
0.000000
  70
    32
  0
VERTEX
  8
0
  5
B33
 10
75.0082
 20
78.2755
 30
0.000000
  70
    32
  0
VERTEX
  8
0
  5
B34
 10
75.0357
 20
78.3190
 30
0.000000
  70
    32
  0
VERTEX
  8
0
  5
B35
 10
75.0631
 20
78.3625
 30
0.000000
  70
    32
  0
VERTEX
  8
0
  5
B36
 10
75.0906
 20
78.4060
 30
0.000000
  70
    32
  0
VERTEX
  8
0
  5
B37
 10
75.1179
 20
78.4495
 30
0.000000
  70
    32
  0
VERTEX
  8
0
  5
B38
 10
75.1452
 20
78.4931
 30
0.000000
  70
    32
  0
VERTEX
  8
0
  5
B39
 10
75.1725
 20
78.5367
 30
0.000000
  70
    32
  0
VERTEX
  8
0
  5
B3A
 10
75.1997
 20
78.5803
 30
0.000000
  70
    32
  0
VERTEX
  8
0
  5
B3B
 10
75.2268
 20
78.6239
 30
0.000000
  70
    32
  0
VERTEX
  8
0
  5
B3C
 10
75.2539
 20
78.6676
 30
0.000000
  70
    32
  0
VERTEX
  8
0
  5
B3D
 10
75.2810
 20
78.7113
 30
0.000000
  70
    32
  0
VERTEX
  8
0
  5
B3E
 10
75.3080
 20
78.7550
 30
0.000000
  70
    32
  0
VERTEX
  8
0
  5
B3F
 10
75.3349
 20
78.7987
 30
0.000000
  70
    32
  0
VERTEX
  8
0
  5
B40
 10
75.3618
 20
78.8425
 30
0.000000
  70
    32
  0
VERTEX
  8
0
  5
B41
 10
75.3886
 20
78.8862
 30
0.000000
  70
    32
  0
VERTEX
  8
0
  5
B42
 10
75.4154
 20
78.9300
 30
0.000000
  70
    32
  0
VERTEX
  8
0
  5
B43
 10
75.4421
 20
78.9738
 30
0.000000
  70
    32
  0
VERTEX
  8
0
  5
B44
 10
75.4688
 20
79.0177
 30
0.000000
  70
    32
  0
VERTEX
  8
0
  5
B45
 10
75.4955
 20
79.0616
 30
0.000000
  70
    32
  0
VERTEX
  8
0
  5
B46
 10
75.5220
 20
79.1054
 30
0.000000
  70
    32
  0
VERTEX
  8
0
  5
B47
 10
75.5485
 20
79.1494
 30
0.000000
  70
    32
  0
VERTEX
  8
0
  5
B48
 10
75.5750
 20
79.1933
 30
0.000000
  70
    32
  0
VERTEX
  8
0
  5
B49
 10
75.6014
 20
79.2373
 30
0.000000
  70
    32
  0
VERTEX
  8
0
  5
B4A
 10
75.6278
 20
79.2812
 30
0.000000
  70
    32
  0
VERTEX
  8
0
  5
B4B
 10
75.6541
 20
79.3252
 30
0.000000
  70
    32
  0
VERTEX
  8
0
  5
B4C
 10
75.6804
 20
79.3693
 30
0.000000
  70
    32
  0
VERTEX
  8
0
  5
B4D
 10
75.7066
 20
79.4133
 30
0.000000
  70
    32
  0
VERTEX
  8
0
  5
B4E
 10
75.7327
 20
79.4574
 30
0.000000
  70
    32
  0
VERTEX
  8
0
  5
B4F
 10
75.7588
 20
79.5015
 30
0.000000
  70
    32
  0
VERTEX
  8
0
  5
B50
 10
75.7848
 20
79.5456
 30
0.000000
  70
    32
  0
VERTEX
  8
0
  5
B51
 10
75.8108
 20
79.5897
 30
0.000000
  70
    32
  0
VERTEX
  8
0
  5
B52
 10
75.8368
 20
79.6339
 30
0.000000
  70
    32
  0
VERTEX
  8
0
  5
B53
 10
75.8627
 20
79.6781
 30
0.000000
  70
    32
  0
VERTEX
  8
0
  5
B54
 10
75.8885
 20
79.7223
 30
0.000000
  70
    32
  0
VERTEX
  8
0
  5
B55
 10
75.9143
 20
79.7665
 30
0.000000
  70
    32
  0
VERTEX
  8
0
  5
B56
 10
75.9400
 20
79.8107
 30
0.000000
  70
    32
  0
VERTEX
  8
0
  5
B57
 10
75.9657
 20
79.8550
 30
0.000000
  70
    32
  0
VERTEX
  8
0
  5
B58
 10
75.9913
 20
79.8993
 30
0.000000
  70
    32
  0
VERTEX
  8
0
  5
B59
 10
76.0168
 20
79.9436
 30
0.000000
  70
    32
  0
VERTEX
  8
0
  5
B5A
 10
76.0423
 20
79.9879
 30
0.000000
  70
    32
  0
VERTEX
  8
0
  5
B5B
 10
76.0678
 20
80.0322
 30
0.000000
  70
    32
  0
VERTEX
  8
0
  5
B5C
 10
76.0932
 20
80.0766
 30
0.000000
  70
    32
  0
VERTEX
  8
0
  5
B5D
 10
76.1185
 20
80.1210
 30
0.000000
  70
    32
  0
VERTEX
  8
0
  5
B5E
 10
76.1438
 20
80.1654
 30
0.000000
  70
    32
  0
VERTEX
  8
0
  5
B5F
 10
76.1691
 20
80.2099
 30
0.000000
  70
    32
  0
VERTEX
  8
0
  5
B60
 10
76.1943
 20
80.2543
 30
0.000000
  70
    32
  0
VERTEX
  8
0
  5
B61
 10
76.2194
 20
80.2988
 30
0.000000
  70
    32
  0
VERTEX
  8
0
  5
B62
 10
76.2445
 20
80.3433
 30
0.000000
  70
    32
  0
VERTEX
  8
0
  5
B63
 10
76.2695
 20
80.3878
 30
0.000000
  70
    32
  0
VERTEX
  8
0
  5
B64
 10
76.2945
 20
80.4323
 30
0.000000
  70
    32
  0
VERTEX
  8
0
  5
B65
 10
76.3194
 20
80.4769
 30
0.000000
  70
    32
  0
VERTEX
  8
0
  5
B66
 10
76.3442
 20
80.5214
 30
0.000000
  70
    32
  0
VERTEX
  8
0
  5
B67
 10
76.3690
 20
80.5660
 30
0.000000
  70
    32
  0
VERTEX
  8
0
  5
B68
 10
76.3938
 20
80.6106
 30
0.000000
  70
    32
  0
VERTEX
  8
0
  5
B69
 10
76.4185
 20
80.6553
 30
0.000000
  70
    32
  0
VERTEX
  8
0
  5
B6A
 10
76.4431
 20
80.6999
 30
0.000000
  70
    32
  0
VERTEX
  8
0
  5
B6B
 10
76.4677
 20
80.7446
 30
0.000000
  70
    32
  0
VERTEX
  8
0
  5
B6C
 10
76.4922
 20
80.7893
 30
0.000000
  70
    32
  0
VERTEX
  8
0
  5
B6D
 10
76.5167
 20
80.8340
 30
0.000000
  70
    32
  0
VERTEX
  8
0
  5
B6E
 10
76.5411
 20
80.8787
 30
0.000000
  70
    32
  0
VERTEX
  8
0
  5
B6F
 10
76.5655
 20
80.9235
 30
0.000000
  70
    32
  0
VERTEX
  8
0
  5
B70
 10
76.5898
 20
80.9682
 30
0.000000
  70
    32
  0
VERTEX
  8
0
  5
B71
 10
76.6141
 20
81.0130
 30
0.000000
  70
    32
  0
VERTEX
  8
0
  5
B72
 10
76.6383
 20
81.0578
 30
0.000000
  70
    32
  0
VERTEX
  8
0
  5
B73
 10
76.6624
 20
81.1027
 30
0.000000
  70
    32
  0
VERTEX
  8
0
  5
B74
 10
76.6865
 20
81.1475
 30
0.000000
  70
    32
  0
VERTEX
  8
0
  5
B75
 10
76.7105
 20
81.1924
 30
0.000000
  70
    32
  0
VERTEX
  8
0
  5
B76
 10
76.7345
 20
81.2372
 30
0.000000
  70
    32
  0
VERTEX
  8
0
  5
B77
 10
76.7584
 20
81.2821
 30
0.000000
  70
    32
  0
VERTEX
  8
0
  5
B78
 10
76.7823
 20
81.3271
 30
0.000000
  70
    32
  0
VERTEX
  8
0
  5
B79
 10
76.8061
 20
81.3720
 30
0.000000
  70
    32
  0
VERTEX
  8
0
  5
B7A
 10
76.8299
 20
81.4169
 30
0.000000
  70
    32
  0
VERTEX
  8
0
  5
B7B
 10
76.8536
 20
81.4619
 30
0.000000
  70
    32
  0
VERTEX
  8
0
  5
B7C
 10
76.8772
 20
81.5069
 30
0.000000
  70
    32
  0
VERTEX
  8
0
  5
B7D
 10
76.9008
 20
81.5519
 30
0.000000
  70
    32
  0
VERTEX
  8
0
  5
B7E
 10
76.9244
 20
81.5969
 30
0.000000
  70
    32
  0
VERTEX
  8
0
  5
B7F
 10
76.9478
 20
81.6420
 30
0.000000
  70
    32
  0
VERTEX
  8
0
  5
B80
 10
76.9713
 20
81.6870
 30
0.000000
  70
    32
  0
VERTEX
  8
0
  5
B81
 10
76.9946
 20
81.7321
 30
0.000000
  70
    32
  0
VERTEX
  8
0
  5
B82
 10
77.0180
 20
81.7772
 30
0.000000
  70
    32
  0
VERTEX
  8
0
  5
B83
 10
77.0412
 20
81.8223
 30
0.000000
  70
    32
  0
VERTEX
  8
0
  5
B84
 10
77.0644
 20
81.8674
 30
0.000000
  70
    32
  0
VERTEX
  8
0
  5
B85
 10
77.0876
 20
81.9126
 30
0.000000
  70
    32
  0
VERTEX
  8
0
  5
B86
 10
77.1107
 20
81.9577
 30
0.000000
  70
    32
  0
VERTEX
  8
0
  5
B87
 10
77.1337
 20
82.0029
 30
0.000000
  70
    32
  0
VERTEX
  8
0
  5
B88
 10
77.1567
 20
82.0481
 30
0.000000
  70
    32
  0
VERTEX
  8
0
  5
B89
 10
77.1796
 20
82.0933
 30
0.000000
  70
    32
  0
VERTEX
  8
0
  5
B8A
 10
77.2025
 20
82.1386
 30
0.000000
  70
    32
  0
VERTEX
  8
0
  5
B8B
 10
77.2253
 20
82.1838
 30
0.000000
  70
    32
  0
VERTEX
  8
0
  5
B8C
 10
77.2480
 20
82.2291
 30
0.000000
  70
    32
  0
VERTEX
  8
0
  5
B8D
 10
77.2707
 20
82.2743
 30
0.000000
  70
    32
  0
VERTEX
  8
0
  5
B8E
 10
77.2934
 20
82.3196
 30
0.000000
  70
    32
  0
VERTEX
  8
0
  5
B8F
 10
77.3159
 20
82.3650
 30
0.000000
  70
    32
  0
VERTEX
  8
0
  5
B90
 10
77.3385
 20
82.4103
 30
0.000000
  70
    32
  0
VERTEX
  8
0
  5
B91
 10
77.3609
 20
82.4556
 30
0.000000
  70
    32
  0
VERTEX
  8
0
  5
B92
 10
77.3834
 20
82.5010
 30
0.000000
  70
    32
  0
VERTEX
  8
0
  5
B93
 10
77.4057
 20
82.5464
 30
0.000000
  70
    32
  0
VERTEX
  8
0
  5
B94
 10
77.4280
 20
82.5917
 30
0.000000
  70
    32
  0
VERTEX
  8
0
  5
B95
 10
77.4503
 20
82.6371
 30
0.000000
  70
    32
  0
VERTEX
  8
0
  5
B96
 10
77.4724
 20
82.6826
 30
0.000000
  70
    32
  0
SEQEND
  8
0
  5
B97
  0
LINE
  5
399
  8
0
 10
74.188016806749772
 20
77.026090834000001
 30
0.0
 11
50.000000023849793
 21
76.918301604699991
 31
0.0
  0
LINE
  5
39A
  8
0
 10
50.000000023849793
 20
76.918301604699991
 30
0.0
 11
63.562177850249839
 21
84.726483584100023
 31
0.0
  0
LINE
  5
39B
  8
0
 10
74.188016806749772
 20
72.585608135399994
 30
0.0
 11
74.188016806749772
 21
77.026090834000001
 31
0.0
  0
LINE
  5
39C
  8
0
 10
50.000000023849793
 20
70.7332368884
 30
0.0
 11
50.000000023849793
 21
76.918301604699991
 31
0.0
  0
LINE
  5
39D
  8
0
 10
25.81198324084977
 20
82.682569250600011
 30
0.0
 11
25.81198324084977
 21
72.585608135399994
 31
0.0
  0
LINE
  5
39F
  8
0
 10
20.43051215164979
 20
72.585608135399994
 30
0.0
 11
20.43051215164979
 21
77.026090834000001
 31
0.0
  0
POLYLINE
  5
3A0
  8
0
 10
22.91701711474764
 20
82.682569250955638
 30
0.0
 66
     1
 70
     8
  0
VERTEX
  8
0
  5
B98
 10
22.9170
 20
82.6826
 30
0.000000
  70
    32
  0
VERTEX
  8
0
  5
B99
 10
22.8939
 20
82.6371
 30
0.000000
  70
    32
  0
VERTEX
  8
0
  5
B9A
 10
22.8709
 20
82.5917
 30
0.000000
  70
    32
  0
VERTEX
  8
0
  5
B9B
 10
22.8479
 20
82.5464
 30
0.000000
  70
    32
  0
VERTEX
  8
0
  5
B9C
 10
22.8249
 20
82.5010
 30
0.000000
  70
    32
  0
VERTEX
  8
0
  5
B9D
 10
22.8021
 20
82.4556
 30
0.000000
  70
    32
  0
VERTEX
  8
0
  5
B9E
 10
22.7792
 20
82.4103
 30
0.000000
  70
    32
  0
VERTEX
  8
0
  5
B9F
 10
22.7565
 20
82.3650
 30
0.000000
  70
    32
  0
VERTEX
  8
0
  5
BA0
 10
22.7338
 20
82.3196
 30
0.000000
  70
    32
  0
VERTEX
  8
0
  5
BA1
 10
22.7111
 20
82.2743
 30
0.000000
  70
    32
  0
VERTEX
  8
0
  5
BA2
 10
22.6885
 20
82.2291
 30
0.000000
  70
    32
  0
VERTEX
  8
0
  5
BA3
 10
22.6660
 20
82.1838
 30
0.000000
  70
    32
  0
VERTEX
  8
0
  5
BA4
 10
22.6435
 20
82.1386
 30
0.000000
  70
    32
  0
VERTEX
  8
0
  5
BA5
 10
22.6211
 20
82.0933
 30
0.000000
  70
    32
  0
VERTEX
  8
0
  5
BA6
 10
22.5987
 20
82.0481
 30
0.000000
  70
    32
  0
VERTEX
  8
0
  5
BA7
 10
22.5764
 20
82.0029
 30
0.000000
  70
    32
  0
VERTEX
  8
0
  5
BA8
 10
22.5541
 20
81.9577
 30
0.000000
  70
    32
  0
VERTEX
  8
0
  5
BA9
 10
22.5319
 20
81.9126
 30
0.000000
  70
    32
  0
VERTEX
  8
0
  5
BAA
 10
22.5098
 20
81.8674
 30
0.000000
  70
    32
  0
VERTEX
  8
0
  5
BAB
 10
22.4877
 20
81.8223
 30
0.000000
  70
    32
  0
VERTEX
  8
0
  5
BAC
 10
22.4657
 20
81.7772
 30
0.000000
  70
    32
  0
VERTEX
  8
0
  5
BAD
 10
22.4437
 20
81.7321
 30
0.000000
  70
    32
  0
VERTEX
  8
0
  5
BAE
 10
22.4218
 20
81.6870
 30
0.000000
  70
    32
  0
VERTEX
  8
0
  5
BAF
 10
22.3999
 20
81.6420
 30
0.000000
  70
    32
  0
VERTEX
  8
0
  5
BB0
 10
22.3781
 20
81.5969
 30
0.000000
  70
    32
  0
VERTEX
  8
0
  5
BB1
 10
22.3564
 20
81.5519
 30
0.000000
  70
    32
  0
VERTEX
  8
0
  5
BB2
 10
22.3347
 20
81.5069
 30
0.000000
  70
    32
  0
VERTEX
  8
0
  5
BB3
 10
22.3131
 20
81.4619
 30
0.000000
  70
    32
  0
VERTEX
  8
0
  5
BB4
 10
22.2915
 20
81.4169
 30
0.000000
  70
    32
  0
VERTEX
  8
0
  5
BB5
 10
22.2700
 20
81.3720
 30
0.000000
  70
    32
  0
VERTEX
  8
0
  5
BB6
 10
22.2485
 20
81.3271
 30
0.000000
  70
    32
  0
VERTEX
  8
0
  5
BB7
 10
22.2271
 20
81.2821
 30
0.000000
  70
    32
  0
VERTEX
  8
0
  5
BB8
 10
22.2058
 20
81.2372
 30
0.000000
  70
    32
  0
VERTEX
  8
0
  5
BB9
 10
22.1845
 20
81.1924
 30
0.000000
  70
    32
  0
VERTEX
  8
0
  5
BBA
 10
22.1633
 20
81.1475
 30
0.000000
  70
    32
  0
VERTEX
  8
0
  5
BBB
 10
22.1421
 20
81.1027
 30
0.000000
  70
    32
  0
VERTEX
  8
0
  5
BBC
 10
22.1210
 20
81.0578
 30
0.000000
  70
    32
  0
VERTEX
  8
0
  5
BBD
 10
22.0999
 20
81.0130
 30
0.000000
  70
    32
  0
VERTEX
  8
0
  5
BBE
 10
22.0789
 20
80.9682
 30
0.000000
  70
    32
  0
VERTEX
  8
0
  5
BBF
 10
22.0580
 20
80.9235
 30
0.000000
  70
    32
  0
VERTEX
  8
0
  5
BC0
 10
22.0371
 20
80.8787
 30
0.000000
  70
    32
  0
VERTEX
  8
0
  5
BC1
 10
22.0163
 20
80.8340
 30
0.000000
  70
    32
  0
VERTEX
  8
0
  5
BC2
 10
21.9955
 20
80.7893
 30
0.000000
  70
    32
  0
VERTEX
  8
0
  5
BC3
 10
21.9748
 20
80.7446
 30
0.000000
  70
    32
  0
VERTEX
  8
0
  5
BC4
 10
21.9542
 20
80.6999
 30
0.000000
  70
    32
  0
VERTEX
  8
0
  5
BC5
 10
21.9336
 20
80.6553
 30
0.000000
  70
    32
  0
VERTEX
  8
0
  5
BC6
 10
21.9130
 20
80.6106
 30
0.000000
  70
    32
  0
VERTEX
  8
0
  5
BC7
 10
21.8926
 20
80.5660
 30
0.000000
  70
    32
  0
VERTEX
  8
0
  5
BC8
 10
21.8722
 20
80.5214
 30
0.000000
  70
    32
  0
VERTEX
  8
0
  5
BC9
 10
21.8518
 20
80.4769
 30
0.000000
  70
    32
  0
VERTEX
  8
0
  5
BCA
 10
21.8315
 20
80.4323
 30
0.000000
  70
    32
  0
VERTEX
  8
0
  5
BCB
 10
21.8112
 20
80.3878
 30
0.000000
  70
    32
  0
VERTEX
  8
0
  5
BCC
 10
21.7911
 20
80.3433
 30
0.000000
  70
    32
  0
VERTEX
  8
0
  5
BCD
 10
21.7709
 20
80.2988
 30
0.000000
  70
    32
  0
VERTEX
  8
0
  5
BCE
 10
21.7509
 20
80.2543
 30
0.000000
  70
    32
  0
VERTEX
  8
0
  5
BCF
 10
21.7309
 20
80.2099
 30
0.000000
  70
    32
  0
VERTEX
  8
0
  5
BD0
 10
21.7109
 20
80.1654
 30
0.000000
  70
    32
  0
VERTEX
  8
0
  5
BD1
 10
21.6910
 20
80.1210
 30
0.000000
  70
    32
  0
VERTEX
  8
0
  5
BD2
 10
21.6712
 20
80.0766
 30
0.000000
  70
    32
  0
VERTEX
  8
0
  5
BD3
 10
21.6514
 20
80.0322
 30
0.000000
  70
    32
  0
VERTEX
  8
0
  5
BD4
 10
21.6317
 20
79.9879
 30
0.000000
  70
    32
  0
VERTEX
  8
0
  5
BD5
 10
21.6120
 20
79.9436
 30
0.000000
  70
    32
  0
VERTEX
  8
0
  5
BD6
 10
21.5924
 20
79.8993
 30
0.000000
  70
    32
  0
VERTEX
  8
0
  5
BD7
 10
21.5729
 20
79.8550
 30
0.000000
  70
    32
  0
VERTEX
  8
0
  5
BD8
 10
21.5534
 20
79.8107
 30
0.000000
  70
    32
  0
VERTEX
  8
0
  5
BD9
 10
21.5340
 20
79.7665
 30
0.000000
  70
    32
  0
VERTEX
  8
0
  5
BDA
 10
21.5146
 20
79.7223
 30
0.000000
  70
    32
  0
VERTEX
  8
0
  5
BDB
 10
21.4953
 20
79.6781
 30
0.000000
  70
    32
  0
VERTEX
  8
0
  5
BDC
 10
21.4761
 20
79.6339
 30
0.000000
  70
    32
  0
VERTEX
  8
0
  5
BDD
 10
21.4569
 20
79.5897
 30
0.000000
  70
    32
  0
VERTEX
  8
0
  5
BDE
 10
21.4377
 20
79.5456
 30
0.000000
  70
    32
  0
VERTEX
  8
0
  5
BDF
 10
21.4187
 20
79.5015
 30
0.000000
  70
    32
  0
VERTEX
  8
0
  5
BE0
 10
21.3997
 20
79.4574
 30
0.000000
  70
    32
  0
VERTEX
  8
0
  5
BE1
 10
21.3807
 20
79.4133
 30
0.000000
  70
    32
  0
VERTEX
  8
0
  5
BE2
 10
21.3618
 20
79.3693
 30
0.000000
  70
    32
  0
VERTEX
  8
0
  5
BE3
 10
21.3430
 20
79.3252
 30
0.000000
  70
    32
  0
VERTEX
  8
0
  5
BE4
 10
21.3242
 20
79.2812
 30
0.000000
  70
    32
  0
VERTEX
  8
0
  5
BE5
 10
21.3055
 20
79.2373
 30
0.000000
  70
    32
  0
VERTEX
  8
0
  5
BE6
 10
21.2868
 20
79.1933
 30
0.000000
  70
    32
  0
VERTEX
  8
0
  5
BE7
 10
21.2682
 20
79.1494
 30
0.000000
  70
    32
  0
VERTEX
  8
0
  5
BE8
 10
21.2497
 20
79.1054
 30
0.000000
  70
    32
  0
VERTEX
  8
0
  5
BE9
 10
21.2312
 20
79.0616
 30
0.000000
  70
    32
  0
VERTEX
  8
0
  5
BEA
 10
21.2128
 20
79.0177
 30
0.000000
  70
    32
  0
VERTEX
  8
0
  5
BEB
 10
21.1945
 20
78.9738
 30
0.000000
  70
    32
  0
VERTEX
  8
0
  5
BEC
 10
21.1762
 20
78.9300
 30
0.000000
  70
    32
  0
VERTEX
  8
0
  5
BED
 10
21.1579
 20
78.8862
 30
0.000000
  70
    32
  0
VERTEX
  8
0
  5
BEE
 10
21.1397
 20
78.8425
 30
0.000000
  70
    32
  0
VERTEX
  8
0
  5
BEF
 10
21.1216
 20
78.7987
 30
0.000000
  70
    32
  0
VERTEX
  8
0
  5
BF0
 10
21.1036
 20
78.7550
 30
0.000000
  70
    32
  0
VERTEX
  8
0
  5
BF1
 10
21.0856
 20
78.7113
 30
0.000000
  70
    32
  0
VERTEX
  8
0
  5
BF2
 10
21.0676
 20
78.6676
 30
0.000000
  70
    32
  0
VERTEX
  8
0
  5
BF3
 10
21.0497
 20
78.6239
 30
0.000000
  70
    32
  0
VERTEX
  8
0
  5
BF4
 10
21.0319
 20
78.5803
 30
0.000000
  70
    32
  0
VERTEX
  8
0
  5
BF5
 10
21.0141
 20
78.5367
 30
0.000000
  70
    32
  0
VERTEX
  8
0
  5
BF6
 10
20.9964
 20
78.4931
 30
0.000000
  70
    32
  0
VERTEX
  8
0
  5
BF7
 10
20.9788
 20
78.4495
 30
0.000000
  70
    32
  0
VERTEX
  8
0
  5
BF8
 10
20.9612
 20
78.4060
 30
0.000000
  70
    32
  0
VERTEX
  8
0
  5
BF9
 10
20.9437
 20
78.3625
 30
0.000000
  70
    32
  0
VERTEX
  8
0
  5
BFA
 10
20.9262
 20
78.3190
 30
0.000000
  70
    32
  0
VERTEX
  8
0
  5
BFB
 10
20.9088
 20
78.2755
 30
0.000000
  70
    32
  0
VERTEX
  8
0
  5
BFC
 10
20.8915
 20
78.2321
 30
0.000000
  70
    32
  0
VERTEX
  8
0
  5
BFD
 10
20.8742
 20
78.1887
 30
0.000000
  70
    32
  0
VERTEX
  8
0
  5
BFE
 10
20.8570
 20
78.1453
 30
0.000000
  70
    32
  0
VERTEX
  8
0
  5
BFF
 10
20.8398
 20
78.1019
 30
0.000000
  70
    32
  0
VERTEX
  8
0
  5
C00
 10
20.8227
 20
78.0586
 30
0.000000
  70
    32
  0
VERTEX
  8
0
  5
C01
 10
20.8057
 20
78.0153
 30
0.000000
  70
    32
  0
VERTEX
  8
0
  5
C02
 10
20.7887
 20
77.9720
 30
0.000000
  70
    32
  0
VERTEX
  8
0
  5
C03
 10
20.7718
 20
77.9287
 30
0.000000
  70
    32
  0
VERTEX
  8
0
  5
C04
 10
20.7549
 20
77.8855
 30
0.000000
  70
    32
  0
VERTEX
  8
0
  5
C05
 10
20.7381
 20
77.8423
 30
0.000000
  70
    32
  0
VERTEX
  8
0
  5
C06
 10
20.7214
 20
77.7991
 30
0.000000
  70
    32
  0
VERTEX
  8
0
  5
C07
 10
20.7047
 20
77.7559
 30
0.000000
  70
    32
  0
VERTEX
  8
0
  5
C08
 10
20.6881
 20
77.7128
 30
0.000000
  70
    32
  0
VERTEX
  8
0
  5
C09
 10
20.6716
 20
77.6697
 30
0.000000
  70
    32
  0
VERTEX
  8
0
  5
C0A
 10
20.6551
 20
77.6266
 30
0.000000
  70
    32
  0
VERTEX
  8
0
  5
C0B
 10
20.6386
 20
77.5835
 30
0.000000
  70
    32
  0
VERTEX
  8
0
  5
C0C
 10
20.6223
 20
77.5405
 30
0.000000
  70
    32
  0
VERTEX
  8
0
  5
C0D
 10
20.6059
 20
77.4975
 30
0.000000
  70
    32
  0
VERTEX
  8
0
  5
C0E
 10
20.5897
 20
77.4545
 30
0.000000
  70
    32
  0
VERTEX
  8
0
  5
C0F
 10
20.5735
 20
77.4115
 30
0.000000
  70
    32
  0
VERTEX
  8
0
  5
C10
 10
20.5574
 20
77.3686
 30
0.000000
  70
    32
  0
VERTEX
  8
0
  5
C11
 10
20.5413
 20
77.3257
 30
0.000000
  70
    32
  0
VERTEX
  8
0
  5
C12
 10
20.5253
 20
77.2828
 30
0.000000
  70
    32
  0
VERTEX
  8
0
  5
C13
 10
20.5093
 20
77.2399
 30
0.000000
  70
    32
  0
VERTEX
  8
0
  5
C14
 10
20.4935
 20
77.1971
 30
0.000000
  70
    32
  0
VERTEX
  8
0
  5
C15
 10
20.4776
 20
77.1543
 30
0.000000
  70
    32
  0
VERTEX
  8
0
  5
C16
 10
20.4619
 20
77.1116
 30
0.000000
  70
    32
  0
VERTEX
  8
0
  5
C17
 10
20.4462
 20
77.0688
 30
0.000000
  70
    32
  0
VERTEX
  8
0
  5
C18
 10
20.4305
 20
77.0261
 30
0.000000
  70
    32
  0
SEQEND
  8
0
  5
C19
  0
LINE
  5
3A1
  8
0
 10
79.569487895949806
 20
72.585608135399994
 30
0.0
 11
79.569487895949806
 21
82.682569250600011
 31
0.0
  0
LINE
  5
3A2
  8
0
 10
38.500000023849793
 20
55.299999999999997
 30
0.0
 11
61.50000002384985
 21
55.299999999999997
 31
0.0
  0
LINE
  5
3A3
  8
0
 10
58.999999983149792
 20
85.271684146100014
 30
0.0
 11
41.000000069449811
 21
85.271684146100014
 31
0.0
  0
LINE
  5
3A4
  8
0
 10
44.400000023849827
 20
55.0
 30
0.0
 11
55.600000023849809
 21
55.0
 31
0.0
  0
LINE
  5
5C5
  8
0
 10
41.000000069449811
 20
85.271684146100014
 30
0.0
 11
36.769386764849799
 21
84.998450251400016
 31
0.0
  0
LINE
  5
5C7
  8
0
 10
35.000000023849793
 20
84.726483584100009
 30
0.0
 11
36.769386764849799
 21
84.998450251400016
 31
0.0
  0
LINE
  5
614
  8
1
 10
129.99999997615001
 20
162.01447351507289
 30
0.0
 11
111.74999997615009
 21
193.62440075320481
 31
0.0
  0
LINE
  5
615
  8
1
 10
129.99999997615001
 20
162.01447351507301
 30
0.0
 11
111.74999997614999
 21
130.40454627694081
 31
0.0
  0
LINE
  5
621
  8
2
 10
126.6764999999999
 20
56.200000000000038
 30
0.0
 11
125.4765
 21
55.0
 31
0.0
  0
LINE
  5
622
  8
2
 10
133.3235
 20
56.200000000000038
 30
0.0
 11
134.52350000000001
 21
55.0
 31
0.0
  0
LINE
  5
623
  8
2
 10
133.3235
 20
56.200000000000038
 30
0.0
 11
126.6764999999999
 21
56.199999999999982
 31
0.0
  0
LINE
  5
624
  8
2
 10
126.0
 20
68.0
 30
0.0
 11
126.6764999999999
 21
69.171732371320218
 31
0.0
  0
LINE
  5
625
  8
2
 10
134.0
 20
68.0
 30
0.0
 11
133.32350000000011
 21
69.171732371320218
 31
0.0
  0
LINE
  5
626
  8
2
 10
126.6764999999999
 20
70.0
 30
0.0
 11
133.32350000000011
 21
70.0
 31
0.0
  0
LINE
  5
627
  8
2
 10
126.0
 20
68.0
 30
0.0
 11
134.0
 21
68.0
 31
0.0
  0
LINE
  5
628
  8
2
 10
126.67649999999981
 20
70.0
 30
0.0
 11
130.0
 21
71.996960267338238
 31
0.0
  0
LINE
  5
629
  8
2
 10
133.32350000000019
 20
70.0
 30
0.0
 11
130.0
 21
71.996960267338238
 31
0.0
  0
LINE
  5
62A
  8
2
 10
134.0
 20
55.523500000000062
 30
0.0
 11
134.0
 21
68.0
 31
0.0
  0
LINE
  5
62B
  8
2
 10
133.32350000000011
 20
56.199999999999982
 30
0.0
 11
133.32350000000011
 21
70.0
 31
0.0
  0
LINE
  5
62C
  8
2
 10
126.6764999999999
 20
56.199999999999982
 30
0.0
 11
126.6764999999999
 21
70.0
 31
0.0
  0
LINE
  5
62D
  8
2
 10
126.0
 20
55.523500000000062
 30
0.0
 11
126.0
 21
68.0
 31
0.0
  0
LINE
  5
62F
  8
2
 10
46.676500023849883
 20
56.200000000000038
 30
0.0
 11
45.476500023849887
 21
55.0
 31
0.0
  0
LINE
  5
630
  8
2
 10
53.323500023849931
 20
56.200000000000038
 30
0.0
 11
54.52350002384992
 21
55.0
 31
0.0
  0
LINE
  5
631
  8
2
 10
53.323500023849931
 20
56.200000000000038
 30
0.0
 11
46.676500023849819
 21
56.199999999999982
 31
0.0
  0
LINE
  5
632
  8
2
 10
46.000000023849957
 20
68.0
 30
0.0
 11
46.676500023849883
 21
69.171732371320218
 31
0.0
  0
LINE
  5
633
  8
2
 10
54.000000023849907
 20
68.0
 30
0.0
 11
53.323500023849981
 21
69.171732371320218
 31
0.0
  0
LINE
  5
634
  8
2
 10
46.676500023849819
 20
70.0
 30
0.0
 11
53.323500023849981
 21
70.0
 31
0.0
  0
LINE
  5
635
  8
2
 10
46.0000000238499
 20
68.0
 30
0.0
 11
54.000000023849907
 21
68.0
 31
0.0
  0
LINE
  5
636
  8
2
 10
46.676500023849712
 20
70.0
 30
0.0
 11
50.0000000238499
 21
71.996960267338238
 31
0.0
  0
LINE
  5
637
  8
2
 10
53.323500023850102
 20
70.0
 30
0.0
 11
50.0000000238499
 21
71.996960267338238
 31
0.0
  0
LINE
  5
638
  8
2
 10
54.000000023849907
 20
55.523500000000062
 30
0.0
 11
54.000000023849907
 21
68.0
 31
0.0
  0
LINE
  5
639
  8
2
 10
53.323500023849981
 20
56.199999999999982
 30
0.0
 11
53.323500023849981
 21
70.0
 31
0.0
  0
LINE
  5
63A
  8
2
 10
46.676500023849819
 20
56.199999999999982
 30
0.0
 11
46.676500023849819
 21
70.0
 31
0.0
  0
LINE
  5
63B
  8
2
 10
46.0000000238499
 20
55.523500000000062
 30
0.0
 11
46.0000000238499
 21
68.0
 31
0.0
  0
LINE
  5
63C
  8
2
 10
206.67650002385
 20
56.200000000000031
 30
0.0
 11
205.47650002384989
 21
54.999999999999993
 31
0.0
  0
LINE
  5
63D
  8
2
 10
213.32350002384999
 20
56.200000000000031
 30
0.0
 11
214.52350002384989
 21
54.999999999999993
 31
0.0
  0
LINE
  5
63E
  8
2
 10
213.32350002384999
 20
56.200000000000031
 30
0.0
 11
206.67650002385
 21
56.199999999999967
 31
0.0
  0
LINE
  5
63F
  8
2
 10
206.00000002384999
 20
68.0
 30
0.0
 11
206.67650002385
 21
69.171732371320218
 31
0.0
  0
LINE
  5
640
  8
2
 10
214.00000002384991
 20
68.0
 30
0.0
 11
213.3235000238501
 21
69.171732371320218
 31
0.0
  0
LINE
  5
641
  8
2
 10
206.67650002385
 20
70.0
 30
0.0
 11
213.3235000238501
 21
70.0
 31
0.0
  0
LINE
  5
642
  8
2
 10
206.00000002384991
 20
68.0
 30
0.0
 11
214.00000002384991
 21
68.0
 31
0.0
  0
LINE
  5
643
  8
2
 10
206.67650002384971
 20
70.0
 30
0.0
 11
210.00000002384991
 21
71.996960267338238
 31
0.0
  0
LINE
  5
644
  8
2
 10
213.3235000238501
 20
70.0
 30
0.0
 11
210.00000002384991
 21
71.996960267338238
 31
0.0
  0
LINE
  5
645
  8
2
 10
214.00000002384991
 20
55.523500000000048
 30
0.0
 11
214.00000002384991
 21
68.0
 31
0.0
  0
LINE
  5
646
  8
2
 10
213.3235000238501
 20
56.199999999999967
 30
0.0
 11
213.3235000238501
 21
70.0
 31
0.0
  0
LINE
  5
647
  8
2
 10
206.67650002385
 20
56.199999999999967
 30
0.0
 11
206.67650002385
 21
70.0
 31
0.0
  0
LINE
  5
648
  8
2
 10
206.00000002384991
 20
55.523500000000048
 30
0.0
 11
206.00000002384991
 21
68.0
 31
0.0
  0
LINE
  5
64D
  8
1
 10
129.99999997615009
 20
90.514473515072808
 30
0.0
 11
129.99999997615009
 21
50.0
 31
0.0
  0
LINE
  5
64E
  8
1
 10
50.0
 20
90.514473515072808
 30
0.0
 11
50.0
 21
50.0
 31
0.0
  0
LINE
  5
64F
  8
1
 10
210.0
 20
90.514473515072808
 30
0.0
 11
210.0
 21
50.0
 31
0.0
  0
ENDSEC
  0
EOF
