  0
SECTION
  2
HEADER
  9
$ACADVER
  1
AC1009
  9
$INSBASE
 10
0.0
 20
0.0
 30
0.0
  9
$EXTMIN
 10
0.0
 20
-2.960436562073669
 30
0.0
  9
$EXTMAX
 10
142.5
 20
98.000000000001322
 30
0.0
  9
$LIMMIN
 10
0.0
 20
0.0
  9
$LIMMAX
 10
187.5
 20
135.0
  9
$ORTHOMODE
 70
     1
  9
$REGENMODE
 70
     1
  9
$FILLMODE
 70
     1
  9
$QTEXTMODE
 70
     0
  9
$MIRRTEXT
 70
     0
  9
$DRAGMODE
 70
     2
  9
$LTSCALE
 40
5.0
  9
$OSMODE
 70
    55
  9
$ATTMODE
 70
     1
  9
$TEXTSIZE
 40
5.0
  9
$TRACEWID
 40
0.05
  9
$TEXTSTYLE
  7
STANDARD
  9
$CLAYER
  8
0
  9
$CELTYPE
  6
BYLAYER
  9
$CECOLOR
 62
   256
  9
$DIMSCALE
 40
0.5
  9
$DIMASZ
 40
3.0
  9
$DIMEXO
 40
2.0
  9
$DIMDLI
 40
10.0
  9
$DIMRND
 40
0.0
  9
$DIMDLE
 40
0.0
  9
$DIMEXE
 40
2.0
  9
$DIMTP
 40
0.0
  9
$DIMTM
 40
0.0
  9
$DIMTXT
 40
3.2000000000000002
  9
$DIMCEN
 40
0.0
  9
$DIMTSZ
 40
0.0
  9
$DIMTOL
 70
     0
  9
$DIMLIM
 70
     0
  9
$DIMTIH
 70
     0
  9
$DIMTOH
 70
     0
  9
$DIMSE1
 70
     0
  9
$DIMSE2
 70
     0
  9
$DIMTAD
 70
     1
  9
$DIMZIN
 70
     0
  9
$DIMBLK
  1

  9
$DIMASO
 70
     0
  9
$DIMSHO
 70
     0
  9
$DIMPOST
  1

  9
$DIMAPOST
  1

  9
$DIMALT
 70
     0
  9
$DIMALTD
 70
     2
  9
$DIMALTF
 40
25.399999999999999
  9
$DIMLFAC
 40
1.0
  9
$DIMTOFL
 70
     1
  9
$DIMTVP
 40
1.6000000000000001
  9
$DIMTIX
 70
     1
  9
$DIMSOXD
 70
     0
  9
$DIMSAH
 70
     0
  9
$DIMBLK1
  1

  9
$DIMBLK2
  1

  9
$DIMSTYLE
  2
STANDARD
  9
$DIMCLRD
 70
     0
  9
$DIMCLRE
 70
     0
  9
$DIMCLRT
 70
     0
  9
$DIMTFAC
 40
1.0
  9
$DIMGAP
 40
0.09
  9
$LUNITS
 70
     2
  9
$LUPREC
 70
     4
  9
$SKETCHINC
 40
0.1
  9
$FILLETRAD
 40
0.0
  9
$AUNITS
 70
     0
  9
$AUPREC
 70
     4
  9
$MENU
  1
E:\r13\win\SUPPORT\ACAD
  9
$ELEVATION
 40
0.0
  9
$PELEVATION
 40
0.0
  9
$THICKNESS
 40
0.0
  9
$LIMCHECK
 70
     0
  9
$BLIPMODE
 70
     0
  9
$CHAMFERA
 40
0.0
  9
$CHAMFERB
 40
0.0
  9
$SKPOLY
 70
     0
  9
$TDCREATE
 40
2449839.7794097229
  9
$TDUPDATE
 40
2456598.4232820831
  9
$TDINDWG
 40
0.0000860532
  9
$TDUSRTIMER
 40
0.0000860532
  9
$USRTIMER
 70
     1
  9
$ANGBASE
 50
0.0
  9
$ANGDIR
 70
     0
  9
$PDMODE
 70
    35
  9
$PDSIZE
 40
0.0
  9
$PLINEWID
 40
0.0
  9
$COORDS
 70
     1
  9
$SPLFRAME
 70
     0
  9
$SPLINETYPE
 70
     6
  9
$SPLINESEGS
 70
     8
  9
$ATTDIA
 70
     0
  9
$ATTREQ
 70
     1
  9
$HANDLING
 70
     1
  9
$HANDSEED
  5
23B
  9
$SURFTAB1
 70
     6
  9
$SURFTAB2
 70
     6
  9
$SURFTYPE
 70
     6
  9
$SURFU
 70
     6
  9
$SURFV
 70
     6
  9
$UCSNAME
  2

  9
$UCSORG
 10
0.0
 20
0.0
 30
0.0
  9
$UCSXDIR
 10
1.0
 20
0.0
 30
0.0
  9
$UCSYDIR
 10
0.0
 20
1.0
 30
0.0
  9
$PUCSNAME
  2

  9
$PUCSORG
 10
0.0
 20
0.0
 30
0.0
  9
$PUCSXDIR
 10
1.0
 20
0.0
 30
0.0
  9
$PUCSYDIR
 10
0.0
 20
1.0
 30
0.0
  9
$USERI1
 70
     0
  9
$USERI2
 70
     1
  9
$USERI3
 70
     0
  9
$USERI4
 70
     0
  9
$USERI5
 70
     0
  9
$USERR1
 40
0.0
  9
$USERR2
 40
0.0
  9
$USERR3
 40
0.0
  9
$USERR4
 40
0.0
  9
$USERR5
 40
0.0
  9
$WORLDVIEW
 70
     1
  9
$SHADEDGE
 70
     3
  9
$SHADEDIF
 70
    70
  9
$TILEMODE
 70
     1
  9
$MAXACTVP
 70
    16
  9
$PLIMCHECK
 70
     0
  9
$PEXTMIN
 10
1.0000000000000000E+020
 20
1.0000000000000000E+020
 30
1.0000000000000000E+020
  9
$PEXTMAX
 10
-1.0000000000000000E+020
 20
-1.0000000000000000E+020
 30
-1.0000000000000000E+020
  9
$PLIMMIN
 10
0.0
 20
0.0
  9
$PLIMMAX
 10
12.0
 20
9.0
  9
$UNITMODE
 70
     0
  9
$VISRETAIN
 70
     0
  9
$PLINEGEN
 70
     0
  9
$PSLTSCALE
 70
     0
  0
ENDSEC
  0
SECTION
  2
TABLES
  0
TABLE
  2
VPORT
 70
     1
  0
VPORT
  2
*ACTIVE
 70
     0
 10
0.0
 20
0.0
 11
1.0
 21
1.0
 12
93.74713919532617
 22
98.129098027095807
 13
0.0
 23
0.0
 14
5.0
 24
5.0
 15
5.0
 25
5.0
 16
0.0
 26
0.0
 36
1.0
 17
0.0
 27
0.0
 37
0.0
 40
203.97931595516741
 41
1.7807262569832401
 42
50.0
 43
0.0
 44
0.0
 50
0.0
 51
0.0
 71
     0
 72
   500
 73
     1
 74
     0
 75
     0
 76
     0
 77
     0
 78
     2
  0
ENDTAB
  0
TABLE
  2
LTYPE
 70
     4
  0
LTYPE
  2
CONTINUOUS
 70
     0
  3
Solid Line
 72
    65
 73
     0
 40
0.0
  0
LTYPE
  2
CENTER
 70
     0
  3
____ _ ____ _ ____ _ ____ _ ____ _ ____ _ ____
 72
    65
 73
     4
 40
2.0
 49
1.25
 49
-0.25
 49
0.25
 49
-0.25
  0
LTYPE
  2
HIDDEN
 70
     0
  3
_ _ _ _ _ _ _ _ _ _ _ _ _ _ _ _ _ _ _ _ _ _ _
 72
    65
 73
     2
 40
0.375
 49
0.25
 49
-0.125
  0
LTYPE
  2
PHANTOM2
 70
     0
  3
___ _ _ ___ _ _ ___ _ _ ___ _ _
 72
    65
 73
     6
 40
1.25
 49
0.625
 49
-0.125
 49
0.125
 49
-0.125
 49
0.125
 49
-0.125
  0
ENDTAB
  0
TABLE
  2
LAYER
 70
     3
  0
LAYER
  2
0
 70
     0
 62
     7
  6
CONTINUOUS
  0
LAYER
  2
1
 70
     0
 62
     1
  6
CENTER
  0
LAYER
  2
2
 70
     0
 62
     2
  6
HIDDEN
  0
ENDTAB
  0
TABLE
  2
STYLE
 70
     2
  0
STYLE
  2
STANDARD
 70
     0
 40
0.0
 41
1.0
 50
0.0
 71
     0
 42
5.0
  3
TXT
  4
BIGFONT
  0
STYLE
  2
STANDARD1
 70
     0
 40
0.0
 41
1.0
 50
0.0
 71
     0
 42
3.0
  3
txt
  4

  0
ENDTAB
  0
TABLE
  2
VIEW
 70
     1
  0
VIEW
  2
ALL
 70
     0
 40
135.0
 10
110.4957983193277
 20
67.5
 41
0.0
 11
0.0
 21
0.0
 31
1.0
 12
0.0
 22
0.0
 32
0.0
 42
0.0
 43
0.0
 44
0.0
 50
0.0
 71
     0
  0
ENDTAB
  0
TABLE
  2
UCS
 70
     0
  0
ENDTAB
  0
TABLE
  2
APPID
 70
     3
  0
APPID
  2
ACAD
 70
     0
  0
APPID
  2
ACAD_MLEADERVER
 70
     0
  0
APPID
  2
ACAD_NAV_VCDISPLAY
 70
     0
  0
ENDTAB
  0
TABLE
  2
DIMSTYLE
 70
     1
  0
DIMSTYLE
  2
STANDARD
 70
     0
  3

  4

  5

  6

  7

 40
1.0
 41
0.18
 42
0.0625
 43
0.38
 44
0.18
 45
0.0
 46
0.0
 47
0.0
 48
0.0
140
0.18
141
0.09
142
0.0
143
25.399999999999999
144
1.0
145
0.0
146
1.0
147
0.09
 71
     0
 72
     0
 73
     1
 74
     1
 75
     0
 76
     0
 77
     0
 78
     0
170
     0
171
     2
172
     0
173
     0
174
     0
175
     0
176
     0
177
     0
178
     0
  0
ENDTAB
  0
ENDSEC
  0
SECTION
  2
BLOCKS
  0
BLOCK
  8
0
  2
$MODEL_SPACE
 70
     0
 10
0.0
 20
0.0
 30
0.0
  3
$MODEL_SPACE
  1

  0
ENDBLK
  5
F1
  8
0
  0
BLOCK
 67
     1
  8
0
  2
$PAPER_SPACE
 70
     0
 10
0.0
 20
0.0
 30
0.0
  3
$PAPER_SPACE
  1

  0
ENDBLK
  5
EF
 67
     1
  8
0
  0
ENDSEC
  0
SECTION
  2
ENTITIES
  0
LINE
  5
35
  8
1
 10
77.000000000000057
 20
84.000000000000028
 30
0.0
 11
77.000000000000057
 21
96.000000000000014
 31
0.0
  0
LINE
  5
36
  8
2
 10
75.099999999999952
 20
87.000000000000057
 30
0.0
 11
75.099999999999966
 21
93.000000000000057
 31
0.0
  0
LINE
  5
37
  8
2
 10
78.899999999999935
 20
87.000000000000043
 30
0.0
 11
78.89999999999992
 21
93.0
 31
0.0
  0
LINE
  5
38
  8
2
 10
95.000000000003453
 20
54.0
 30
0.0
 11
95.000000000003453
 21
60.0
 31
0.0
  0
LINE
  5
39
  8
1
 10
100.5000000000034
 20
42.5
 30
0.0
 11
100.5000000000034
 21
62.500000000000028
 31
0.0
  0
LINE
  5
3A
  8
2
 10
106.0000000000032
 20
54.0
 30
0.0
 11
95.000000000003453
 21
54.0
 31
0.0
  0
LINE
  5
3B
  8
2
 10
97.000000000003467
 20
54.0
 30
0.0
 11
97.000000000003467
 21
44.999999999999773
 31
0.0
  0
LINE
  5
3C
  8
2
 10
104.0000000000034
 20
54.0
 30
0.0
 11
104.0000000000032
 21
44.999999999999773
 31
0.0
  0
LINE
  5
3D
  8
2
 10
106.0000000000034
 20
60.0
 30
0.0
 11
106.0000000000032
 21
54.0
 31
0.0
  0
LINE
  5
3E
  8
1
 10
100.5000000000034
 20
98.000000000001322
 30
0.0
 11
100.5000000000034
 21
81.999999999998693
 31
0.0
  0
CIRCLE
  5
3F
  8
0
 10
100.5000000000034
 20
90.000000000000057
 30
0.0
 40
5.500000000001136
  0
CIRCLE
  5
40
  8
0
 10
100.5000000000034
 20
90.000000000000057
 30
0.0
 40
3.5000000000004539
  0
CIRCLE
  5
41
  8
0
 10
88.500000000001194
 20
90.000000000000057
 30
0.0
 40
3.5000000000004539
  0
CIRCLE
  5
42
  8
0
 10
88.500000000001194
 20
90.000000000000057
 30
0.0
 40
5.500000000001136
  0
LINE
  5
43
  8
1
 10
88.500000000001194
 20
98.000000000001194
 30
0.0
 11
88.500000000001194
 21
81.99999999999892
 31
0.0
  0
LINE
  5
44
  8
2
 10
94.000000000000185
 20
60.0
 30
0.0
 11
93.999999999999943
 21
54.0
 31
0.0
  0
LINE
  5
45
  8
2
 10
92.000000000000171
 20
54.0
 30
0.0
 11
91.999999999999929
 21
44.999999999999773
 31
0.0
  0
LINE
  5
46
  8
2
 10
85.000000000000171
 20
54.0
 30
0.0
 11
85.000000000000171
 21
44.999999999999773
 31
0.0
  0
LINE
  5
47
  8
2
 10
93.999999999999943
 20
54.0
 30
0.0
 11
83.000000000000156
 21
54.0
 31
0.0
  0
LINE
  5
48
  8
1
 10
88.500000000000185
 20
42.5
 30
0.0
 11
88.500000000000171
 21
62.500000000000071
 31
0.0
  0
LINE
  5
49
  8
0
 10
72.500000000000057
 20
45.0
 30
0.0
 11
72.499999999999957
 21
59.500000000000107
 31
0.0
  0
LINE
  5
4A
  8
0
 10
107.4999999999999
 20
59.5
 30
0.0
 11
107.4999999999999
 21
44.999999999999879
 31
0.0
  0
CIRCLE
  5
4B
  8
0
 10
77.000000000000057
 20
51.5
 30
0.0
 40
1.8999999999999999
  0
LINE
  5
4C
  8
0
 10
83.000000000000057
 20
60.0
 30
0.0
 11
83.000000000000057
 21
45.0
 31
0.0
  0
LINE
  5
4D
  8
0
 10
106.9999999999999
 20
60.0
 30
0.0
 11
72.999999999999957
 21
60.000000000000107
 31
0.0
  0
LINE
  5
4E
  8
0
 10
83.000000000000057
 20
86.099999999999966
 30
0.0
 11
83.000000000000057
 21
83.000000000000071
 31
0.0
  0
LINE
  5
4F
  8
0
 10
73.000000000000057
 20
93.500000000000085
 30
0.0
 11
82.600000000000051
 21
93.499999999999943
 31
0.0
  0
LINE
  5
50
  8
0
 10
73.000000000000057
 20
86.500000000000071
 30
0.0
 11
82.600000000000051
 21
86.499999999999957
 31
0.0
  0
LINE
  5
51
  8
0
 10
83.500000000000057
 20
82.500000000000071
 30
0.0
 11
106.9999999999999
 21
82.499999999999943
 31
0.0
  0
LINE
  5
52
  8
0
 10
107.4999999999999
 20
97.000000000000156
 30
0.0
 11
107.4999999999999
 21
82.999999999999943
 31
0.0
  0
LINE
  5
53
  8
0
 10
83.000000000000057
 20
97.000000000000014
 30
0.0
 11
83.000000000000057
 21
93.899999999999949
 31
0.0
  0
LINE
  5
54
  8
0
 10
72.500000000000057
 20
87.000000000000085
 30
0.0
 11
72.500000000000057
 21
93.000000000000085
 31
0.0
  0
LINE
  5
55
  8
0
 10
106.9999999999999
 20
97.500000000000142
 30
0.0
 11
83.500000000000057
 21
97.500000000000028
 31
0.0
  0
LINE
  5
56
  8
0
 10
72.500000000000057
 20
45.0
 30
0.0
 11
107.4999999999999
 21
45.0
 31
0.0
  0
LINE
  5
57
  8
1
 10
70.000000000000071
 20
90.0
 30
0.0
 11
109.9999999999999
 21
90.0
 31
0.0
  0
LINE
  5
58
  8
1
 10
81.40000000000002
 20
51.5
 30
0.0
 11
72.599999999999994
 21
51.5
 31
0.0
  0
LINE
  5
59
  8
1
 10
77.000000000000057
 20
55.900000000000063
 30
0.0
 11
77.000000000000057
 21
47.100000000000144
 31
0.0
  0
ARC
  5
5A
  8
0
 10
82.600000000000051
 20
93.899999999999949
 30
0.0
 40
0.4
 50
269.99999999999937
 51
0.0
  0
ARC
  5
5B
  8
0
 10
82.600000000000051
 20
86.099999999999966
 30
0.0
 40
0.4
 50
0.0
 51
89.999999999999389
  0
LINE
  5
5C
  8
0
 10
72.500000000000057
 20
87.000000000000085
 30
0.0
 11
73.000000000000057
 21
86.500000000000071
 31
0.0
  0
LINE
  5
5D
  8
0
 10
72.500000000000057
 20
93.000000000000085
 30
0.0
 11
73.000000000000057
 21
93.500000000000085
 31
0.0
  0
LINE
  5
5E
  8
0
 10
83.500000000000057
 20
97.500000000000028
 30
0.0
 11
83.000000000000057
 21
97.000000000000014
 31
0.0
  0
LINE
  5
5F
  8
0
 10
106.9999999999999
 20
97.500000000000142
 30
0.0
 11
107.4999999999999
 21
97.000000000000156
 31
0.0
  0
LINE
  5
60
  8
0
 10
107.4999999999999
 20
82.999999999999943
 30
0.0
 11
106.9999999999999
 21
82.499999999999943
 31
0.0
  0
LINE
  5
61
  8
0
 10
83.500000000000057
 20
82.500000000000071
 30
0.0
 11
83.000000000000057
 21
83.000000000000071
 31
0.0
  0
LINE
  5
62
  8
0
 10
72.999999999999957
 20
60.000000000000107
 30
0.0
 11
72.499999999999957
 21
59.500000000000107
 31
0.0
  0
LINE
  5
63
  8
0
 10
106.9999999999999
 20
60.0
 30
0.0
 11
107.4999999999999
 21
59.5
 31
0.0
  0
LINE
  5
64
  8
2
 10
75.099999999999952
 20
87.000000000000057
 30
0.0
 11
78.899999999999935
 21
87.000000000000043
 31
0.0
  0
LINE
  5
65
  8
2
 10
75.099999999999966
 20
93.000000000000057
 30
0.0
 11
78.89999999999992
 21
93.0
 31
0.0
  0
LINE
  5
66
  8
2
 10
78.899999999999935
 20
93.0
 30
0.0
 11
79.399999999999906
 21
93.499999999999972
 31
0.0
  0
LINE
  5
67
  8
2
 10
75.100000000000179
 20
93.0
 30
0.0
 11
74.600000000000207
 21
93.499999999999972
 31
0.0
  0
LINE
  5
68
  8
2
 10
75.100000000000179
 20
87.0
 30
0.0
 11
74.600000000000207
 21
86.500000000000028
 31
0.0
  0
LINE
  5
69
  8
2
 10
78.899999999999935
 20
87.0
 30
0.0
 11
79.399999999999906
 21
86.500000000000028
 31
0.0
  0
LINE
  5
6A
  8
0
 10
127.5
 20
45.0
 30
0.0
 11
127.5
 21
59.5
 31
0.0
  0
LINE
  5
6B
  8
0
 10
128.0
 20
60.0
 30
0.0
 11
142.0
 21
60.0
 31
0.0
  0
LINE
  5
6C
  8
0
 10
142.5
 20
59.5
 30
0.0
 11
142.5
 21
45.0
 31
0.0
  0
LINE
  5
6D
  8
0
 10
142.5
 20
45.0
 30
0.0
 11
127.5
 21
45.0
 31
0.0
  0
LINE
  5
6E
  8
0
 10
128.0
 20
60.0
 30
0.0
 11
127.5
 21
59.5
 31
0.0
  0
LINE
  5
6F
  8
0
 10
142.0
 20
60.0
 30
0.0
 11
142.5
 21
59.5
 31
0.0
  0
LINE
  5
70
  8
1
 10
135.0
 20
65.0
 30
0.0
 11
135.0
 21
40.0
 31
0.0
  0
LINE
  5
71
  8
2
 10
140.5
 20
59.999999999999972
 30
0.0
 11
140.4999999999998
 21
53.999999999999972
 31
0.0
  0
LINE
  5
72
  8
2
 10
138.5
 20
53.999999999999972
 30
0.0
 11
138.4999999999998
 21
44.999999999999737
 31
0.0
  0
LINE
  5
73
  8
2
 10
131.5
 20
53.999999999999972
 30
0.0
 11
131.5
 21
44.999999999999737
 31
0.0
  0
LINE
  5
74
  8
2
 10
140.4999999999998
 20
53.999999999999972
 30
0.0
 11
129.5
 21
53.999999999999972
 31
0.0
  0
LINE
  5
75
  8
2
 10
129.5
 20
53.999999999999972
 30
0.0
 11
129.5
 21
59.999999999999972
 31
0.0
  0
LINE
  5
76
  8
0
 10
37.500000000000007
 20
45.0
 30
0.0
 11
37.500000000000007
 21
59.5
 31
0.0
  0
LINE
  5
77
  8
0
 10
38.000000000000007
 20
60.0
 30
0.0
 11
52.000000000000007
 21
60.0
 31
0.0
  0
LINE
  5
78
  8
0
 10
52.5
 20
59.5
 30
0.0
 11
52.5
 21
45.0
 31
0.0
  0
LINE
  5
79
  8
0
 10
52.5
 20
45.0
 30
0.0
 11
37.500000000000007
 21
45.0
 31
0.0
  0
LINE
  5
7A
  8
1
 10
45.0
 20
62.5
 30
0.0
 11
45.0
 21
42.5
 31
0.0
  0
LINE
  5
7B
  8
0
 10
38.000000000000007
 20
60.0
 30
0.0
 11
37.500000000000007
 21
59.5
 31
0.0
  0
LINE
  5
7C
  8
0
 10
52.000000000000007
 20
60.0
 30
0.0
 11
52.5
 21
59.5
 31
0.0
  0
LINE
  5
7D
  8
0
 10
41.500000000000007
 20
59.5
 30
0.0
 11
41.500000000000007
 21
45.0
 31
0.0
  0
LINE
  5
7E
  8
0
 10
48.500000000000007
 20
59.5
 30
0.0
 11
48.500000000000007
 21
45.0
 31
0.0
  0
LINE
  5
7F
  8
0
 10
42.000000000000007
 20
60.0
 30
0.0
 11
41.500000000000007
 21
59.5
 31
0.0
  0
LINE
  5
80
  8
0
 10
48.0
 20
60.0
 30
0.0
 11
48.500000000000007
 21
59.5
 31
0.0
  0
LINE
  5
81
  8
1
 10
51.000000000000007
 20
51.5
 30
0.0
 11
39.000000000000007
 21
51.5
 31
0.0
  0
LINE
  5
82
  8
2
 10
48.000000000000227
 20
49.599999999999902
 30
0.0
 11
42.000000000000227
 21
49.599999999999909
 31
0.0
  0
LINE
  5
83
  8
2
 10
48.000000000000249
 20
53.399999999999878
 30
0.0
 11
42.000000000000291
 21
53.399999999999856
 31
0.0
  0
LINE
  5
84
  8
2
 10
48.000000000000227
 20
49.599999999999902
 30
0.0
 11
48.000000000000249
 21
53.399999999999878
 31
0.0
  0
LINE
  5
85
  8
2
 10
42.000000000000227
 20
49.599999999999909
 30
0.0
 11
42.000000000000291
 21
53.399999999999856
 31
0.0
  0
LINE
  5
86
  8
2
 10
42.000000000000291
 20
53.399999999999878
 30
0.0
 11
41.50000000000032
 21
53.899999999999849
 31
0.0
  0
LINE
  5
87
  8
2
 10
42.000000000000291
 20
49.600000000000122
 30
0.0
 11
41.50000000000032
 21
49.100000000000151
 31
0.0
  0
LINE
  5
88
  8
2
 10
48.000000000000291
 20
49.600000000000122
 30
0.0
 11
48.500000000000263
 21
49.100000000000151
 31
0.0
  0
LINE
  5
89
  8
2
 10
48.000000000000291
 20
53.399999999999878
 30
0.0
 11
48.500000000000263
 21
53.899999999999849
 31
0.0
  0
TEXT
  5
1A4
  8
0
 62
     3
 10
0.0
 20
0.0
 30
0.0
 40
10.0
  1
TB35
  7
STANDARD1
  0
ENDSEC
  0
EOF
