  0
SECTION
  2
HEADER
  9
$ACADVER
  1
AC1009
  9
$INSBASE
 10
0.0
 20
0.0
 30
0.0
  9
$EXTMIN
 10
0.0
 20
-2.960436562073669
 30
0.0
  9
$EXTMAX
 10
172.5
 20
107.5000000000007
 30
0.0
  9
$LIMMIN
 10
0.0
 20
0.0
  9
$LIMMAX
 10
187.5
 20
135.0
  9
$ORTHOMODE
 70
     1
  9
$REGENMODE
 70
     1
  9
$FILLMODE
 70
     1
  9
$QTEXTMODE
 70
     0
  9
$MIRRTEXT
 70
     0
  9
$DRAGMODE
 70
     2
  9
$LTSCALE
 40
5.0
  9
$OSMODE
 70
    55
  9
$ATTMODE
 70
     1
  9
$TEXTSIZE
 40
5.0
  9
$TRACEWID
 40
0.05
  9
$TEXTSTYLE
  7
STANDARD
  9
$CLAYER
  8
0
  9
$CELTYPE
  6
BYLAYER
  9
$CECOLOR
 62
   256
  9
$DIMSCALE
 40
0.5
  9
$DIMASZ
 40
3.0
  9
$DIMEXO
 40
2.0
  9
$DIMDLI
 40
10.0
  9
$DIMRND
 40
0.0
  9
$DIMDLE
 40
0.0
  9
$DIMEXE
 40
2.0
  9
$DIMTP
 40
0.0
  9
$DIMTM
 40
0.0
  9
$DIMTXT
 40
3.2000000000000002
  9
$DIMCEN
 40
0.0
  9
$DIMTSZ
 40
0.0
  9
$DIMTOL
 70
     0
  9
$DIMLIM
 70
     0
  9
$DIMTIH
 70
     0
  9
$DIMTOH
 70
     0
  9
$DIMSE1
 70
     0
  9
$DIMSE2
 70
     0
  9
$DIMTAD
 70
     1
  9
$DIMZIN
 70
     0
  9
$DIMBLK
  1

  9
$DIMASO
 70
     0
  9
$DIMSHO
 70
     0
  9
$DIMPOST
  1

  9
$DIMAPOST
  1

  9
$DIMALT
 70
     0
  9
$DIMALTD
 70
     2
  9
$DIMALTF
 40
25.399999999999999
  9
$DIMLFAC
 40
1.0
  9
$DIMTOFL
 70
     1
  9
$DIMTVP
 40
1.6000000000000001
  9
$DIMTIX
 70
     1
  9
$DIMSOXD
 70
     0
  9
$DIMSAH
 70
     0
  9
$DIMBLK1
  1

  9
$DIMBLK2
  1

  9
$DIMSTYLE
  2
STANDARD
  9
$DIMCLRD
 70
     0
  9
$DIMCLRE
 70
     0
  9
$DIMCLRT
 70
     0
  9
$DIMTFAC
 40
1.0
  9
$DIMGAP
 40
0.09
  9
$LUNITS
 70
     2
  9
$LUPREC
 70
     4
  9
$SKETCHINC
 40
0.1
  9
$FILLETRAD
 40
0.0
  9
$AUNITS
 70
     0
  9
$AUPREC
 70
     4
  9
$MENU
  1
E:\r13\win\SUPPORT\ACAD
  9
$ELEVATION
 40
0.0
  9
$PELEVATION
 40
0.0
  9
$THICKNESS
 40
0.0
  9
$LIMCHECK
 70
     0
  9
$BLIPMODE
 70
     0
  9
$CHAMFERA
 40
0.0
  9
$CHAMFERB
 40
0.0
  9
$SKPOLY
 70
     0
  9
$TDCREATE
 40
2449839.7794444449
  9
$TDUPDATE
 40
2456598.4233286688
  9
$TDINDWG
 40
0.0000837037
  9
$TDUSRTIMER
 40
0.0000837037
  9
$USRTIMER
 70
     1
  9
$ANGBASE
 50
0.0
  9
$ANGDIR
 70
     0
  9
$PDMODE
 70
    35
  9
$PDSIZE
 40
0.0
  9
$PLINEWID
 40
0.0
  9
$COORDS
 70
     1
  9
$SPLFRAME
 70
     0
  9
$SPLINETYPE
 70
     6
  9
$SPLINESEGS
 70
     8
  9
$ATTDIA
 70
     0
  9
$ATTREQ
 70
     1
  9
$HANDLING
 70
     1
  9
$HANDSEED
  5
23C
  9
$SURFTAB1
 70
     6
  9
$SURFTAB2
 70
     6
  9
$SURFTYPE
 70
     6
  9
$SURFU
 70
     6
  9
$SURFV
 70
     6
  9
$UCSNAME
  2

  9
$UCSORG
 10
0.0
 20
0.0
 30
0.0
  9
$UCSXDIR
 10
1.0
 20
0.0
 30
0.0
  9
$UCSYDIR
 10
0.0
 20
1.0
 30
0.0
  9
$PUCSNAME
  2

  9
$PUCSORG
 10
0.0
 20
0.0
 30
0.0
  9
$PUCSXDIR
 10
1.0
 20
0.0
 30
0.0
  9
$PUCSYDIR
 10
0.0
 20
1.0
 30
0.0
  9
$USERI1
 70
     0
  9
$USERI2
 70
     1
  9
$USERI3
 70
     0
  9
$USERI4
 70
     0
  9
$USERI5
 70
     0
  9
$USERR1
 40
0.0
  9
$USERR2
 40
0.0
  9
$USERR3
 40
0.0
  9
$USERR4
 40
0.0
  9
$USERR5
 40
0.0
  9
$WORLDVIEW
 70
     1
  9
$SHADEDGE
 70
     3
  9
$SHADEDIF
 70
    70
  9
$TILEMODE
 70
     1
  9
$MAXACTVP
 70
    16
  9
$PLIMCHECK
 70
     0
  9
$PEXTMIN
 10
1.0000000000000000E+020
 20
1.0000000000000000E+020
 30
1.0000000000000000E+020
  9
$PEXTMAX
 10
-1.0000000000000000E+020
 20
-1.0000000000000000E+020
 30
-1.0000000000000000E+020
  9
$PLIMMIN
 10
0.0
 20
0.0
  9
$PLIMMAX
 10
12.0
 20
9.0
  9
$UNITMODE
 70
     0
  9
$VISRETAIN
 70
     0
  9
$PLINEGEN
 70
     0
  9
$PSLTSCALE
 70
     0
  0
ENDSEC
  0
SECTION
  2
TABLES
  0
TABLE
  2
VPORT
 70
     1
  0
VPORT
  2
*ACTIVE
 70
     0
 10
0.0
 20
0.0
 11
1.0
 21
1.0
 12
93.74713919532617
 22
98.129098027095807
 13
0.0
 23
0.0
 14
5.0
 24
5.0
 15
5.0
 25
5.0
 16
0.0
 26
0.0
 36
1.0
 17
0.0
 27
0.0
 37
0.0
 40
203.97931595516741
 41
1.7807262569832401
 42
50.0
 43
0.0
 44
0.0
 50
0.0
 51
0.0
 71
     0
 72
   500
 73
     1
 74
     0
 75
     0
 76
     0
 77
     0
 78
     2
  0
ENDTAB
  0
TABLE
  2
LTYPE
 70
     4
  0
LTYPE
  2
CONTINUOUS
 70
     0
  3
Solid Line
 72
    65
 73
     0
 40
0.0
  0
LTYPE
  2
CENTER
 70
     0
  3
____ _ ____ _ ____ _ ____ _ ____ _ ____ _ ____
 72
    65
 73
     4
 40
2.0
 49
1.25
 49
-0.25
 49
0.25
 49
-0.25
  0
LTYPE
  2
HIDDEN
 70
     0
  3
_ _ _ _ _ _ _ _ _ _ _ _ _ _ _ _ _ _ _ _ _ _ _
 72
    65
 73
     2
 40
0.375
 49
0.25
 49
-0.125
  0
LTYPE
  2
PHANTOM2
 70
     0
  3
___ _ _ ___ _ _ ___ _ _ ___ _ _
 72
    65
 73
     6
 40
1.25
 49
0.625
 49
-0.125
 49
0.125
 49
-0.125
 49
0.125
 49
-0.125
  0
ENDTAB
  0
TABLE
  2
LAYER
 70
     3
  0
LAYER
  2
0
 70
     0
 62
     7
  6
CONTINUOUS
  0
LAYER
  2
1
 70
     0
 62
     1
  6
CENTER
  0
LAYER
  2
2
 70
     0
 62
     2
  6
HIDDEN
  0
ENDTAB
  0
TABLE
  2
STYLE
 70
     2
  0
STYLE
  2
STANDARD
 70
     0
 40
0.0
 41
1.0
 50
0.0
 71
     0
 42
5.0
  3
TXT
  4
BIGFONT
  0
STYLE
  2
STANDARD1
 70
     0
 40
0.0
 41
1.0
 50
0.0
 71
     0
 42
3.0
  3
txt
  4

  0
ENDTAB
  0
TABLE
  2
VIEW
 70
     1
  0
VIEW
  2
ALL
 70
     0
 40
135.0
 10
110.4957983193277
 20
67.5
 41
0.0
 11
0.0
 21
0.0
 31
1.0
 12
0.0
 22
0.0
 32
0.0
 42
0.0
 43
0.0
 44
0.0
 50
0.0
 71
     0
  0
ENDTAB
  0
TABLE
  2
UCS
 70
     0
  0
ENDTAB
  0
TABLE
  2
APPID
 70
     3
  0
APPID
  2
ACAD
 70
     0
  0
APPID
  2
ACAD_MLEADERVER
 70
     0
  0
APPID
  2
ACAD_NAV_VCDISPLAY
 70
     0
  0
ENDTAB
  0
TABLE
  2
DIMSTYLE
 70
     1
  0
DIMSTYLE
  2
STANDARD
 70
     0
  3

  4

  5

  6

  7

 40
1.0
 41
0.18
 42
0.0625
 43
0.38
 44
0.18
 45
0.0
 46
0.0
 47
0.0
 48
0.0
140
0.18
141
0.09
142
0.0
143
25.399999999999999
144
1.0
145
0.0
146
1.0
147
0.09
 71
     0
 72
     0
 73
     1
 74
     1
 75
     0
 76
     0
 77
     0
 78
     0
170
     0
171
     2
172
     0
173
     0
174
     0
175
     0
176
     0
177
     0
178
     0
  0
ENDTAB
  0
ENDSEC
  0
SECTION
  2
BLOCKS
  0
BLOCK
  8
0
  2
$MODEL_SPACE
 70
     0
 10
0.0
 20
0.0
 30
0.0
  3
$MODEL_SPACE
  1

  0
ENDBLK
  5
F2
  8
0
  0
BLOCK
 67
     1
  8
0
  2
$PAPER_SPACE
 70
     0
 10
0.0
 20
0.0
 30
0.0
  3
$PAPER_SPACE
  1

  0
ENDBLK
  5
F0
 67
     1
  8
0
  0
ENDSEC
  0
SECTION
  2
ENTITIES
  0
LINE
  5
35
  8
2
 10
75.150000000000318
 20
101.10000000000031
 30
0.0
 11
75.650000000000318
 21
101.60000000000031
 31
0.0
  0
LINE
  5
36
  8
2
 10
75.150000000000205
 20
88.900000000000276
 30
0.0
 11
75.650000000000205
 21
88.400000000000261
 31
0.0
  0
LINE
  5
37
  8
2
 10
69.850000000000023
 20
88.900000000000276
 30
0.0
 11
69.350000000000023
 21
88.400000000000261
 31
0.0
  0
LINE
  5
38
  8
2
 10
69.350000000000136
 20
101.60000000000031
 30
0.0
 11
69.850000000000136
 21
101.10000000000031
 31
0.0
  0
LINE
  5
39
  8
2
 10
69.85000000000025
 20
88.900000000000318
 30
0.0
 11
75.150000000000318
 21
88.900000000000318
 31
0.0
  0
LINE
  5
3A
  8
2
 10
69.850000000000136
 20
101.10000000000031
 30
0.0
 11
75.150000000000318
 21
101.10000000000031
 31
0.0
  0
LINE
  5
3B
  8
0
 10
124.5000000000002
 20
60.000000000000028
 30
0.0
 11
125.0000000000002
 21
59.500000000000021
 31
0.0
  0
LINE
  5
3C
  8
0
 10
65.5
 20
60.000000000000078
 30
0.0
 11
65.0
 21
59.500000000000092
 31
0.0
  0
LINE
  5
3D
  8
0
 10
82.000000000000114
 20
82.500000000000512
 30
0.0
 11
81.500000000000114
 21
83.000000000000526
 31
0.0
  0
LINE
  5
3E
  8
0
 10
124.9999999999999
 20
83.000000000000625
 30
0.0
 11
124.4999999999999
 21
82.500000000000625
 31
0.0
  0
LINE
  5
3F
  8
0
 10
124.5000000000001
 20
107.5000000000007
 30
0.0
 11
125.0000000000001
 21
107.0000000000007
 31
0.0
  0
LINE
  5
40
  8
0
 10
81.500000000000114
 20
107.0000000000004
 30
0.0
 11
82.000000000000114
 21
107.5000000000004
 31
0.0
  0
LINE
  5
41
  8
0
 10
65.0
 20
101.10000000000031
 30
0.0
 11
65.5
 21
101.60000000000031
 31
0.0
  0
LINE
  5
42
  8
0
 10
65.0
 20
88.900000000000276
 30
0.0
 11
65.5
 21
88.400000000000261
 31
0.0
  0
ARC
  5
43
  8
0
 10
81.100000000000023
 20
88.000000000000341
 30
0.0
 40
0.4
 50
0.0
 51
90.0
  0
ARC
  5
44
  8
0
 10
81.100000000000136
 20
102.0000000000003
 30
0.0
 40
0.4
 50
270.0
 51
0.0
  0
LINE
  5
45
  8
1
 10
72.500000000000227
 20
85.900000000000304
 30
0.0
 11
72.500000000000114
 21
104.10000000000031
 31
0.0
  0
LINE
  5
46
  8
2
 10
69.850000000000023
 20
88.900000000000276
 30
0.0
 11
69.850000000000136
 21
101.10000000000031
 31
0.0
  0
LINE
  5
47
  8
2
 10
75.150000000000205
 20
88.900000000000276
 30
0.0
 11
75.150000000000318
 21
101.10000000000031
 31
0.0
  0
LINE
  5
48
  8
2
 10
84.250000000000455
 20
60.000000000000199
 30
0.0
 11
84.250000000000341
 21
50.000000000000199
 31
0.0
  0
LINE
  5
49
  8
2
 10
104.2500000000001
 20
50.000000000000199
 30
0.0
 11
104.2500000000002
 21
60.000000000000199
 31
0.0
  0
LINE
  5
4A
  8
1
 10
113.0000000000001
 20
32.500000000000021
 30
0.0
 11
113.0000000000001
 21
62.500000000000043
 31
0.0
  0
LINE
  5
4B
  8
2
 10
121.75
 20
60.000000000000199
 30
0.0
 11
121.7500000000001
 21
50.000000000000199
 31
0.0
  0
LINE
  5
4C
  8
2
 10
118.5000000000001
 20
50.000000000000199
 30
0.0
 11
118.5000000000001
 21
35.000000000000028
 31
0.0
  0
LINE
  5
4D
  8
2
 10
107.5000000000001
 20
50.000000000000199
 30
0.0
 11
107.5000000000001
 21
35.000000000000028
 31
0.0
  0
LINE
  5
4E
  8
2
 10
121.7500000000001
 20
50.000000000000199
 30
0.0
 11
104.2500000000001
 21
50.000000000000199
 31
0.0
  0
LINE
  5
4F
  8
1
 10
113.0000000000001
 20
106.2500000000005
 30
0.0
 11
113.0000000000001
 21
83.750000000000256
 31
0.0
  0
CIRCLE
  5
50
  8
0
 10
113.0000000000001
 20
95.000000000000327
 30
0.0
 40
8.75
  0
CIRCLE
  5
51
  8
0
 10
113.0000000000001
 20
95.000000000000327
 30
0.0
 40
5.5
  0
CIRCLE
  5
52
  8
0
 10
93.000000000000114
 20
95.000000000000327
 30
0.0
 40
5.5
  0
CIRCLE
  5
53
  8
0
 10
93.000000000000114
 20
95.000000000000327
 30
0.0
 40
8.75
  0
LINE
  5
54
  8
1
 10
93.000000000000085
 20
106.2500000000003
 30
0.0
 11
93.000000000000085
 21
83.750000000000426
 31
0.0
  0
LINE
  5
55
  8
2
 10
101.7500000000001
 20
50.000000000000199
 30
0.0
 11
84.250000000000114
 21
50.000000000000199
 31
0.0
  0
LINE
  5
56
  8
2
 10
87.500000000000114
 20
50.000000000000199
 30
0.0
 11
87.500000000000114
 21
35.000000000000028
 31
0.0
  0
LINE
  5
57
  8
2
 10
98.500000000000114
 20
50.000000000000199
 30
0.0
 11
98.500000000000114
 21
35.000000000000028
 31
0.0
  0
LINE
  5
58
  8
2
 10
101.75
 20
60.000000000000199
 30
0.0
 11
101.7500000000001
 21
50.000000000000199
 31
0.0
  0
LINE
  5
59
  8
1
 10
93.000000000000114
 20
32.5
 30
0.0
 11
93.000000000000114
 21
62.500000000000057
 31
0.0
  0
LINE
  5
5A
  8
0
 10
81.500000000000227
 20
60.000000000000028
 30
0.0
 11
81.500000000000227
 21
35.000000000000028
 31
0.0
  0
LINE
  5
5B
  8
0
 10
125.0000000000002
 20
59.500000000000021
 30
0.0
 11
125.0000000000002
 21
35.000000000000028
 31
0.0
  0
LINE
  5
5C
  8
0
 10
65.0
 20
59.500000000000092
 30
0.0
 11
65.000000000000213
 21
34.999999999999957
 31
0.0
  0
CIRCLE
  5
5D
  8
0
 10
72.500000000000227
 20
45.000000000000021
 30
0.0
 40
2.649999999999999
  0
LINE
  5
5E
  8
0
 10
124.5000000000002
 20
60.000000000000028
 30
0.0
 11
65.5
 21
60.000000000000078
 31
0.0
  0
LINE
  5
5F
  8
0
 10
81.5
 20
88.000000000000341
 30
0.0
 11
81.500000000000114
 21
83.000000000000526
 31
0.0
  0
LINE
  5
60
  8
0
 10
65.5
 20
101.60000000000031
 30
0.0
 11
81.100000000000136
 21
101.60000000000031
 31
0.0
  0
LINE
  5
61
  8
0
 10
65.5
 20
88.400000000000261
 30
0.0
 11
81.100000000000023
 21
88.400000000000304
 31
0.0
  0
LINE
  5
62
  8
0
 10
82.000000000000114
 20
82.500000000000512
 30
0.0
 11
124.4999999999999
 21
82.500000000000625
 31
0.0
  0
LINE
  5
63
  8
0
 10
125.0000000000001
 20
107.0000000000007
 30
0.0
 11
124.9999999999999
 21
83.000000000000625
 31
0.0
  0
LINE
  5
64
  8
0
 10
65.0
 20
101.10000000000031
 30
0.0
 11
65.0
 21
88.900000000000276
 31
0.0
  0
LINE
  5
65
  8
0
 10
81.500000000000114
 20
107.0000000000004
 30
0.0
 11
81.500000000000114
 21
102.0000000000003
 31
0.0
  0
LINE
  5
66
  8
0
 10
124.5000000000001
 20
107.5000000000007
 30
0.0
 11
82.000000000000114
 21
107.5000000000004
 31
0.0
  0
LINE
  5
67
  8
0
 10
125.0000000000002
 20
35.000000000000028
 30
0.0
 11
65.000000000000213
 21
34.999999999999957
 31
0.0
  0
LINE
  5
68
  8
1
 10
77.650000000000233
 20
45.000000000000021
 30
0.0
 11
67.350000000000222
 21
45.000000000000021
 31
0.0
  0
LINE
  5
69
  8
1
 10
72.500000000000227
 20
50.150000000000013
 30
0.0
 11
72.500000000000227
 21
39.850000000000051
 31
0.0
  0
LINE
  5
6A
  8
1
 10
62.5
 20
95.000000000000327
 30
0.0
 11
127.5
 21
94.999999999999673
 31
0.0
  0
LINE
  5
72
  8
0
 10
147.5
 20
35.0
 30
0.0
 11
147.5
 21
59.5
 31
0.0
  0
LINE
  5
73
  8
0
 10
148.0
 20
60.0
 30
0.0
 11
172.0
 21
60.0
 31
0.0
  0
LINE
  5
74
  8
0
 10
172.5
 20
59.5
 30
0.0
 11
172.5
 21
35.0
 31
0.0
  0
LINE
  5
75
  8
0
 10
172.5
 20
35.0
 30
0.0
 11
147.5
 21
35.0
 31
0.0
  0
LINE
  5
76
  8
0
 10
148.0
 20
60.0
 30
0.0
 11
147.5
 21
59.5
 31
0.0
  0
LINE
  5
77
  8
0
 10
172.0
 20
60.0
 30
0.0
 11
172.5
 21
59.5
 31
0.0
  0
LINE
  5
78
  8
1
 10
160.0
 20
62.5
 30
0.0
 11
160.0
 21
32.5
 31
0.0
  0
LINE
  5
79
  8
1
 10
30.000000000000458
 20
62.5
 30
0.0
 11
30.000000000000458
 21
32.5
 31
0.0
  0
LINE
  5
7A
  8
0
 10
18.000000000000451
 20
60.0
 30
0.0
 11
17.500000000000451
 21
59.5
 31
0.0
  0
LINE
  5
7B
  8
0
 10
42.000000000000448
 20
60.0
 30
0.0
 11
42.500000000000448
 21
59.5
 31
0.0
  0
LINE
  5
7C
  8
0
 10
17.500000000000451
 20
35.0
 30
0.0
 11
42.500000000000448
 21
35.0
 31
0.0
  0
LINE
  5
7D
  8
0
 10
17.500000000000451
 20
59.5
 30
0.0
 11
17.500000000000451
 21
35.0
 31
0.0
  0
LINE
  5
7E
  8
0
 10
42.000000000000448
 20
60.0
 30
0.0
 11
18.000000000000451
 21
60.0
 31
0.0
  0
LINE
  5
7F
  8
0
 10
42.500000000000448
 20
35.0
 30
0.0
 11
42.500000000000448
 21
59.5
 31
0.0
  0
LINE
  5
80
  8
2
 10
168.75
 20
50.000000000000149
 30
0.0
 11
151.25
 21
50.000000000000149
 31
0.0
  0
LINE
  5
81
  8
2
 10
154.5
 20
50.000000000000149
 30
0.0
 11
154.5
 21
34.999999999999979
 31
0.0
  0
LINE
  5
82
  8
2
 10
165.5
 20
50.000000000000149
 30
0.0
 11
165.5
 21
34.999999999999979
 31
0.0
  0
LINE
  5
83
  8
2
 10
168.74999999999989
 20
60.000000000000149
 30
0.0
 11
168.75
 21
50.000000000000149
 31
0.0
  0
LINE
  5
84
  8
2
 10
151.25
 20
50.000000000000149
 30
0.0
 11
151.25000000000011
 21
60.000000000000149
 31
0.0
  0
LINE
  5
85
  8
0
 10
23.399999999999689
 20
59.5
 30
0.0
 11
23.399999999999689
 21
35.0
 31
0.0
  0
LINE
  5
86
  8
0
 10
23.899999999999689
 20
60.0
 30
0.0
 11
23.399999999999689
 21
59.5
 31
0.0
  0
LINE
  5
87
  8
0
 10
36.100000000001216
 20
60.0
 30
0.0
 11
36.600000000001216
 21
59.5
 31
0.0
  0
LINE
  5
88
  8
0
 10
36.600000000001216
 20
59.5
 30
0.0
 11
36.600000000001216
 21
35.0
 31
0.0
  0
LINE
  5
89
  8
2
 10
23.8999999999997
 20
47.650000000000119
 30
0.0
 11
23.3999999999997
 21
48.150000000000112
 31
0.0
  0
LINE
  5
8A
  8
2
 10
36.099999999999739
 20
47.649999999999999
 30
0.0
 11
36.599999999999739
 21
48.150000000000013
 31
0.0
  0
LINE
  5
8B
  8
2
 10
36.099999999999739
 20
42.349999999999817
 30
0.0
 11
36.599999999999739
 21
41.849999999999817
 31
0.0
  0
LINE
  5
8C
  8
2
 10
23.399999999999689
 20
41.849999999999937
 30
0.0
 11
23.899999999999689
 21
42.349999999999937
 31
0.0
  0
LINE
  5
8D
  8
2
 10
36.099999999999682
 20
42.350000000000051
 30
0.0
 11
36.099999999999682
 21
47.650000000000119
 31
0.0
  0
LINE
  5
8E
  8
2
 10
23.899999999999689
 20
42.349999999999937
 30
0.0
 11
23.8999999999997
 21
47.650000000000119
 31
0.0
  0
LINE
  5
8F
  8
1
 10
39.100000000001216
 20
45.000000000000007
 30
0.0
 11
20.899999999999689
 21
44.999999999999922
 31
0.0
  0
LINE
  5
90
  8
2
 10
36.099999999999739
 20
42.349999999999817
 30
0.0
 11
23.899999999999689
 21
42.349999999999937
 31
0.0
  0
LINE
  5
91
  8
2
 10
36.099999999999739
 20
47.649999999999999
 30
0.0
 11
23.8999999999997
 21
47.650000000000119
 31
0.0
  0
TEXT
  5
1A5
  8
0
 62
     3
 10
0.0
 20
0.0
 30
0.0
 40
10.0
  1
TB50
  7
STANDARD1
  0
ENDSEC
  0
EOF
