  0
SECTION
  2
HEADER
  9
$ACADVER
  1
AC1009
  9
$INSBASE
 10
0.0
 20
0.0
 30
0.0
  9
$EXTMIN
 10
0.0
 20
-2.960436562073669
 30
0.0
  9
$EXTMAX
 10
200.36879521117839
 20
209.2116391048842
 30
0.0
  9
$LIMMIN
 10
0.0
 20
0.0
  9
$LIMMAX
 10
420.0
 20
297.0
  9
$ORTHOMODE
 70
     1
  9
$REGENMODE
 70
     1
  9
$FILLMODE
 70
     1
  9
$QTEXTMODE
 70
     0
  9
$MIRRTEXT
 70
     0
  9
$DRAGMODE
 70
     2
  9
$LTSCALE
 40
5.0
  9
$OSMODE
 70
    37
  9
$ATTMODE
 70
     1
  9
$TEXTSIZE
 40
2.5
  9
$TRACEWID
 40
1.0
  9
$TEXTSTYLE
  7
STANDARD
  9
$CLAYER
  8
0
  9
$CELTYPE
  6
BYLAYER
  9
$CECOLOR
 62
   256
  9
$DIMSCALE
 40
1.0
  9
$DIMASZ
 40
2.5
  9
$DIMEXO
 40
0.625
  9
$DIMDLI
 40
3.75
  9
$DIMRND
 40
0.0
  9
$DIMDLE
 40
0.0
  9
$DIMEXE
 40
1.25
  9
$DIMTP
 40
0.0
  9
$DIMTM
 40
0.0
  9
$DIMTXT
 40
2.5
  9
$DIMCEN
 40
2.5
  9
$DIMTSZ
 40
0.0
  9
$DIMTOL
 70
     0
  9
$DIMLIM
 70
     0
  9
$DIMTIH
 70
     0
  9
$DIMTOH
 70
     0
  9
$DIMSE1
 70
     0
  9
$DIMSE2
 70
     0
  9
$DIMTAD
 70
     1
  9
$DIMZIN
 70
     8
  9
$DIMBLK
  1

  9
$DIMASO
 70
     1
  9
$DIMSHO
 70
     1
  9
$DIMPOST
  1

  9
$DIMAPOST
  1

  9
$DIMALT
 70
     0
  9
$DIMALTD
 70
     3
  9
$DIMALTF
 40
0.03937007874016
  9
$DIMLFAC
 40
1.0
  9
$DIMTOFL
 70
     1
  9
$DIMTVP
 40
0.0
  9
$DIMTIX
 70
     0
  9
$DIMSOXD
 70
     0
  9
$DIMSAH
 70
     0
  9
$DIMBLK1
  1

  9
$DIMBLK2
  1

  9
$DIMSTYLE
  2
ISO-25
  9
$DIMCLRD
 70
     0
  9
$DIMCLRE
 70
     0
  9
$DIMCLRT
 70
     0
  9
$DIMTFAC
 40
1.0
  9
$DIMGAP
 40
0.625
  9
$LUNITS
 70
     2
  9
$LUPREC
 70
     4
  9
$SKETCHINC
 40
1.0
  9
$FILLETRAD
 40
0.0
  9
$AUNITS
 70
     0
  9
$AUPREC
 70
     0
  9
$MENU
  1
.
  9
$ELEVATION
 40
0.0
  9
$PELEVATION
 40
0.0
  9
$THICKNESS
 40
0.0
  9
$LIMCHECK
 70
     0
  9
$BLIPMODE
 70
     0
  9
$CHAMFERA
 40
0.0
  9
$CHAMFERB
 40
0.0
  9
$SKPOLY
 70
     0
  9
$TDCREATE
 40
2454979.4917406249
  9
$TDUPDATE
 40
2456776.5875623492
  9
$TDINDWG
 40
0.1601667361
  9
$TDUSRTIMER
 40
0.1601665625
  9
$USRTIMER
 70
     1
  9
$ANGBASE
 50
0.0
  9
$ANGDIR
 70
     0
  9
$PDMODE
 70
     0
  9
$PDSIZE
 40
0.0
  9
$PLINEWID
 40
0.0
  9
$COORDS
 70
     1
  9
$SPLFRAME
 70
     0
  9
$SPLINETYPE
 70
     6
  9
$SPLINESEGS
 70
     8
  9
$ATTDIA
 70
     0
  9
$ATTREQ
 70
     1
  9
$HANDLING
 70
     1
  9
$HANDSEED
  5
1DE2
  9
$SURFTAB1
 70
     6
  9
$SURFTAB2
 70
     6
  9
$SURFTYPE
 70
     6
  9
$SURFU
 70
     6
  9
$SURFV
 70
     6
  9
$UCSNAME
  2

  9
$UCSORG
 10
0.0
 20
0.0
 30
0.0
  9
$UCSXDIR
 10
1.0
 20
0.0
 30
0.0
  9
$UCSYDIR
 10
0.0
 20
1.0
 30
0.0
  9
$PUCSNAME
  2

  9
$PUCSORG
 10
0.0
 20
0.0
 30
0.0
  9
$PUCSXDIR
 10
1.0
 20
0.0
 30
0.0
  9
$PUCSYDIR
 10
0.0
 20
1.0
 30
0.0
  9
$USERI1
 70
     0
  9
$USERI2
 70
     0
  9
$USERI3
 70
     0
  9
$USERI4
 70
     0
  9
$USERI5
 70
     0
  9
$USERR1
 40
0.0
  9
$USERR2
 40
0.0
  9
$USERR3
 40
0.0
  9
$USERR4
 40
0.0
  9
$USERR5
 40
0.0
  9
$WORLDVIEW
 70
     1
  9
$SHADEDGE
 70
     3
  9
$SHADEDIF
 70
    70
  9
$TILEMODE
 70
     1
  9
$MAXACTVP
 70
    64
  9
$PLIMCHECK
 70
     0
  9
$PEXTMIN
 10
0.0
 20
0.0
 30
0.0
  9
$PEXTMAX
 10
0.0
 20
0.0
 30
0.0
  9
$PLIMMIN
 10
0.0
 20
0.0
  9
$PLIMMAX
 10
12.0
 20
9.0
  9
$UNITMODE
 70
     0
  9
$VISRETAIN
 70
     1
  9
$PLINEGEN
 70
     0
  9
$PSLTSCALE
 70
     1
  0
ENDSEC
  0
SECTION
  2
TABLES
  0
TABLE
  2
VPORT
 70
     1
  0
VPORT
  2
*ACTIVE
 70
     0
 10
0.0
 20
0.0
 11
1.0
 21
1.0
 12
235.63977746870651
 22
135.0
 13
0.0
 23
0.0
 14
10.0
 24
10.0
 15
10.0
 25
10.0
 16
0.0
 26
0.0
 36
1.0
 17
0.0
 27
0.0
 37
0.0
 40
270.0
 41
1.7454798331015291
 42
50.0
 43
0.0
 44
0.0
 50
0.0
 51
0.0
 71
     0
 72
  1000
 73
     1
 74
     3
 75
     0
 76
     0
 77
     0
 78
     0
  0
ENDTAB
  0
TABLE
  2
LTYPE
 70
     2
  0
LTYPE
  2
CONTINUOUS
 70
     0
  3
Solid line
 72
    65
 73
     0
 40
0.0
  0
LTYPE
  2
CENTER
 70
     0
  3
____ _ ____ _ ____ _ ____ _ ____ _ ____ _ ____
 72
    65
 73
     4
 40
2.0
 49
1.25
 49
-0.25
 49
0.25
 49
-0.25
  0
ENDTAB
  0
TABLE
  2
LAYER
 70
     3
  0
LAYER
  2
0
 70
     0
 62
     7
  6
CONTINUOUS
  0
LAYER
  2
1
 70
     0
 62
     1
  6
CENTER
  0
LAYER
  2
3
 70
     0
 62
     3
  6
CONTINUOUS
  0
ENDTAB
  0
TABLE
  2
STYLE
 70
     2
  0
STYLE
  2
STANDARD
 70
     0
 40
0.0
 41
1.0
 50
0.0
 71
     0
 42
2.5
  3
txt
  4

  0
STYLE
  2
STANDARD1
 70
     0
 40
0.0
 41
1.0
 50
0.0
 71
     0
 42
3.0
  3
txt
  4

  0
ENDTAB
  0
TABLE
  2
VIEW
 70
     0
  0
ENDTAB
  0
TABLE
  2
UCS
 70
     0
  0
ENDTAB
  0
TABLE
  2
APPID
 70
     5
  0
APPID
  2
ACAD
 70
     0
  0
APPID
  2
ACAD_MLEADERVER
 70
     0
  0
APPID
  2
ACAD_NAV_VCDISPLAY
 70
     0
  0
APPID
  2
ACAD_EXEMPT_FROM_CAD_STANDARDS
 70
     0
  0
APPID
  2
ACADANNOTATIVE
 70
     0
  0
ENDTAB
  0
TABLE
  2
DIMSTYLE
 70
     2
  0
DIMSTYLE
  2
ISO-25
 70
     0
  3

  4

  5

  6

  7

 40
1.0
 41
2.5
 42
0.625
 43
3.75
 44
1.25
 45
0.0
 46
0.0
 47
0.0
 48
0.0
140
2.5
141
2.5
142
0.0
143
0.03937007874016
144
1.0
145
0.0
146
1.0
147
0.625
 71
     0
 72
     0
 73
     0
 74
     0
 75
     0
 76
     0
 77
     1
 78
     8
170
     0
171
     3
172
     1
173
     0
174
     0
175
     0
176
     0
177
     0
178
     0
  0
DIMSTYLE
  2
STANDARD
 70
     0
  3

  4

  5

  6

  7

 40
1.0
 41
0.18
 42
0.0625
 43
0.38
 44
0.18
 45
0.0
 46
0.0
 47
0.0
 48
0.0
140
0.18
141
0.09
142
0.0
143
25.399999999999999
144
1.0
145
0.0
146
1.0
147
0.09
 71
     0
 72
     0
 73
     1
 74
     1
 75
     0
 76
     0
 77
     0
 78
     0
170
     0
171
     2
172
     0
173
     0
174
     0
175
     0
176
     0
177
     0
178
     0
  0
ENDTAB
  0
ENDSEC
  0
SECTION
  2
BLOCKS
  0
BLOCK
  8
0
  2
$MODEL_SPACE
 70
     0
 10
0.0
 20
0.0
 30
0.0
  3
$MODEL_SPACE
  1

  0
ENDBLK
  5
21
  8
0
  0
BLOCK
 67
     1
  8
0
  2
$PAPER_SPACE
 70
     0
 10
0.0
 20
0.0
 30
0.0
  3
$PAPER_SPACE
  1

  0
ENDBLK
  5
53
 67
     1
  8
0
  0
ENDSEC
  0
SECTION
  2
ENTITIES
  0
TEXT
  5
749
  8
0
 62
     3
 10
0.0
 20
0.0
 30
0.0
 40
10.0
  1
TBKF12X80
  7
STANDARD1
  0
LINE
  5
1BBC
  8
1
 10
90.368795211178394
 20
149.2116391048842
 30
0.0
 11
90.368795211178394
 21
41.211639104884192
 31
0.0
  0
LINE
  5
1BBD
  8
1
 10
35.368795211178387
 20
134.2116391048842
 30
0.0
 11
145.36879521117839
 21
134.2116391048842
 31
0.0
  0
LINE
  5
1BBE
  8
0
 10
86.768795211178386
 20
54.825998458829098
 30
0.0
 11
86.768795211178386
 21
50.711639104884199
 31
0.0
  0
LINE
  5
1BBF
  8
0
 10
93.968795211178417
 20
50.711639104884199
 30
0.0
 11
93.968795211178417
 21
54.825998458829098
 31
0.0
  0
ARC
  5
1BC0
  8
0
 10
90.368795211178394
 20
52.211639104884199
 30
0.0
 40
5.9999999999999991
 50
228.18968510422411
 51
311.81031489577589
  0
LINE
  5
1BC1
  8
0
 10
86.368795211178394
 20
50.711639104884199
 30
0.0
 11
86.368795211178394
 21
47.739503149884612
 31
0.0
  0
LINE
  5
1BC2
  8
0
 10
94.368795211178394
 20
47.739503149884612
 30
0.0
 11
94.368795211178394
 21
50.711639104884199
 31
0.0
  0
LINE
  5
1BC3
  8
0
 10
94.368795211178394
 20
47.739503149884612
 30
0.0
 11
86.368795211178394
 21
47.739503149884612
 31
0.0
  0
LINE
  5
1BC4
  8
0
 10
94.368795211178394
 20
50.711639104884199
 30
0.0
 11
86.368795211178394
 21
50.711639104884199
 31
0.0
  0
LINE
  5
1BC5
  8
0
 10
140.36879521117839
 20
138.7116391048842
 30
0.0
 11
139.86879521117839
 21
139.2116391048842
 31
0.0
  0
LINE
  5
1BC6
  8
0
 10
139.86879521117839
 20
129.2116391048842
 30
0.0
 11
140.36879521117839
 21
129.7116391048842
 31
0.0
  0
LINE
  5
1BC7
  8
0
 10
140.36879521117839
 20
138.7116391048842
 30
0.0
 11
140.36879521117839
 21
129.7116391048842
 31
0.0
  0
LINE
  5
1BC8
  8
0
 10
40.868795211178387
 20
129.2116391048842
 30
0.0
 11
80.376973158330145
 21
129.2116391048842
 31
0.0
  0
LINE
  5
1BC9
  8
0
 10
80.372642217973635
 20
139.2116391048842
 30
0.0
 11
40.868795211178387
 21
139.2116391048842
 31
0.0
  0
LINE
  5
1BCA
  8
0
 10
40.368795211178387
 20
129.7116391048842
 30
0.0
 11
40.868795211178387
 21
129.2116391048842
 31
0.0
  0
LINE
  5
1BCB
  8
0
 10
40.868795211178387
 20
139.2116391048842
 30
0.0
 11
40.368795211178387
 21
138.7116391048842
 31
0.0
  0
LINE
  5
1BCC
  8
0
 10
40.868795211178387
 20
139.2116391048842
 30
0.0
 11
40.868795211178387
 21
129.2116391048842
 31
0.0
  0
LINE
  5
1BCD
  8
0
 10
40.368795211178387
 20
138.7116391048842
 30
0.0
 11
40.368795211178387
 21
129.7116391048842
 31
0.0
  0
LINE
  5
1BCE
  8
0
 10
100.3649482043831
 20
129.2116391048842
 30
0.0
 11
139.86879521117839
 21
129.2116391048842
 31
0.0
  0
LINE
  5
1BCF
  8
0
 10
139.86879521117839
 20
139.2116391048842
 30
0.0
 11
100.3606172640266
 21
139.2116391048842
 31
0.0
  0
LINE
  5
1BD0
  8
0
 10
139.86879521117839
 20
139.2116391048842
 30
0.0
 11
139.86879521117839
 21
129.2116391048842
 31
0.0
  0
LINE
  5
1BD1
  8
0
 10
93.968795211178417
 20
54.825998458829098
 30
0.0
 11
96.368795211178394
 21
56.211639104884213
 31
0.0
  0
LINE
  5
1BD2
  8
0
 10
84.368795211178394
 20
56.211639104884213
 30
0.0
 11
86.768795211178386
 21
54.825998458829098
 31
0.0
  0
LINE
  5
1BD3
  8
0
 10
93.968795211178417
 20
54.825998458829098
 30
0.0
 11
86.768795211178386
 21
54.825998458829098
 31
0.0
  0
LINE
  5
1BD4
  8
0
 10
84.368795211178394
 20
126.2116391048842
 30
0.0
 11
84.368795211178394
 21
56.211639104884213
 31
0.0
  0
LINE
  5
1BD5
  8
0
 10
96.368795211178394
 20
56.211639104884213
 30
0.0
 11
96.368795211178394
 21
126.2116391048842
 31
0.0
  0
LINE
  5
1BD6
  8
0
 10
96.368795211178394
 20
56.211639104884213
 30
0.0
 11
84.368795211178394
 21
56.211639104884213
 31
0.0
  0
LINE
  5
1BD7
  8
0
 10
81.075901992364948
 20
144.2116391048842
 30
0.0
 11
80.368795211178394
 21
143.5045323236977
 31
0.0
  0
LINE
  5
1BD8
  8
0
 10
100.36879521117839
 20
143.5045323236977
 30
0.0
 11
99.661688429991841
 21
144.2116391048842
 31
0.0
  0
LINE
  5
1BD9
  8
0
 10
99.661688429991841
 20
144.2116391048842
 30
0.0
 11
81.075901992364948
 21
144.2116391048842
 31
0.0
  0
LINE
  5
1BDA
  8
0
 10
99.661688429991841
 20
126.2116391048842
 30
0.0
 11
100.36879521117839
 21
126.9187458860707
 31
0.0
  0
LINE
  5
1BDB
  8
0
 10
80.368795211178394
 20
126.9187458860707
 30
0.0
 11
81.075901992364948
 21
126.2116391048842
 31
0.0
  0
LINE
  5
1BDC
  8
0
 10
99.661688429991841
 20
126.2116391048842
 30
0.0
 11
81.075901992364948
 21
126.2116391048842
 31
0.0
  0
LINE
  5
1BDD
  8
0
 10
80.368795211178394
 20
143.5045323236977
 30
0.0
 11
80.368795211178394
 21
139.20389775239539
 31
0.0
  0
LINE
  5
1BDE
  8
0
 10
80.368795211178394
 20
129.22803176520219
 30
0.0
 11
80.368795211178394
 21
126.9187458860707
 31
0.0
  0
LINE
  5
1BDF
  8
0
 10
100.36879521117839
 20
126.9187458860707
 30
0.0
 11
100.36879521117839
 21
129.21938045737289
 31
0.0
  0
LINE
  5
1BE0
  8
0
 10
100.36879521117839
 20
139.1952464445661
 30
0.0
 11
100.36879521117839
 21
143.5045323236977
 31
0.0
  0
LINE
  5
1BE1
  8
0
 10
100.36879521117839
 20
126.9187458860707
 30
0.0
 11
80.368795211178394
 21
126.9187458860707
 31
0.0
  0
POLYLINE
  5
1BE2
  8
0
 66
     1
 10
0.0
 20
0.0
 30
0.0
  0
VERTEX
  5
1DB4
  8
0
 10
100.36879521061191
 20
139.21163910375111
 30
0.0
  0
VERTEX
  5
1DB5
  8
0
 10
100.36443663240431
 20
139.2029162382166
 30
0.0
  0
VERTEX
  5
1DB6
  8
0
 10
100.3147054527843
 20
139.10256238521501
 30
0.0
  0
VERTEX
  5
1DB7
  8
0
 10
100.2102386212179
 20
138.88646620254349
 30
0.0
  0
VERTEX
  5
1DB8
  8
0
 10
100.0633383907348
 20
138.56872155306931
 30
0.0
  0
VERTEX
  5
1DB9
  8
0
 10
99.880869419838064
 20
138.1460457629521
 30
0.0
  0
VERTEX
  5
1DBA
  8
0
 10
99.667360464983474
 20
137.59739098286809
 30
0.0
  0
VERTEX
  5
1DBB
  8
0
 10
99.449450154853594
 20
136.9426268760198
 30
0.0
  0
VERTEX
  5
1DBC
  8
0
 10
99.250346962356446
 20
136.18190850495461
 30
0.0
  0
VERTEX
  5
1DBD
  8
0
 10
99.100095776634376
 20
135.3232188655542
 30
0.0
  0
VERTEX
  5
1DBE
  8
0
 10
99.034560700588543
 20
134.52065612294561
 30
0.0
  0
VERTEX
  5
1DBF
  8
0
 10
99.045495515547714
 20
133.6776651618469
 30
0.0
  0
VERTEX
  5
1DC0
  8
0
 10
99.118306718002103
 20
132.96506315130571
 30
0.0
  0
VERTEX
  5
1DC1
  8
0
 10
99.244656003731507
 20
132.26718421757471
 30
0.0
  0
VERTEX
  5
1DC2
  8
0
 10
99.412919119347535
 20
131.60469122156999
 30
0.0
  0
VERTEX
  5
1DC3
  8
0
 10
99.608442456601907
 20
130.99122279330871
 30
0.0
  0
VERTEX
  5
1DC4
  8
0
 10
99.829369875330443
 20
130.40342784813959
 30
0.0
  0
VERTEX
  5
1DC5
  8
0
 10
100.04006493437311
 20
129.9065888079906
 30
0.0
  0
VERTEX
  5
1DC6
  8
0
 10
100.2113880616793
 20
129.53439269051461
 30
0.0
  0
VERTEX
  5
1DC7
  8
0
 10
100.32822121370511
 20
129.29328914785521
 30
0.0
  0
VERTEX
  5
1DC8
  8
0
 10
100.36821056401941
 20
129.2128085017699
 30
0.0
  0
VERTEX
  5
1DC9
  8
0
 10
100.36879521049249
 20
129.21163910625589
 30
0.0
  0
SEQEND
  5
1DCA
  8
0
  0
LINE
  5
1BE3
  8
0
 10
100.36879521117839
 20
143.5045323236977
 30
0.0
 11
80.368795211178394
 21
143.5045323236977
 31
0.0
  0
POLYLINE
  5
1BE4
  8
0
 66
     1
 10
0.0
 20
0.0
 30
0.0
  0
VERTEX
  5
1DCB
  8
0
 10
80.368795211744896
 20
129.2116391060172
 30
0.0
  0
VERTEX
  5
1DCC
  8
0
 10
80.373153789952482
 20
129.22036197155171
 30
0.0
  0
VERTEX
  5
1DCD
  8
0
 10
80.422884969572465
 20
129.32071582455339
 30
0.0
  0
VERTEX
  5
1DCE
  8
0
 10
80.527351801138877
 20
129.5368120072248
 30
0.0
  0
VERTEX
  5
1DCF
  8
0
 10
80.674252031622004
 20
129.854556656699
 30
0.0
  0
VERTEX
  5
1DD0
  8
0
 10
80.856721002518725
 20
130.2772324468163
 30
0.0
  0
VERTEX
  5
1DD1
  8
0
 10
81.070229957373328
 20
130.82588722690031
 30
0.0
  0
VERTEX
  5
1DD2
  8
0
 10
81.288140267503195
 20
131.48065133374851
 30
0.0
  0
VERTEX
  5
1DD3
  8
0
 10
81.487243460000343
 20
132.24136970481371
 30
0.0
  0
VERTEX
  5
1DD4
  8
0
 10
81.637494645722427
 20
133.1000593442142
 30
0.0
  0
VERTEX
  5
1DD5
  8
0
 10
81.703029721768246
 20
133.90262208682279
 30
0.0
  0
VERTEX
  5
1DD6
  8
0
 10
81.692094906809075
 20
134.74561304792141
 30
0.0
  0
VERTEX
  5
1DD7
  8
0
 10
81.6192837043547
 20
135.45821505846271
 30
0.0
  0
VERTEX
  5
1DD8
  8
0
 10
81.492934418625282
 20
136.1560939921936
 30
0.0
  0
VERTEX
  5
1DD9
  8
0
 10
81.324671303009268
 20
136.81858698819829
 30
0.0
  0
VERTEX
  5
1DDA
  8
0
 10
81.129147965754896
 20
137.43205541645969
 30
0.0
  0
VERTEX
  5
1DDB
  8
0
 10
80.90822054702636
 20
138.0198503616287
 30
0.0
  0
VERTEX
  5
1DDC
  8
0
 10
80.697525487983626
 20
138.5166894017778
 30
0.0
  0
VERTEX
  5
1DDD
  8
0
 10
80.526202360677416
 20
138.88888551925379
 30
0.0
  0
VERTEX
  5
1DDE
  8
0
 10
80.409369208651626
 20
139.12998906191311
 30
0.0
  0
VERTEX
  5
1DDF
  8
0
 10
80.369379858337354
 20
139.2104697079985
 30
0.0
  0
VERTEX
  5
1DE0
  8
0
 10
80.368795211864267
 20
139.21163910351251
 30
0.0
  0
SEQEND
  5
1DE1
  8
0
  0
LINE
  5
1BE5
  8
1
 10
180.36879521117839
 20
134.2116391048842
 30
0.0
 11
200.36879521117839
 21
134.2116391048842
 31
0.0
  0
LINE
  5
1BE6
  8
1
 10
190.36879521117831
 20
149.2116391048842
 30
0.0
 11
190.36879521117839
 21
41.211639104884192
 31
0.0
  0
LINE
  5
1BE7
  8
0
 10
186.76879521117829
 20
54.825998458829098
 30
0.0
 11
186.76879521117829
 21
50.711639104884199
 31
0.0
  0
LINE
  5
1BE8
  8
0
 10
193.96879521117839
 20
50.711639104884199
 30
0.0
 11
193.96879521117839
 21
54.825998458829098
 31
0.0
  0
LINE
  5
1BE9
  8
0
 10
194.36879521117839
 20
50.711639104884199
 30
0.0
 11
186.36879521117839
 21
50.711639104884199
 31
0.0
  0
LINE
  5
1BEA
  8
0
 10
186.36879521117839
 20
50.711639104884199
 30
0.0
 11
186.36879521117839
 21
47.739503149884627
 31
0.0
  0
LINE
  5
1BEB
  8
0
 10
194.36879521117839
 20
47.739503149884627
 30
0.0
 11
194.36879521117839
 21
50.711639104884199
 31
0.0
  0
LINE
  5
1BEC
  8
0
 10
194.36879521117839
 20
47.739503149884627
 30
0.0
 11
186.36879521117839
 21
47.739503149884627
 31
0.0
  0
ARC
  5
1BED
  8
0
 10
190.36879521117839
 20
52.211639104884199
 30
0.0
 40
5.9999999999999991
 50
228.18968510422411
 51
311.81031489577589
  0
LINE
  5
1BEE
  8
0
 10
184.36879521117839
 20
126.2116391048842
 30
0.0
 11
184.36879521117839
 21
56.211639104884192
 31
0.0
  0
LINE
  5
1BEF
  8
0
 10
196.36879521117839
 20
56.211639104884192
 30
0.0
 11
196.36879521117839
 21
126.2116391048842
 31
0.0
  0
LINE
  5
1BF0
  8
0
 10
193.96879521117839
 20
54.825998458829098
 30
0.0
 11
186.76879521117829
 21
54.825998458829098
 31
0.0
  0
LINE
  5
1BF1
  8
0
 10
196.36879521117839
 20
56.211639104884192
 30
0.0
 11
184.36879521117839
 21
56.211639104884192
 31
0.0
  0
LINE
  5
1BF2
  8
0
 10
193.96879521117839
 20
54.825998458829098
 30
0.0
 11
196.36879521117839
 21
56.211639104884192
 31
0.0
  0
LINE
  5
1BF3
  8
0
 10
184.36879521117839
 20
56.211639104884192
 30
0.0
 11
186.76879521117829
 21
54.825998458829098
 31
0.0
  0
LINE
  5
1BF4
  8
0
 10
199.66168842999181
 20
126.2116391048842
 30
0.0
 11
181.07590199236489
 21
126.2116391048842
 31
0.0
  0
LINE
  5
1BF5
  8
0
 10
199.66168842999181
 20
126.2116391048842
 30
0.0
 11
200.36879521117839
 21
126.9187458860707
 31
0.0
  0
LINE
  5
1BF6
  8
0
 10
180.36879521117839
 20
126.9187458860707
 30
0.0
 11
181.07590199236489
 21
126.2116391048842
 31
0.0
  0
LINE
  5
1BF7
  8
0
 10
200.36879521117839
 20
126.9187458860707
 30
0.0
 11
180.36879521117839
 21
126.9187458860707
 31
0.0
  0
LINE
  5
1BF8
  8
0
 10
180.36879521117839
 20
143.5045323236977
 30
0.0
 11
180.36879521117839
 21
126.9187458860707
 31
0.0
  0
LINE
  5
1BF9
  8
0
 10
200.36879521117839
 20
126.9187458860707
 30
0.0
 11
200.36879521117839
 21
143.5045323236977
 31
0.0
  0
LINE
  5
1BFA
  8
0
 10
200.36879521117839
 20
143.5045323236977
 30
0.0
 11
180.36879521117839
 21
143.5045323236977
 31
0.0
  0
LINE
  5
1BFB
  8
0
 10
199.66168842999181
 20
144.2116391048842
 30
0.0
 11
181.07590199236489
 21
144.2116391048842
 31
0.0
  0
LINE
  5
1BFC
  8
0
 10
181.07590199236489
 20
144.2116391048842
 30
0.0
 11
180.36879521117839
 21
143.5045323236977
 31
0.0
  0
LINE
  5
1BFD
  8
0
 10
200.36879521117839
 20
143.5045323236977
 30
0.0
 11
199.66168842999181
 21
144.2116391048842
 31
0.0
  0
CIRCLE
  5
1BFF
  8
0
 10
190.36879521117839
 20
134.2116391048842
 30
0.0
 40
5.0000000000000044
  0
LINE
  5
1C00
  8
1
 10
90.368795211178394
 20
179.2116391048842
 30
0.0
 11
90.368795211178394
 21
209.2116391048842
 31
0.0
  0
LINE
  5
1C01
  8
1
 10
35.368795211178387
 20
194.2116391048842
 30
0.0
 11
145.36879521117839
 21
194.2116391048842
 31
0.0
  0
LINE
  5
1C02
  8
0
 10
40.368795211178387
 20
198.7116391048842
 30
0.0
 11
40.368795211178387
 21
189.7116391048842
 31
0.0
  0
LINE
  5
1C03
  8
0
 10
40.368795211178387
 20
189.7116391048842
 30
0.0
 11
40.868795211178387
 21
189.2116391048842
 31
0.0
  0
LINE
  5
1C04
  8
0
 10
40.868795211178387
 20
199.2116391048842
 30
0.0
 11
40.368795211178387
 21
198.7116391048842
 31
0.0
  0
LINE
  5
1C05
  8
0
 10
40.868795211178387
 20
199.2116391048842
 30
0.0
 11
40.868795211178387
 21
189.2116391048842
 31
0.0
  0
LINE
  5
1C06
  8
0
 10
40.868795211178387
 20
189.2116391048842
 30
0.0
 11
81.706486418796828
 21
189.2116391048842
 31
0.0
  0
LINE
  5
1C07
  8
0
 10
81.708541173334027
 20
199.2116391048842
 30
0.0
 11
40.868795211178387
 21
199.2116391048842
 31
0.0
  0
LINE
  5
1C08
  8
0
 10
140.36879521117839
 20
198.7116391048842
 30
0.0
 11
140.36879521117839
 21
189.7116391048842
 31
0.0
  0
LINE
  5
1C09
  8
0
 10
140.36879521117839
 20
198.7116391048842
 30
0.0
 11
139.86879521117839
 21
199.2116391048842
 31
0.0
  0
LINE
  5
1C0A
  8
0
 10
139.86879521117839
 20
189.2116391048842
 30
0.0
 11
140.36879521117839
 21
189.7116391048842
 31
0.0
  0
LINE
  5
1C0B
  8
0
 10
139.86879521117839
 20
199.2116391048842
 30
0.0
 11
139.86879521117839
 21
189.2116391048842
 31
0.0
  0
LINE
  5
1C0C
  8
0
 10
99.031104003559975
 20
189.2116391048842
 30
0.0
 11
139.86879521117839
 21
189.2116391048842
 31
0.0
  0
LINE
  5
1C0D
  8
0
 10
139.86879521117839
 20
199.2116391048842
 30
0.0
 11
99.029049249022762
 21
199.2116391048842
 31
0.0
  0
CIRCLE
  5
1C0E
  8
0
 10
90.368795211178394
 20
194.2116391048842
 30
0.0
 40
10.0
  0
LINE
  5
1C21
  8
3
 10
195.29529521117831
 20
55.591853590909118
 30
0.0
 11
195.29529521117831
 21
106.2116391048842
 31
0.0
  0
LINE
  5
1C22
  8
0
 10
196.36879521117839
 20
106.2116391048842
 30
0.0
 11
184.36879521117839
 21
106.2116391048842
 31
0.0
  0
LINE
  5
1C23
  8
3
 10
185.4422952111783
 20
55.591853590909118
 30
0.0
 11
185.44229521117839
 21
106.2116391048842
 31
0.0
  0
LINE
  5
1C24
  8
3
 10
185.44229521117839
 20
106.2116391048842
 30
0.0
 11
184.36879521117839
 21
108.07099564680929
 31
0.0
  0
LINE
  5
1C25
  8
3
 10
195.29529521117831
 20
106.2116391048842
 30
0.0
 11
196.36879521117839
 21
108.07099564680949
 31
0.0
  0
LINE
  5
1C26
  8
3
 10
95.295295211178313
 20
55.591853590909118
 30
0.0
 11
95.29529521117837
 21
106.2116391048842
 31
0.0
  0
LINE
  5
1C27
  8
0
 10
96.368795211178394
 20
106.2116391048842
 30
0.0
 11
84.368795211178394
 21
106.2116391048842
 31
0.0
  0
LINE
  5
1C28
  8
3
 10
85.442295211178404
 20
55.591853590909153
 30
0.0
 11
85.442295211178404
 21
106.2116391048842
 31
0.0
  0
LINE
  5
1C29
  8
3
 10
85.442295211178404
 20
106.2116391048842
 30
0.0
 11
84.368795211178451
 21
108.07099564680929
 31
0.0
  0
LINE
  5
1C2A
  8
3
 10
95.29529521117837
 20
106.2116391048842
 30
0.0
 11
96.368795211178394
 21
108.07099564680949
 31
0.0
  0
ENDSEC
  0
EOF
