  0
SECTION
  2
HEADER
  9
$ACADVER
  1
AC1009
  9
$INSBASE
 10
0.0
 20
0.0
 30
0.0
  9
$EXTMIN
 10
0.0
 20
-2.960436562073669
 30
0.0
  9
$EXTMAX
 10
227.36879521117839
 20
258.21163910488423
 30
0.0
  9
$LIMMIN
 10
0.0
 20
0.0
  9
$LIMMAX
 10
420.0
 20
297.0
  9
$ORTHOMODE
 70
     1
  9
$REGENMODE
 70
     1
  9
$FILLMODE
 70
     1
  9
$QTEXTMODE
 70
     0
  9
$MIRRTEXT
 70
     0
  9
$DRAGMODE
 70
     2
  9
$LTSCALE
 40
5.0
  9
$OSMODE
 70
    37
  9
$ATTMODE
 70
     1
  9
$TEXTSIZE
 40
2.5
  9
$TRACEWID
 40
1.0
  9
$TEXTSTYLE
  7
STANDARD
  9
$CLAYER
  8
0
  9
$CELTYPE
  6
BYLAYER
  9
$CECOLOR
 62
   256
  9
$DIMSCALE
 40
1.0
  9
$DIMASZ
 40
2.5
  9
$DIMEXO
 40
0.625
  9
$DIMDLI
 40
3.75
  9
$DIMRND
 40
0.0
  9
$DIMDLE
 40
0.0
  9
$DIMEXE
 40
1.25
  9
$DIMTP
 40
0.0
  9
$DIMTM
 40
0.0
  9
$DIMTXT
 40
2.5
  9
$DIMCEN
 40
2.5
  9
$DIMTSZ
 40
0.0
  9
$DIMTOL
 70
     0
  9
$DIMLIM
 70
     0
  9
$DIMTIH
 70
     0
  9
$DIMTOH
 70
     0
  9
$DIMSE1
 70
     0
  9
$DIMSE2
 70
     0
  9
$DIMTAD
 70
     1
  9
$DIMZIN
 70
     8
  9
$DIMBLK
  1

  9
$DIMASO
 70
     1
  9
$DIMSHO
 70
     1
  9
$DIMPOST
  1

  9
$DIMAPOST
  1

  9
$DIMALT
 70
     0
  9
$DIMALTD
 70
     3
  9
$DIMALTF
 40
0.03937007874016
  9
$DIMLFAC
 40
1.0
  9
$DIMTOFL
 70
     1
  9
$DIMTVP
 40
0.0
  9
$DIMTIX
 70
     0
  9
$DIMSOXD
 70
     0
  9
$DIMSAH
 70
     0
  9
$DIMBLK1
  1

  9
$DIMBLK2
  1

  9
$DIMSTYLE
  2
ISO-25
  9
$DIMCLRD
 70
     0
  9
$DIMCLRE
 70
     0
  9
$DIMCLRT
 70
     0
  9
$DIMTFAC
 40
1.0
  9
$DIMGAP
 40
0.625
  9
$LUNITS
 70
     2
  9
$LUPREC
 70
     4
  9
$SKETCHINC
 40
1.0
  9
$FILLETRAD
 40
0.0
  9
$AUNITS
 70
     0
  9
$AUPREC
 70
     0
  9
$MENU
  1
.
  9
$ELEVATION
 40
0.0
  9
$PELEVATION
 40
0.0
  9
$THICKNESS
 40
0.0
  9
$LIMCHECK
 70
     0
  9
$BLIPMODE
 70
     0
  9
$CHAMFERA
 40
0.0
  9
$CHAMFERB
 40
0.0
  9
$SKPOLY
 70
     0
  9
$TDCREATE
 40
2454979.4917406249
  9
$TDUPDATE
 40
2456776.587571736
  9
$TDINDWG
 40
0.212843831
  9
$TDUSRTIMER
 40
0.2128436574
  9
$USRTIMER
 70
     1
  9
$ANGBASE
 50
0.0
  9
$ANGDIR
 70
     0
  9
$PDMODE
 70
     0
  9
$PDSIZE
 40
0.0
  9
$PLINEWID
 40
0.0
  9
$COORDS
 70
     1
  9
$SPLFRAME
 70
     0
  9
$SPLINETYPE
 70
     6
  9
$SPLINESEGS
 70
     8
  9
$ATTDIA
 70
     0
  9
$ATTREQ
 70
     1
  9
$HANDLING
 70
     1
  9
$HANDSEED
  5
23B7
  9
$SURFTAB1
 70
     6
  9
$SURFTAB2
 70
     6
  9
$SURFTYPE
 70
     6
  9
$SURFU
 70
     6
  9
$SURFV
 70
     6
  9
$UCSNAME
  2

  9
$UCSORG
 10
0.0
 20
0.0
 30
0.0
  9
$UCSXDIR
 10
1.0
 20
0.0
 30
0.0
  9
$UCSYDIR
 10
0.0
 20
1.0
 30
0.0
  9
$PUCSNAME
  2

  9
$PUCSORG
 10
0.0
 20
0.0
 30
0.0
  9
$PUCSXDIR
 10
1.0
 20
0.0
 30
0.0
  9
$PUCSYDIR
 10
0.0
 20
1.0
 30
0.0
  9
$USERI1
 70
     0
  9
$USERI2
 70
     0
  9
$USERI3
 70
     0
  9
$USERI4
 70
     0
  9
$USERI5
 70
     0
  9
$USERR1
 40
0.0
  9
$USERR2
 40
0.0
  9
$USERR3
 40
0.0
  9
$USERR4
 40
0.0
  9
$USERR5
 40
0.0
  9
$WORLDVIEW
 70
     1
  9
$SHADEDGE
 70
     3
  9
$SHADEDIF
 70
    70
  9
$TILEMODE
 70
     1
  9
$MAXACTVP
 70
    64
  9
$PLIMCHECK
 70
     0
  9
$PEXTMIN
 10
0.0
 20
0.0
 30
0.0
  9
$PEXTMAX
 10
0.0
 20
0.0
 30
0.0
  9
$PLIMMIN
 10
0.0
 20
0.0
  9
$PLIMMAX
 10
12.0
 20
9.0
  9
$UNITMODE
 70
     0
  9
$VISRETAIN
 70
     1
  9
$PLINEGEN
 70
     0
  9
$PSLTSCALE
 70
     1
  0
ENDSEC
  0
SECTION
  2
TABLES
  0
TABLE
  2
VPORT
 70
     1
  0
VPORT
  2
*ACTIVE
 70
     0
 10
0.0
 20
0.0
 11
1.0
 21
1.0
 12
235.63977746870651
 22
135.0
 13
0.0
 23
0.0
 14
10.0
 24
10.0
 15
10.0
 25
10.0
 16
0.0
 26
0.0
 36
1.0
 17
0.0
 27
0.0
 37
0.0
 40
270.0
 41
1.7454798331015291
 42
50.0
 43
0.0
 44
0.0
 50
0.0
 51
0.0
 71
     0
 72
  1000
 73
     1
 74
     3
 75
     0
 76
     0
 77
     0
 78
     0
  0
ENDTAB
  0
TABLE
  2
LTYPE
 70
     2
  0
LTYPE
  2
CONTINUOUS
 70
     0
  3
Solid line
 72
    65
 73
     0
 40
0.0
  0
LTYPE
  2
CENTER
 70
     0
  3
____ _ ____ _ ____ _ ____ _ ____ _ ____ _ ____
 72
    65
 73
     4
 40
2.0
 49
1.25
 49
-0.25
 49
0.25
 49
-0.25
  0
ENDTAB
  0
TABLE
  2
LAYER
 70
     3
  0
LAYER
  2
0
 70
     0
 62
     7
  6
CONTINUOUS
  0
LAYER
  2
1
 70
     0
 62
     1
  6
CENTER
  0
LAYER
  2
3
 70
     0
 62
     3
  6
CONTINUOUS
  0
ENDTAB
  0
TABLE
  2
STYLE
 70
     2
  0
STYLE
  2
STANDARD
 70
     0
 40
0.0
 41
1.0
 50
0.0
 71
     0
 42
2.5
  3
txt
  4

  0
STYLE
  2
STANDARD1
 70
     0
 40
0.0
 41
1.0
 50
0.0
 71
     0
 42
3.0
  3
txt
  4

  0
ENDTAB
  0
TABLE
  2
VIEW
 70
     0
  0
ENDTAB
  0
TABLE
  2
UCS
 70
     0
  0
ENDTAB
  0
TABLE
  2
APPID
 70
     5
  0
APPID
  2
ACAD
 70
     0
  0
APPID
  2
ACAD_MLEADERVER
 70
     0
  0
APPID
  2
ACAD_NAV_VCDISPLAY
 70
     0
  0
APPID
  2
ACAD_EXEMPT_FROM_CAD_STANDARDS
 70
     0
  0
APPID
  2
ACADANNOTATIVE
 70
     0
  0
ENDTAB
  0
TABLE
  2
DIMSTYLE
 70
     2
  0
DIMSTYLE
  2
ISO-25
 70
     0
  3

  4

  5

  6

  7

 40
1.0
 41
2.5
 42
0.625
 43
3.75
 44
1.25
 45
0.0
 46
0.0
 47
0.0
 48
0.0
140
2.5
141
2.5
142
0.0
143
0.03937007874016
144
1.0
145
0.0
146
1.0
147
0.625
 71
     0
 72
     0
 73
     0
 74
     0
 75
     0
 76
     0
 77
     1
 78
     8
170
     0
171
     3
172
     1
173
     0
174
     0
175
     0
176
     0
177
     0
178
     0
  0
DIMSTYLE
  2
STANDARD
 70
     0
  3

  4

  5

  6

  7

 40
1.0
 41
0.18
 42
0.0625
 43
0.38
 44
0.18
 45
0.0
 46
0.0
 47
0.0
 48
0.0
140
0.18
141
0.09
142
0.0
143
25.399999999999999
144
1.0
145
0.0
146
1.0
147
0.09
 71
     0
 72
     0
 73
     1
 74
     1
 75
     0
 76
     0
 77
     0
 78
     0
170
     0
171
     2
172
     0
173
     0
174
     0
175
     0
176
     0
177
     0
178
     0
  0
ENDTAB
  0
ENDSEC
  0
SECTION
  2
BLOCKS
  0
BLOCK
  8
0
  2
$MODEL_SPACE
 70
     0
 10
0.0
 20
0.0
 30
0.0
  3
$MODEL_SPACE
  1

  0
ENDBLK
  5
21
  8
0
  0
BLOCK
 67
     1
  8
0
  2
$PAPER_SPACE
 70
     0
 10
0.0
 20
0.0
 30
0.0
  3
$PAPER_SPACE
  1

  0
ENDBLK
  5
53
 67
     1
  8
0
  0
ENDSEC
  0
SECTION
  2
ENTITIES
  0
TEXT
  5
749
  8
0
 62
     3
 10
0.0
 20
0.0
 30
0.0
 40
10.0
  1
TBKF16X110
  7
STANDARD1
  0
LINE
  5
20F7
  8
1
 10
90.368795211178394
 20
181.2116391048842
 30
0.0
 11
90.368795211178394
 21
41.21163910488422
 31
0.0
  0
LINE
  5
20F8
  8
1
 10
25.368795211178341
 20
164.2116391048842
 30
0.0
 11
155.36879521117851
 21
164.2116391048842
 31
0.0
  0
LINE
  5
20F9
  8
0
 10
84.868795211178394
 20
56.768263431910157
 30
0.0
 11
84.868795211178394
 21
51.211639104884227
 31
0.0
  0
LINE
  5
20FA
  8
0
 10
95.868795211178394
 20
51.211639104884227
 30
0.0
 11
95.868795211178394
 21
56.768263431910157
 31
0.0
  0
LINE
  5
20FB
  8
0
 10
30.368795211178391
 20
158.81163910488419
 30
0.0
 11
30.968795211178421
 21
158.2116391048842
 31
0.0
  0
LINE
  5
20FC
  8
0
 10
30.968795211178421
 20
170.2116391048842
 30
0.0
 11
30.368795211178391
 21
169.6116391048842
 31
0.0
  0
LINE
  5
20FD
  8
0
 10
30.368795211178391
 20
169.6116391048842
 30
0.0
 11
30.368795211178391
 21
158.81163910488419
 31
0.0
  0
LINE
  5
20FE
  8
0
 10
30.968795211178421
 20
158.2116391048842
 30
0.0
 11
78.378608747760438
 21
158.2116391048842
 31
0.0
  0
LINE
  5
20FF
  8
0
 10
78.373411619332671
 20
170.2116391048842
 30
0.0
 11
30.968795211178421
 21
170.2116391048842
 31
0.0
  0
LINE
  5
2100
  8
0
 10
30.968795211178421
 20
170.2116391048842
 30
0.0
 11
30.968795211178421
 21
158.2116391048842
 31
0.0
  0
LINE
  5
2101
  8
0
 10
150.36879521117839
 20
169.6116391048842
 30
0.0
 11
149.7687952111784
 21
170.2116391048842
 31
0.0
  0
LINE
  5
2102
  8
0
 10
149.7687952111784
 20
158.2116391048842
 30
0.0
 11
150.36879521117839
 21
158.81163910488419
 31
0.0
  0
LINE
  5
2103
  8
0
 10
150.36879521117839
 20
169.6116391048842
 30
0.0
 11
150.36879521117839
 21
158.81163910488419
 31
0.0
  0
LINE
  5
2104
  8
0
 10
102.3641788030241
 20
158.2116391048842
 30
0.0
 11
149.7687952111784
 21
158.2116391048842
 31
0.0
  0
LINE
  5
2105
  8
0
 10
149.7687952111784
 20
170.2116391048842
 30
0.0
 11
102.35898167459629
 21
170.2116391048842
 31
0.0
  0
LINE
  5
2106
  8
0
 10
149.7687952111784
 20
170.2116391048842
 30
0.0
 11
149.7687952111784
 21
158.2116391048842
 31
0.0
  0
ARC
  5
2107
  8
0
 10
90.368795211178394
 20
55.21163910488422
 30
0.0
 40
9.0000000000000036
 50
228.18968510421641
 51
311.81031489578362
  0
LINE
  5
2108
  8
0
 10
84.368795211178394
 20
51.211639104884227
 30
0.0
 11
84.368795211178394
 21
48.503435172384847
 31
0.0
  0
LINE
  5
2109
  8
0
 10
96.368795211178394
 20
48.503435172384847
 30
0.0
 11
96.368795211178394
 21
51.211639104884227
 31
0.0
  0
LINE
  5
210A
  8
0
 10
96.368795211178394
 20
48.503435172384847
 30
0.0
 11
84.368795211178394
 21
48.503435172384847
 31
0.0
  0
LINE
  5
210B
  8
0
 10
96.368795211178394
 20
51.211639104884227
 30
0.0
 11
84.368795211178394
 21
51.211639104884227
 31
0.0
  0
LINE
  5
210C
  8
0
 10
95.868795211178394
 20
56.768263431910157
 30
0.0
 11
98.368795211178394
 21
58.21163910488422
 31
0.0
  0
LINE
  5
210D
  8
0
 10
82.368795211178394
 20
58.21163910488422
 30
0.0
 11
84.868795211178394
 21
56.768263431910157
 31
0.0
  0
LINE
  5
210E
  8
0
 10
95.868795211178394
 20
56.768263431910157
 30
0.0
 11
84.868795211178394
 21
56.768263431910157
 31
0.0
  0
LINE
  5
210F
  8
0
 10
82.368795211178394
 20
156.2116391048842
 30
0.0
 11
82.368795211178394
 21
58.21163910488422
 31
0.0
  0
LINE
  5
2110
  8
0
 10
98.368795211178394
 20
58.21163910488422
 30
0.0
 11
98.368795211178394
 21
156.2116391048842
 31
0.0
  0
LINE
  5
2111
  8
0
 10
98.368795211178394
 20
58.21163910488422
 30
0.0
 11
82.368795211178394
 21
58.21163910488422
 31
0.0
  0
LINE
  5
2112
  8
0
 10
79.075901992364933
 20
176.2116391048842
 30
0.0
 11
78.368795211178394
 21
175.50453232369759
 31
0.0
  0
LINE
  5
2113
  8
0
 10
102.36879521117839
 20
175.50453232369759
 30
0.0
 11
101.6616884299918
 21
176.2116391048842
 31
0.0
  0
LINE
  5
2114
  8
0
 10
101.6616884299918
 20
176.2116391048842
 30
0.0
 11
79.075901992364933
 21
176.2116391048842
 31
0.0
  0
LINE
  5
2115
  8
0
 10
101.6616884299918
 20
156.2116391048842
 30
0.0
 11
102.36879521117839
 21
156.9187458860707
 31
0.0
  0
LINE
  5
2116
  8
0
 10
78.368795211178394
 20
156.9187458860707
 30
0.0
 11
79.075901992364933
 21
156.2116391048842
 31
0.0
  0
LINE
  5
2117
  8
0
 10
101.6616884299918
 20
156.2116391048842
 30
0.0
 11
79.075901992364933
 21
156.2116391048842
 31
0.0
  0
LINE
  5
2118
  8
0
 10
78.368795211178394
 20
175.50453232369759
 30
0.0
 11
78.368795211178394
 21
170.2023494818977
 31
0.0
  0
LINE
  5
2119
  8
0
 10
78.368795211178394
 20
158.23131029726591
 30
0.0
 11
78.368795211178394
 21
156.9187458860707
 31
0.0
  0
LINE
  5
211A
  8
0
 10
102.36879521117839
 20
156.9187458860707
 30
0.0
 11
102.36879521117839
 21
158.2209287278707
 31
0.0
  0
LINE
  5
211B
  8
0
 10
102.36879521117839
 20
170.19196791250249
 30
0.0
 11
102.36879521117839
 21
175.50453232369759
 31
0.0
  0
LINE
  5
211C
  8
0
 10
102.36879521117839
 20
156.9187458860707
 30
0.0
 11
78.368795211178394
 21
156.9187458860707
 31
0.0
  0
POLYLINE
  5
211D
  8
0
 66
     1
 10
0.0
 20
0.0
 30
0.0
  0
VERTEX
  5
2389
  8
0
 10
102.3687952104985
 20
170.21163910352459
 30
0.0
  0
VERTEX
  5
238A
  8
0
 10
102.36356491664939
 20
170.20117166488311
 30
0.0
  0
VERTEX
  5
238B
  8
0
 10
102.30388750110551
 20
170.0807470412812
 30
0.0
  0
VERTEX
  5
238C
  8
0
 10
102.17852730322581
 20
169.82143162207541
 30
0.0
  0
VERTEX
  5
238D
  8
0
 10
102.002247026646
 20
169.44013804270631
 30
0.0
  0
VERTEX
  5
238E
  8
0
 10
101.78328426157
 20
168.9329270945656
 30
0.0
  0
VERTEX
  5
238F
  8
0
 10
101.5270735157445
 20
168.27454135846489
 30
0.0
  0
VERTEX
  5
2390
  8
0
 10
101.26558114358861
 20
167.48882443024701
 30
0.0
  0
VERTEX
  5
2391
  8
0
 10
101.02665731259211
 20
166.5759623849687
 30
0.0
  0
VERTEX
  5
2392
  8
0
 10
100.8463558897255
 20
165.54553481768821
 30
0.0
  0
VERTEX
  5
2393
  8
0
 10
100.7677137984705
 20
164.5824595265579
 30
0.0
  0
VERTEX
  5
2394
  8
0
 10
100.7808355764215
 20
163.5708703732395
 30
0.0
  0
VERTEX
  5
2395
  8
0
 10
100.8682090193668
 20
162.71574796058999
 30
0.0
  0
VERTEX
  5
2396
  8
0
 10
101.01982816224211
 20
161.87829324011281
 30
0.0
  0
VERTEX
  5
2397
  8
0
 10
101.22174390098129
 20
161.08330164490721
 30
0.0
  0
VERTEX
  5
2398
  8
0
 10
101.45637190568659
 20
160.34713953099359
 30
0.0
  0
VERTEX
  5
2399
  8
0
 10
101.72148480816089
 20
159.64178559679081
 30
0.0
  0
VERTEX
  5
239A
  8
0
 10
101.9743188790121
 20
159.04557874861189
 30
0.0
  0
VERTEX
  5
239B
  8
0
 10
102.1799066317796
 20
158.59894340764069
 30
0.0
  0
VERTEX
  5
239C
  8
0
 10
102.3201064142105
 20
158.30961915644949
 30
0.0
  0
VERTEX
  5
239D
  8
0
 10
102.36809363458759
 20
158.21304238114701
 30
0.0
  0
VERTEX
  5
239E
  8
0
 10
102.3687952103553
 20
158.2116391065303
 30
0.0
  0
SEQEND
  5
239F
  8
0
  0
LINE
  5
211E
  8
0
 10
102.36879521117839
 20
175.50453232369759
 30
0.0
 11
78.368795211178394
 21
175.50453232369759
 31
0.0
  0
POLYLINE
  5
211F
  8
0
 66
     1
 10
0.0
 20
0.0
 30
0.0
  0
VERTEX
  5
23A0
  8
0
 10
78.368795211858242
 20
158.21163910624389
 30
0.0
  0
VERTEX
  5
23A1
  8
0
 10
78.374025505707323
 20
158.22210654488529
 30
0.0
  0
VERTEX
  5
23A2
  8
0
 10
78.433702921251253
 20
158.3425311684872
 30
0.0
  0
VERTEX
  5
23A3
  8
0
 10
78.55906311913094
 20
158.60184658769299
 30
0.0
  0
VERTEX
  5
23A4
  8
0
 10
78.735343395710743
 20
158.98314016706209
 30
0.0
  0
VERTEX
  5
23A5
  8
0
 10
78.954306160786757
 20
159.4903511152028
 30
0.0
  0
VERTEX
  5
23A6
  8
0
 10
79.21051690661227
 20
160.1487368513036
 30
0.0
  0
VERTEX
  5
23A7
  8
0
 10
79.472009278768155
 20
160.93445377952139
 30
0.0
  0
VERTEX
  5
23A8
  8
0
 10
79.71093310976471
 20
161.84731582479969
 30
0.0
  0
VERTEX
  5
23A9
  8
0
 10
79.891234532631245
 20
162.87774339208019
 30
0.0
  0
VERTEX
  5
23AA
  8
0
 10
79.96987662388625
 20
163.84081868321061
 30
0.0
  0
VERTEX
  5
23AB
  8
0
 10
79.956754845935222
 20
164.85240783652901
 30
0.0
  0
VERTEX
  5
23AC
  8
0
 10
79.869381402989973
 20
165.7075302491784
 30
0.0
  0
VERTEX
  5
23AD
  8
0
 10
79.717762260114625
 20
166.54498496965559
 30
0.0
  0
VERTEX
  5
23AE
  8
0
 10
79.515846521375394
 20
167.33997656486119
 30
0.0
  0
VERTEX
  5
23AF
  8
0
 10
79.281218516670208
 20
168.07613867877481
 30
0.0
  0
VERTEX
  5
23B0
  8
0
 10
79.016105614195908
 20
168.78149261297759
 30
0.0
  0
VERTEX
  5
23B1
  8
0
 10
78.763271543344672
 20
169.37769946115651
 30
0.0
  0
VERTEX
  5
23B2
  8
0
 10
78.557683790577187
 20
169.82433480212771
 30
0.0
  0
VERTEX
  5
23B3
  8
0
 10
78.417484008146232
 20
170.11365905331891
 30
0.0
  0
VERTEX
  5
23B4
  8
0
 10
78.369496787769208
 20
170.21023582862139
 30
0.0
  0
VERTEX
  5
23B5
  8
0
 10
78.36879521200143
 20
170.2116391032381
 30
0.0
  0
SEQEND
  5
23B6
  8
0
  0
LINE
  5
2120
  8
1
 10
204.36879521117839
 20
164.2116391048842
 30
0.0
 11
226.36879521117839
 21
164.2116391048842
 31
0.0
  0
LINE
  5
2121
  8
1
 10
215.36879521117839
 20
181.2116391048842
 30
0.0
 11
215.36879521117839
 21
41.21163910488422
 31
0.0
  0
LINE
  5
2122
  8
0
 10
209.86879521117839
 20
56.768263431910157
 30
0.0
 11
209.86879521117839
 21
51.211639104884227
 31
0.0
  0
LINE
  5
2123
  8
0
 10
220.86879521117839
 20
51.211639104884227
 30
0.0
 11
220.86879521117839
 21
56.768263431910157
 31
0.0
  0
LINE
  5
2124
  8
0
 10
221.36879521117839
 20
51.211639104884227
 30
0.0
 11
209.36879521117839
 21
51.211639104884227
 31
0.0
  0
LINE
  5
2125
  8
0
 10
209.36879521117839
 20
51.211639104884227
 30
0.0
 11
209.36879521117839
 21
48.503435172384847
 31
0.0
  0
LINE
  5
2126
  8
0
 10
221.36879521117839
 20
48.503435172384847
 30
0.0
 11
221.36879521117839
 21
51.211639104884227
 31
0.0
  0
LINE
  5
2127
  8
0
 10
221.36879521117839
 20
48.503435172384847
 30
0.0
 11
209.36879521117839
 21
48.503435172384847
 31
0.0
  0
ARC
  5
2128
  8
0
 10
215.36879521117839
 20
55.21163910488422
 30
0.0
 40
9.0000000000000089
 50
228.1896851042234
 51
311.81031489577663
  0
LINE
  5
2129
  8
0
 10
207.36879521117839
 20
156.2116391048842
 30
0.0
 11
207.36879521117839
 21
58.21163910488422
 31
0.0
  0
LINE
  5
212A
  8
0
 10
223.36879521117839
 20
58.21163910488422
 30
0.0
 11
223.36879521117839
 21
156.2116391048842
 31
0.0
  0
LINE
  5
212B
  8
0
 10
220.86879521117839
 20
56.768263431910157
 30
0.0
 11
209.86879521117839
 21
56.768263431910157
 31
0.0
  0
LINE
  5
212C
  8
0
 10
223.36879521117839
 20
58.21163910488422
 30
0.0
 11
207.36879521117839
 21
58.21163910488422
 31
0.0
  0
LINE
  5
212D
  8
0
 10
220.86879521117839
 20
56.768263431910157
 30
0.0
 11
223.36879521117839
 21
58.21163910488422
 31
0.0
  0
LINE
  5
212E
  8
0
 10
207.36879521117839
 20
58.21163910488422
 30
0.0
 11
209.86879521117839
 21
56.768263431910157
 31
0.0
  0
LINE
  5
212F
  8
0
 10
226.6616884299919
 20
156.2116391048842
 30
0.0
 11
204.07590199236489
 21
156.2116391048842
 31
0.0
  0
LINE
  5
2130
  8
0
 10
226.6616884299919
 20
156.2116391048842
 30
0.0
 11
227.36879521117839
 21
156.9187458860707
 31
0.0
  0
LINE
  5
2131
  8
0
 10
203.36879521117839
 20
156.9187458860707
 30
0.0
 11
204.07590199236489
 21
156.2116391048842
 31
0.0
  0
LINE
  5
2132
  8
0
 10
227.36879521117839
 20
156.9187458860707
 30
0.0
 11
203.36879521117839
 21
156.9187458860707
 31
0.0
  0
LINE
  5
2133
  8
0
 10
203.36879521117839
 20
175.50453232369759
 30
0.0
 11
203.36879521117839
 21
156.9187458860707
 31
0.0
  0
LINE
  5
2134
  8
0
 10
227.36879521117839
 20
156.9187458860707
 30
0.0
 11
227.36879521117839
 21
175.50453232369759
 31
0.0
  0
LINE
  5
2135
  8
0
 10
227.36879521117839
 20
175.50453232369759
 30
0.0
 11
203.36879521117839
 21
175.50453232369759
 31
0.0
  0
LINE
  5
2136
  8
0
 10
226.6616884299919
 20
176.2116391048842
 30
0.0
 11
204.07590199236489
 21
176.2116391048842
 31
0.0
  0
LINE
  5
2137
  8
0
 10
204.07590199236489
 20
176.2116391048842
 30
0.0
 11
203.36879521117839
 21
175.50453232369759
 31
0.0
  0
LINE
  5
2138
  8
0
 10
227.36879521117839
 20
175.50453232369759
 30
0.0
 11
226.6616884299919
 21
176.2116391048842
 31
0.0
  0
CIRCLE
  5
213A
  8
0
 10
215.36879521117839
 20
164.2116391048842
 30
0.0
 40
5.999999999999992
  0
LINE
  5
213B
  8
1
 10
90.368795211178394
 20
224.2116391048842
 30
0.0
 11
90.368795211178394
 21
258.21163910488423
 31
0.0
  0
LINE
  5
213C
  8
1
 10
25.368795211178391
 20
241.2116391048842
 30
0.0
 11
155.36879521117839
 21
241.21163910488431
 31
0.0
  0
LINE
  5
213D
  8
0
 10
30.368795211178391
 20
246.61163910488429
 30
0.0
 11
30.368795211178391
 21
235.81163910488419
 31
0.0
  0
LINE
  5
213E
  8
0
 10
30.368795211178391
 20
235.81163910488419
 30
0.0
 11
30.968795211178421
 21
235.2116391048842
 31
0.0
  0
LINE
  5
213F
  8
0
 10
30.968795211178421
 20
247.2116391048842
 30
0.0
 11
30.368795211178391
 21
246.61163910488429
 31
0.0
  0
LINE
  5
2140
  8
0
 10
30.968795211178421
 20
247.2116391048842
 30
0.0
 11
30.968795211178421
 21
235.2116391048842
 31
0.0
  0
LINE
  5
2141
  8
0
 10
30.968795211178421
 20
235.2116391048842
 30
0.0
 11
79.974024660320524
 21
235.2116391048842
 31
0.0
  0
LINE
  5
2142
  8
0
 10
79.97649036576513
 20
247.2116391048842
 30
0.0
 11
30.968795211178421
 21
247.2116391048842
 31
0.0
  0
LINE
  5
2143
  8
0
 10
150.36879521117839
 20
246.61163910488429
 30
0.0
 11
150.36879521117839
 21
235.81163910488419
 31
0.0
  0
LINE
  5
2144
  8
0
 10
150.36879521117839
 20
246.61163910488429
 30
0.0
 11
149.7687952111784
 21
247.2116391048842
 31
0.0
  0
LINE
  5
2145
  8
0
 10
149.7687952111784
 20
235.2116391048842
 30
0.0
 11
150.36879521117839
 21
235.81163910488419
 31
0.0
  0
LINE
  5
2146
  8
0
 10
149.7687952111784
 20
247.2116391048842
 30
0.0
 11
149.7687952111784
 21
235.2116391048842
 31
0.0
  0
LINE
  5
2147
  8
0
 10
100.76356576203619
 20
235.2116391048842
 30
0.0
 11
149.7687952111784
 21
235.2116391048842
 31
0.0
  0
LINE
  5
2148
  8
0
 10
149.7687952111784
 20
247.2116391048842
 30
0.0
 11
100.7611000565916
 21
247.2116391048842
 31
0.0
  0
CIRCLE
  5
2149
  8
0
 10
90.368795211178394
 20
241.2116391048842
 30
0.0
 40
12.0
  0
LINE
  5
219F
  8
3
 10
97.141795211178405
 20
57.503230324588579
 30
0.0
 11
97.141795211178405
 21
136.21163910488431
 31
0.0
  0
LINE
  5
21A0
  8
0
 10
98.368795211178394
 20
136.21163910488431
 30
0.0
 11
82.368795211178394
 21
136.21163910488431
 31
0.0
  0
LINE
  5
21A1
  8
3
 10
83.595795211178356
 20
57.50323032458855
 30
0.0
 11
83.595795211178356
 21
136.21163910488431
 31
0.0
  0
LINE
  5
21A2
  8
3
 10
83.595795211178356
 20
136.21163910488431
 30
0.0
 11
82.368795211178394
 21
138.33686544577111
 31
0.0
  0
LINE
  5
21A3
  8
3
 10
97.141795211178405
 20
136.21163910488431
 30
0.0
 11
98.368795211178394
 21
138.33686544577111
 31
0.0
  0
LINE
  5
21A4
  8
3
 10
222.14179521117839
 20
57.503230324588579
 30
0.0
 11
222.14179521117839
 21
136.21163910488431
 31
0.0
  0
LINE
  5
21A5
  8
0
 10
223.36879521117839
 20
136.21163910488431
 30
0.0
 11
207.36879521117839
 21
136.21163910488431
 31
0.0
  0
LINE
  5
21A6
  8
3
 10
208.5957952111784
 20
57.503230324588579
 30
0.0
 11
208.5957952111784
 21
136.21163910488431
 31
0.0
  0
LINE
  5
21A7
  8
3
 10
208.5957952111784
 20
136.21163910488431
 30
0.0
 11
207.36879521117839
 21
138.33686544577111
 31
0.0
  0
LINE
  5
21A8
  8
3
 10
222.14179521117839
 20
136.21163910488431
 30
0.0
 11
223.36879521117839
 21
138.33686544577111
 31
0.0
  0
ENDSEC
  0
EOF
