  0
SECTION
  2
HEADER
  9
$ACADVER
  1
AC1009
  9
$INSBASE
 10
0.0
 20
0.0
 30
0.0
  9
$EXTMIN
 10
0.0
 20
-2.960436562073669
 30
0.0
  9
$EXTMAX
 10
172.86879521117839
 20
167.21163910488411
 30
0.0
  9
$LIMMIN
 10
0.0
 20
0.0
  9
$LIMMAX
 10
420.0
 20
297.0
  9
$ORTHOMODE
 70
     1
  9
$REGENMODE
 70
     1
  9
$FILLMODE
 70
     1
  9
$QTEXTMODE
 70
     0
  9
$MIRRTEXT
 70
     0
  9
$DRAGMODE
 70
     2
  9
$LTSCALE
 40
5.0
  9
$OSMODE
 70
    37
  9
$ATTMODE
 70
     1
  9
$TEXTSIZE
 40
2.5
  9
$TRACEWID
 40
1.0
  9
$TEXTSTYLE
  7
STANDARD
  9
$CLAYER
  8
0
  9
$CELTYPE
  6
BYLAYER
  9
$CECOLOR
 62
   256
  9
$DIMSCALE
 40
1.0
  9
$DIMASZ
 40
2.5
  9
$DIMEXO
 40
0.625
  9
$DIMDLI
 40
3.75
  9
$DIMRND
 40
0.0
  9
$DIMDLE
 40
0.0
  9
$DIMEXE
 40
1.25
  9
$DIMTP
 40
0.0
  9
$DIMTM
 40
0.0
  9
$DIMTXT
 40
2.5
  9
$DIMCEN
 40
2.5
  9
$DIMTSZ
 40
0.0
  9
$DIMTOL
 70
     0
  9
$DIMLIM
 70
     0
  9
$DIMTIH
 70
     0
  9
$DIMTOH
 70
     0
  9
$DIMSE1
 70
     0
  9
$DIMSE2
 70
     0
  9
$DIMTAD
 70
     1
  9
$DIMZIN
 70
     8
  9
$DIMBLK
  1

  9
$DIMASO
 70
     1
  9
$DIMSHO
 70
     1
  9
$DIMPOST
  1

  9
$DIMAPOST
  1

  9
$DIMALT
 70
     0
  9
$DIMALTD
 70
     3
  9
$DIMALTF
 40
0.03937007874016
  9
$DIMLFAC
 40
1.0
  9
$DIMTOFL
 70
     1
  9
$DIMTVP
 40
0.0
  9
$DIMTIX
 70
     0
  9
$DIMSOXD
 70
     0
  9
$DIMSAH
 70
     0
  9
$DIMBLK1
  1

  9
$DIMBLK2
  1

  9
$DIMSTYLE
  2
ISO-25
  9
$DIMCLRD
 70
     0
  9
$DIMCLRE
 70
     0
  9
$DIMCLRT
 70
     0
  9
$DIMTFAC
 40
1.0
  9
$DIMGAP
 40
0.625
  9
$LUNITS
 70
     2
  9
$LUPREC
 70
     4
  9
$SKETCHINC
 40
1.0
  9
$FILLETRAD
 40
0.0
  9
$AUNITS
 70
     0
  9
$AUPREC
 70
     0
  9
$MENU
  1
.
  9
$ELEVATION
 40
0.0
  9
$PELEVATION
 40
0.0
  9
$THICKNESS
 40
0.0
  9
$LIMCHECK
 70
     0
  9
$BLIPMODE
 70
     0
  9
$CHAMFERA
 40
0.0
  9
$CHAMFERB
 40
0.0
  9
$SKPOLY
 70
     0
  9
$TDCREATE
 40
2454979.4917406249
  9
$TDUPDATE
 40
2456776.5876253592
  9
$TDINDWG
 40
0.1369391204
  9
$TDUSRTIMER
 40
0.1369389468
  9
$USRTIMER
 70
     1
  9
$ANGBASE
 50
0.0
  9
$ANGDIR
 70
     0
  9
$PDMODE
 70
     0
  9
$PDSIZE
 40
0.0
  9
$PLINEWID
 40
0.0
  9
$COORDS
 70
     1
  9
$SPLFRAME
 70
     0
  9
$SPLINETYPE
 70
     6
  9
$SPLINESEGS
 70
     8
  9
$ATTDIA
 70
     0
  9
$ATTREQ
 70
     1
  9
$HANDLING
 70
     1
  9
$HANDSEED
  5
178C
  9
$SURFTAB1
 70
     6
  9
$SURFTAB2
 70
     6
  9
$SURFTYPE
 70
     6
  9
$SURFU
 70
     6
  9
$SURFV
 70
     6
  9
$UCSNAME
  2

  9
$UCSORG
 10
0.0
 20
0.0
 30
0.0
  9
$UCSXDIR
 10
1.0
 20
0.0
 30
0.0
  9
$UCSYDIR
 10
0.0
 20
1.0
 30
0.0
  9
$PUCSNAME
  2

  9
$PUCSORG
 10
0.0
 20
0.0
 30
0.0
  9
$PUCSXDIR
 10
1.0
 20
0.0
 30
0.0
  9
$PUCSYDIR
 10
0.0
 20
1.0
 30
0.0
  9
$USERI1
 70
     0
  9
$USERI2
 70
     0
  9
$USERI3
 70
     0
  9
$USERI4
 70
     0
  9
$USERI5
 70
     0
  9
$USERR1
 40
0.0
  9
$USERR2
 40
0.0
  9
$USERR3
 40
0.0
  9
$USERR4
 40
0.0
  9
$USERR5
 40
0.0
  9
$WORLDVIEW
 70
     1
  9
$SHADEDGE
 70
     3
  9
$SHADEDIF
 70
    70
  9
$TILEMODE
 70
     1
  9
$MAXACTVP
 70
    64
  9
$PLIMCHECK
 70
     0
  9
$PEXTMIN
 10
0.0
 20
0.0
 30
0.0
  9
$PEXTMAX
 10
0.0
 20
0.0
 30
0.0
  9
$PLIMMIN
 10
0.0
 20
0.0
  9
$PLIMMAX
 10
12.0
 20
9.0
  9
$UNITMODE
 70
     0
  9
$VISRETAIN
 70
     1
  9
$PLINEGEN
 70
     0
  9
$PSLTSCALE
 70
     1
  0
ENDSEC
  0
SECTION
  2
TABLES
  0
TABLE
  2
VPORT
 70
     1
  0
VPORT
  2
*ACTIVE
 70
     0
 10
0.0
 20
0.0
 11
1.0
 21
1.0
 12
235.63977746870651
 22
135.0
 13
0.0
 23
0.0
 14
10.0
 24
10.0
 15
10.0
 25
10.0
 16
0.0
 26
0.0
 36
1.0
 17
0.0
 27
0.0
 37
0.0
 40
270.0
 41
1.7454798331015291
 42
50.0
 43
0.0
 44
0.0
 50
0.0
 51
0.0
 71
     0
 72
  1000
 73
     1
 74
     3
 75
     0
 76
     0
 77
     0
 78
     0
  0
ENDTAB
  0
TABLE
  2
LTYPE
 70
     2
  0
LTYPE
  2
CONTINUOUS
 70
     0
  3
Solid line
 72
    65
 73
     0
 40
0.0
  0
LTYPE
  2
CENTER
 70
     0
  3
____ _ ____ _ ____ _ ____ _ ____ _ ____ _ ____
 72
    65
 73
     4
 40
2.0
 49
1.25
 49
-0.25
 49
0.25
 49
-0.25
  0
ENDTAB
  0
TABLE
  2
LAYER
 70
     3
  0
LAYER
  2
0
 70
     0
 62
     7
  6
CONTINUOUS
  0
LAYER
  2
1
 70
     0
 62
     1
  6
CENTER
  0
LAYER
  2
3
 70
     0
 62
     3
  6
CONTINUOUS
  0
ENDTAB
  0
TABLE
  2
STYLE
 70
     2
  0
STYLE
  2
STANDARD
 70
     0
 40
0.0
 41
1.0
 50
0.0
 71
     0
 42
2.5
  3
txt
  4

  0
STYLE
  2
STANDARD1
 70
     0
 40
0.0
 41
1.0
 50
0.0
 71
     0
 42
3.0
  3
txt
  4

  0
ENDTAB
  0
TABLE
  2
VIEW
 70
     0
  0
ENDTAB
  0
TABLE
  2
UCS
 70
     0
  0
ENDTAB
  0
TABLE
  2
APPID
 70
     5
  0
APPID
  2
ACAD
 70
     0
  0
APPID
  2
ACAD_MLEADERVER
 70
     0
  0
APPID
  2
ACAD_NAV_VCDISPLAY
 70
     0
  0
APPID
  2
ACAD_EXEMPT_FROM_CAD_STANDARDS
 70
     0
  0
APPID
  2
ACADANNOTATIVE
 70
     0
  0
ENDTAB
  0
TABLE
  2
DIMSTYLE
 70
     2
  0
DIMSTYLE
  2
ISO-25
 70
     0
  3

  4

  5

  6

  7

 40
1.0
 41
2.5
 42
0.625
 43
3.75
 44
1.25
 45
0.0
 46
0.0
 47
0.0
 48
0.0
140
2.5
141
2.5
142
0.0
143
0.03937007874016
144
1.0
145
0.0
146
1.0
147
0.625
 71
     0
 72
     0
 73
     0
 74
     0
 75
     0
 76
     0
 77
     1
 78
     8
170
     0
171
     3
172
     1
173
     0
174
     0
175
     0
176
     0
177
     0
178
     0
  0
DIMSTYLE
  2
STANDARD
 70
     0
  3

  4

  5

  6

  7

 40
1.0
 41
0.18
 42
0.0625
 43
0.38
 44
0.18
 45
0.0
 46
0.0
 47
0.0
 48
0.0
140
0.18
141
0.09
142
0.0
143
25.399999999999999
144
1.0
145
0.0
146
1.0
147
0.09
 71
     0
 72
     0
 73
     1
 74
     1
 75
     0
 76
     0
 77
     0
 78
     0
170
     0
171
     2
172
     0
173
     0
174
     0
175
     0
176
     0
177
     0
178
     0
  0
ENDTAB
  0
ENDSEC
  0
SECTION
  2
BLOCKS
  0
BLOCK
  8
0
  2
$MODEL_SPACE
 70
     0
 10
0.0
 20
0.0
 30
0.0
  3
$MODEL_SPACE
  1

  0
ENDBLK
  5
21
  8
0
  0
BLOCK
 67
     1
  8
0
  2
$PAPER_SPACE
 70
     0
 10
0.0
 20
0.0
 30
0.0
  3
$PAPER_SPACE
  1

  0
ENDBLK
  5
53
 67
     1
  8
0
  0
ENDSEC
  0
SECTION
  2
ENTITIES
  0
TEXT
  5
749
  8
0
 62
     3
 10
0.0
 20
0.0
 30
0.0
 40
10.0
  1
TBKF6X40
  7
STANDARD1
  0
LINE
  5
1061
  8
3
 10
167.75529521117841
 20
61.857434714736343
 30
0.0
 11
167.75529521117841
 21
86.211639104884185
 31
0.0
  0
LINE
  5
1063
  8
0
 10
168.36879521117839
 20
86.211639104884185
 30
0.0
 11
162.36879521117839
 21
86.211639104884185
 31
0.0
  0
LINE
  5
1064
  8
3
 10
162.98229521117841
 20
61.857434714736343
 30
0.0
 11
162.98229521117841
 21
86.211639104884185
 31
0.0
  0
LINE
  5
12BA
  8
3
 10
92.755295211178392
 20
61.857434714736343
 30
0.0
 11
92.755295211178392
 21
86.211639104884185
 31
0.0
  0
LINE
  5
12BC
  8
0
 10
93.36879521117838
 20
86.211639104884185
 30
0.0
 11
87.36879521117838
 21
86.211639104884185
 31
0.0
  0
LINE
  5
12BD
  8
3
 10
87.982295211178368
 20
61.85743471473635
 30
0.0
 11
87.982295211178368
 21
86.211639104884185
 31
0.0
  0
LINE
  5
1419
  8
3
 10
87.982295211178425
 20
86.211639104884071
 30
0.0
 11
87.36879521117838
 21
87.27425227532764
 31
0.0
  0
LINE
  5
141A
  8
3
 10
92.755295211178336
 20
86.211639104884071
 30
0.0
 11
93.36879521117838
 21
87.274252275327655
 31
0.0
  0
LINE
  5
1434
  8
3
 10
162.98229521117841
 20
86.211639104884071
 30
0.0
 11
162.36879521117839
 21
87.27425227532764
 31
0.0
  0
LINE
  5
1435
  8
3
 10
167.75529521117829
 20
86.211639104884071
 30
0.0
 11
168.36879521117839
 21
87.274252275327655
 31
0.0
  0
LINE
  5
1581
  8
1
 10
90.368795211178366
 20
111.2116391048841
 30
0.0
 11
90.368795211178366
 21
51.211639104884171
 31
0.0
  0
LINE
  5
1582
  8
1
 10
60.36879521117838
 20
101.2116391048841
 30
0.0
 11
120.36879521117839
 21
101.2116391048841
 31
0.0
  0
LINE
  5
1583
  8
0
 10
88.36879521117838
 20
61.634288835694548
 30
0.0
 11
88.36879521117838
 21
58.711639104884171
 31
0.0
  0
LINE
  5
1584
  8
0
 10
92.36879521117838
 20
58.711639104884171
 30
0.0
 11
92.36879521117838
 21
61.634288835694548
 31
0.0
  0
ARC
  5
1585
  8
0
 10
90.368795211178366
 20
59.211639104884171
 30
0.0
 40
3.0000000000000009
 50
221.40962210927091
 51
318.59037789072909
  0
LINE
  5
1586
  8
0
 10
88.11879521117838
 20
58.711639104884171
 30
0.0
 11
88.11879521117838
 21
57.227325621585727
 31
0.0
  0
LINE
  5
1587
  8
0
 10
92.618795211178394
 20
57.227325621585727
 30
0.0
 11
92.618795211178394
 21
58.711639104884171
 31
0.0
  0
LINE
  5
1588
  8
0
 10
92.618795211178394
 20
57.227325621585727
 30
0.0
 11
88.11879521117838
 21
57.227325621585727
 31
0.0
  0
LINE
  5
1589
  8
0
 10
92.618795211178394
 20
58.711639104884171
 30
0.0
 11
88.11879521117838
 21
58.711639104884171
 31
0.0
  0
LINE
  5
158A
  8
0
 10
115.36879521117829
 20
103.4616391048841
 30
0.0
 11
115.11879521117839
 21
103.7116391048841
 31
0.0
  0
LINE
  5
158B
  8
0
 10
115.11879521117839
 20
98.711639104884185
 30
0.0
 11
115.36879521117829
 21
98.961639104884185
 31
0.0
  0
LINE
  5
158C
  8
0
 10
115.36879521117829
 20
103.4616391048841
 30
0.0
 11
115.36879521117829
 21
98.961639104884185
 31
0.0
  0
LINE
  5
158D
  8
0
 10
65.61879521117838
 20
98.711639104884185
 30
0.0
 11
84.372495596353971
 21
98.711639104884185
 31
0.0
  0
LINE
  5
158E
  8
0
 10
84.371133664285352
 20
103.7116391048841
 30
0.0
 11
65.61879521117838
 21
103.7116391048841
 31
0.0
  0
LINE
  5
158F
  8
0
 10
65.36879521117838
 20
98.961639104884185
 30
0.0
 11
65.61879521117838
 21
98.711639104884185
 31
0.0
  0
LINE
  5
1590
  8
0
 10
65.61879521117838
 20
103.7116391048841
 30
0.0
 11
65.36879521117838
 21
103.4616391048841
 31
0.0
  0
LINE
  5
1591
  8
0
 10
65.61879521117838
 20
103.7116391048841
 30
0.0
 11
65.61879521117838
 21
98.711639104884185
 31
0.0
  0
LINE
  5
1592
  8
0
 10
65.36879521117838
 20
103.4616391048841
 30
0.0
 11
65.36879521117838
 21
98.961639104884185
 31
0.0
  0
LINE
  5
1593
  8
0
 10
96.366456758071408
 20
98.711639104884185
 30
0.0
 11
115.11879521117839
 21
98.711639104884185
 31
0.0
  0
LINE
  5
1594
  8
0
 10
115.11879521117839
 20
103.7116391048841
 30
0.0
 11
96.365094826002789
 21
103.7116391048841
 31
0.0
  0
LINE
  5
1595
  8
0
 10
115.11879521117839
 20
103.7116391048841
 30
0.0
 11
115.11879521117839
 21
98.711639104884185
 31
0.0
  0
LINE
  5
1596
  8
0
 10
92.36879521117838
 20
61.634288835694548
 30
0.0
 11
93.36879521117838
 21
62.211639104884171
 31
0.0
  0
LINE
  5
1597
  8
0
 10
87.36879521117838
 20
62.211639104884171
 30
0.0
 11
88.36879521117838
 21
61.634288835694548
 31
0.0
  0
LINE
  5
1598
  8
0
 10
92.36879521117838
 20
61.634288835694548
 30
0.0
 11
88.36879521117838
 21
61.634288835694548
 31
0.0
  0
LINE
  5
1599
  8
0
 10
87.36879521117838
 20
96.211639104884185
 30
0.0
 11
87.36879521117838
 21
62.211639104884171
 31
0.0
  0
LINE
  5
159A
  8
0
 10
93.36879521117838
 20
62.211639104884171
 30
0.0
 11
93.36879521117838
 21
96.211639104884185
 31
0.0
  0
LINE
  5
159B
  8
0
 10
93.36879521117838
 20
62.211639104884171
 30
0.0
 11
87.36879521117838
 21
62.211639104884171
 31
0.0
  0
LINE
  5
159C
  8
0
 10
84.722348601771657
 20
106.2116391048842
 30
0.0
 11
84.36879521117838
 21
105.85808571429089
 31
0.0
  0
LINE
  5
159D
  8
0
 10
96.368795211178394
 20
105.85808571429089
 30
0.0
 11
96.015241820585103
 21
106.2116391048842
 31
0.0
  0
LINE
  5
159E
  8
0
 10
96.015241820585103
 20
106.2116391048842
 30
0.0
 11
84.722348601771657
 21
106.2116391048842
 31
0.0
  0
LINE
  5
159F
  8
0
 10
96.015241820585103
 20
96.211639104884185
 30
0.0
 11
96.368795211178394
 21
96.565192495477447
 31
0.0
  0
LINE
  5
15A0
  8
0
 10
84.36879521117838
 20
96.565192495477447
 30
0.0
 11
84.722348601771657
 21
96.211639104884185
 31
0.0
  0
LINE
  5
15A1
  8
0
 10
96.015241820585103
 20
96.211639104884185
 30
0.0
 11
84.722348601771657
 21
96.211639104884185
 31
0.0
  0
LINE
  5
15A2
  8
0
 10
84.36879521117838
 20
105.85808571429089
 30
0.0
 11
84.36879521117838
 21
103.7060044209048
 31
0.0
  0
LINE
  5
15A3
  8
0
 10
84.36879521117838
 20
98.720534322489456
 30
0.0
 11
84.36879521117838
 21
96.565192495477447
 31
0.0
  0
LINE
  5
15A4
  8
0
 10
96.368795211178394
 20
96.565192495477447
 30
0.0
 11
96.368795211178394
 21
98.717273788863508
 31
0.0
  0
LINE
  5
15A5
  8
0
 10
96.368795211178394
 20
103.7027438872788
 30
0.0
 11
96.368795211178394
 21
105.85808571429089
 31
0.0
  0
LINE
  5
15A6
  8
0
 10
96.368795211178394
 20
96.565192495477447
 30
0.0
 11
84.36879521117838
 21
96.565192495477447
 31
0.0
  0
POLYLINE
  5
15A7
  8
0
 66
     1
 10
0.0
 20
0.0
 30
0.0
  0
VERTEX
  5
1760
  8
0
 10
96.368795211162066
 20
103.71163910484491
 30
0.0
  0
VERTEX
  5
1761
  8
0
 10
96.365807648596828
 20
103.7044604331288
 30
0.0
  0
VERTEX
  5
1762
  8
0
 10
96.341635884756826
 20
103.6457355926909
 30
0.0
  0
VERTEX
  5
1763
  8
0
 10
96.293786510187545
 20
103.5258391596189
 30
0.0
  0
VERTEX
  5
1764
  8
0
 10
96.228093733102227
 20
103.352054758214
 30
0.0
  0
VERTEX
  5
1765
  8
0
 10
96.148057793997665
 20
103.1221039700871
 30
0.0
  0
VERTEX
  5
1766
  8
0
 10
96.058857918261751
 20
102.83238387521089
 30
0.0
  0
VERTEX
  5
1767
  8
0
 10
95.970665130094488
 20
102.4887242972099
 30
0.0
  0
VERTEX
  5
1768
  8
0
 10
95.895849288330027
 20
102.1051304432635
 30
0.0
  0
VERTEX
  5
1769
  8
0
 10
95.843069040351665
 20
101.6781945214978
 30
0.0
  0
VERTEX
  5
176A
  8
0
 10
95.823538305694797
 20
101.2766177719583
 30
0.0
  0
VERTEX
  5
176B
  8
0
 10
95.834494388512709
 20
100.8596909593951
 30
0.0
  0
VERTEX
  5
176C
  8
0
 10
95.870597679029615
 20
100.4906464591146
 30
0.0
  0
VERTEX
  5
176D
  8
0
 10
95.929116017013854
 20
100.13128385599281
 30
0.0
  0
VERTEX
  5
176E
  8
0
 10
96.004221355132685
 20
99.794590120563655
 30
0.0
  0
VERTEX
  5
176F
  8
0
 10
96.089494754969195
 20
99.486413534030035
 30
0.0
  0
VERTEX
  5
1770
  8
0
 10
96.179208792220535
 20
99.208914465109856
 30
0.0
  0
VERTEX
  5
1771
  8
0
 10
96.261616860927575
 20
98.981090518604901
 30
0.0
  0
VERTEX
  5
1772
  8
0
 10
96.32341860536296
 20
98.822593319100605
 30
0.0
  0
VERTEX
  5
1773
  8
0
 10
96.360996128808878
 20
98.730415246129866
 30
0.0
  0
VERTEX
  5
1774
  8
0
 10
96.368795211032122
 20
98.711639105235193
 30
0.0
  0
SEQEND
  5
1775
  8
0
  0
LINE
  5
15A8
  8
0
 10
96.368795211178394
 20
105.85808571429089
 30
0.0
 11
84.36879521117838
 21
105.85808571429089
 31
0.0
  0
POLYLINE
  5
15A9
  8
0
 66
     1
 10
0.0
 20
0.0
 30
0.0
  0
VERTEX
  5
1776
  8
0
 10
84.368795211194694
 20
98.711639104923364
 30
0.0
  0
VERTEX
  5
1777
  8
0
 10
84.371782773759932
 20
98.718817776639469
 30
0.0
  0
VERTEX
  5
1778
  8
0
 10
84.395954537599934
 20
98.777542617077415
 30
0.0
  0
VERTEX
  5
1779
  8
0
 10
84.443803912169216
 20
98.897439050149444
 30
0.0
  0
VERTEX
  5
177A
  8
0
 10
84.509496689254533
 20
99.071223451554346
 30
0.0
  0
VERTEX
  5
177B
  8
0
 10
84.589532628359095
 20
99.301174239681202
 30
0.0
  0
VERTEX
  5
177C
  8
0
 10
84.678732504095024
 20
99.590894334557433
 30
0.0
  0
VERTEX
  5
177D
  8
0
 10
84.766925292262243
 20
99.934553912558385
 30
0.0
  0
VERTEX
  5
177E
  8
0
 10
84.841741134026705
 20
100.31814776650479
 30
0.0
  0
VERTEX
  5
177F
  8
0
 10
84.894521382005095
 20
100.7450836882705
 30
0.0
  0
VERTEX
  5
1780
  8
0
 10
84.914052116661964
 20
101.14666043781
 30
0.0
  0
VERTEX
  5
1781
  8
0
 10
84.903096033844051
 20
101.5635872503732
 30
0.0
  0
VERTEX
  5
1782
  8
0
 10
84.866992743327145
 20
101.9326317506537
 30
0.0
  0
VERTEX
  5
1783
  8
0
 10
84.808474405342878
 20
102.29199435377549
 30
0.0
  0
VERTEX
  5
1784
  8
0
 10
84.733369067224075
 20
102.6286880892046
 30
0.0
  0
VERTEX
  5
1785
  8
0
 10
84.648095667387565
 20
102.93686467573831
 30
0.0
  0
VERTEX
  5
1786
  8
0
 10
84.558381630136225
 20
103.2143637446585
 30
0.0
  0
VERTEX
  5
1787
  8
0
 10
84.475973561429186
 20
103.4421876911634
 30
0.0
  0
VERTEX
  5
1788
  8
0
 10
84.4141718169938
 20
103.60068489066769
 30
0.0
  0
VERTEX
  5
1789
  8
0
 10
84.376594293547882
 20
103.6928629636384
 30
0.0
  0
VERTEX
  5
178A
  8
0
 10
84.368795211324638
 20
103.71163910453311
 30
0.0
  0
SEQEND
  5
178B
  8
0
  0
LINE
  5
15AA
  8
1
 10
157.86879521117839
 20
101.2116391048841
 30
0.0
 11
172.86879521117839
 21
101.2116391048841
 31
0.0
  0
LINE
  5
15AB
  8
1
 10
165.36879521117839
 20
111.2116391048841
 30
0.0
 11
165.36879521117839
 21
51.211639104884171
 31
0.0
  0
LINE
  5
15AC
  8
0
 10
163.36879521117839
 20
61.634288835694548
 30
0.0
 11
163.36879521117839
 21
58.711639104884171
 31
0.0
  0
LINE
  5
15AD
  8
0
 10
167.36879521117839
 20
58.711639104884171
 30
0.0
 11
167.36879521117839
 21
61.634288835694548
 31
0.0
  0
LINE
  5
15AE
  8
0
 10
167.61879521117839
 20
58.711639104884171
 30
0.0
 11
163.11879521117839
 21
58.711639104884171
 31
0.0
  0
LINE
  5
15AF
  8
0
 10
163.11879521117839
 20
58.711639104884171
 30
0.0
 11
163.11879521117839
 21
57.22732562158572
 31
0.0
  0
LINE
  5
15B0
  8
0
 10
167.61879521117839
 20
57.22732562158572
 30
0.0
 11
167.61879521117839
 21
58.711639104884171
 31
0.0
  0
LINE
  5
15B1
  8
0
 10
167.61879521117839
 20
57.22732562158572
 30
0.0
 11
163.11879521117839
 21
57.22732562158572
 31
0.0
  0
ARC
  5
15B2
  8
0
 10
165.36879521117839
 20
59.211639104884171
 30
0.0
 40
3.0
 50
221.40962210927091
 51
318.59037789072909
  0
LINE
  5
15B3
  8
0
 10
162.36879521117839
 20
96.211639104884185
 30
0.0
 11
162.36879521117839
 21
62.211639104884171
 31
0.0
  0
LINE
  5
15B4
  8
0
 10
168.36879521117839
 20
62.211639104884171
 30
0.0
 11
168.36879521117839
 21
96.211639104884185
 31
0.0
  0
LINE
  5
15B5
  8
0
 10
167.36879521117839
 20
61.634288835694548
 30
0.0
 11
163.36879521117839
 21
61.634288835694548
 31
0.0
  0
LINE
  5
15B6
  8
0
 10
168.36879521117839
 20
62.211639104884171
 30
0.0
 11
162.36879521117839
 21
62.211639104884171
 31
0.0
  0
LINE
  5
15B7
  8
0
 10
167.36879521117839
 20
61.634288835694548
 30
0.0
 11
168.36879521117839
 21
62.211639104884171
 31
0.0
  0
LINE
  5
15B8
  8
0
 10
162.36879521117839
 20
62.211639104884171
 30
0.0
 11
163.36879521117839
 21
61.634288835694548
 31
0.0
  0
LINE
  5
15B9
  8
0
 10
171.01524182058509
 20
96.211639104884185
 30
0.0
 11
159.7223486017717
 21
96.211639104884185
 31
0.0
  0
LINE
  5
15BA
  8
0
 10
171.01524182058509
 20
96.211639104884185
 30
0.0
 11
171.36879521117839
 21
96.565192495477447
 31
0.0
  0
LINE
  5
15BB
  8
0
 10
159.36879521117839
 20
96.565192495477447
 30
0.0
 11
159.7223486017717
 21
96.211639104884185
 31
0.0
  0
LINE
  5
15BC
  8
0
 10
171.36879521117839
 20
96.565192495477447
 30
0.0
 11
159.36879521117839
 21
96.565192495477447
 31
0.0
  0
LINE
  5
15BD
  8
0
 10
159.36879521117839
 20
105.85808571429089
 30
0.0
 11
159.36879521117839
 21
96.565192495477447
 31
0.0
  0
LINE
  5
15BE
  8
0
 10
171.36879521117839
 20
96.565192495477447
 30
0.0
 11
171.36879521117839
 21
105.85808571429089
 31
0.0
  0
LINE
  5
15BF
  8
0
 10
171.36879521117839
 20
105.85808571429089
 30
0.0
 11
159.36879521117839
 21
105.85808571429089
 31
0.0
  0
LINE
  5
15C0
  8
0
 10
171.01524182058509
 20
106.2116391048842
 30
0.0
 11
159.7223486017717
 21
106.2116391048842
 31
0.0
  0
LINE
  5
15C1
  8
0
 10
159.7223486017717
 20
106.2116391048842
 30
0.0
 11
159.36879521117839
 21
105.85808571429089
 31
0.0
  0
LINE
  5
15C2
  8
0
 10
171.36879521117839
 20
105.85808571429089
 30
0.0
 11
171.01524182058509
 21
106.2116391048842
 31
0.0
  0
CIRCLE
  5
15C4
  8
0
 10
165.36879521117839
 20
101.2116391048841
 30
0.0
 40
2.5000000000000022
  0
LINE
  5
15C5
  8
1
 10
90.368795211178394
 20
145.21163910488411
 30
0.0
 11
90.368795211178394
 21
167.21163910488411
 31
0.0
  0
LINE
  5
15C6
  8
1
 10
60.368795211178387
 20
156.21163910488411
 30
0.0
 11
120.36879521117839
 21
156.21163910488411
 31
0.0
  0
LINE
  5
15C7
  8
0
 10
65.368795211178394
 20
158.46163910488411
 30
0.0
 11
65.368795211178394
 21
153.9616391048842
 31
0.0
  0
LINE
  5
15C8
  8
0
 10
65.368795211178394
 20
153.9616391048842
 30
0.0
 11
65.618795211178394
 21
153.71163910488411
 31
0.0
  0
LINE
  5
15C9
  8
0
 10
65.618795211178394
 20
158.71163910488411
 30
0.0
 11
65.368795211178394
 21
158.46163910488411
 31
0.0
  0
LINE
  5
15CA
  8
0
 10
65.618795211178394
 20
158.71163910488411
 30
0.0
 11
65.618795211178394
 21
153.71163910488411
 31
0.0
  0
LINE
  5
15CB
  8
0
 10
65.618795211178394
 20
153.71163910488411
 30
0.0
 11
84.913575603901606
 21
153.71163910488411
 31
0.0
  0
LINE
  5
15CC
  8
0
 10
84.914439153860485
 20
158.71163910488411
 30
0.0
 11
65.618795211178394
 21
158.71163910488411
 31
0.0
  0
LINE
  5
15CD
  8
0
 10
115.36879521117839
 20
158.46163910488411
 30
0.0
 11
115.36879521117839
 21
153.9616391048842
 31
0.0
  0
LINE
  5
15CE
  8
0
 10
115.36879521117839
 20
158.46163910488411
 30
0.0
 11
115.11879521117839
 21
158.71163910488411
 31
0.0
  0
LINE
  5
15CF
  8
0
 10
115.11879521117839
 20
153.71163910488411
 30
0.0
 11
115.36879521117839
 21
153.9616391048842
 31
0.0
  0
LINE
  5
15D0
  8
0
 10
115.11879521117839
 20
158.71163910488411
 30
0.0
 11
115.11879521117839
 21
153.71163910488411
 31
0.0
  0
LINE
  5
15D1
  8
0
 10
95.824014818455169
 20
153.71163910488411
 30
0.0
 11
115.11879521117839
 21
153.71163910488411
 31
0.0
  0
LINE
  5
15D2
  8
0
 10
115.11879521117839
 20
158.71163910488411
 30
0.0
 11
95.823151268496304
 21
158.71163910488411
 31
0.0
  0
CIRCLE
  5
15D3
  8
0
 10
90.368795211178394
 20
156.21163910488411
 30
0.0
 40
6.0
  0
ENDSEC
  0
EOF
