  0
SECTION
  2
HEADER
  9
$ACADVER
  1
AC1009
  9
$INSBASE
 10
0.0
 20
0.0
 30
0.0
  9
$EXTMIN
 10
0.0
 20
-2.960436562073669
 30
0.0
  9
$EXTMAX
 10
202.3687952111755
 20
181.21163910488411
 30
0.0
  9
$LIMMIN
 10
0.0
 20
0.0
  9
$LIMMAX
 10
420.0
 20
297.0
  9
$ORTHOMODE
 70
     1
  9
$REGENMODE
 70
     1
  9
$FILLMODE
 70
     1
  9
$QTEXTMODE
 70
     0
  9
$MIRRTEXT
 70
     0
  9
$DRAGMODE
 70
     2
  9
$LTSCALE
 40
5.0
  9
$OSMODE
 70
    37
  9
$ATTMODE
 70
     1
  9
$TEXTSIZE
 40
2.5
  9
$TRACEWID
 40
1.0
  9
$TEXTSTYLE
  7
STANDARD
  9
$CLAYER
  8
0
  9
$CELTYPE
  6
BYLAYER
  9
$CECOLOR
 62
   256
  9
$DIMSCALE
 40
1.0
  9
$DIMASZ
 40
2.5
  9
$DIMEXO
 40
0.625
  9
$DIMDLI
 40
3.75
  9
$DIMRND
 40
0.0
  9
$DIMDLE
 40
0.0
  9
$DIMEXE
 40
1.25
  9
$DIMTP
 40
0.0
  9
$DIMTM
 40
0.0
  9
$DIMTXT
 40
2.5
  9
$DIMCEN
 40
2.5
  9
$DIMTSZ
 40
0.0
  9
$DIMTOL
 70
     0
  9
$DIMLIM
 70
     0
  9
$DIMTIH
 70
     0
  9
$DIMTOH
 70
     0
  9
$DIMSE1
 70
     0
  9
$DIMSE2
 70
     0
  9
$DIMTAD
 70
     1
  9
$DIMZIN
 70
     8
  9
$DIMBLK
  1

  9
$DIMASO
 70
     1
  9
$DIMSHO
 70
     1
  9
$DIMPOST
  1

  9
$DIMAPOST
  1

  9
$DIMALT
 70
     0
  9
$DIMALTD
 70
     3
  9
$DIMALTF
 40
0.03937007874016
  9
$DIMLFAC
 40
1.0
  9
$DIMTOFL
 70
     1
  9
$DIMTVP
 40
0.0
  9
$DIMTIX
 70
     0
  9
$DIMSOXD
 70
     0
  9
$DIMSAH
 70
     0
  9
$DIMBLK1
  1

  9
$DIMBLK2
  1

  9
$DIMSTYLE
  2
ISO-25
  9
$DIMCLRD
 70
     0
  9
$DIMCLRE
 70
     0
  9
$DIMCLRT
 70
     0
  9
$DIMTFAC
 40
1.0
  9
$DIMGAP
 40
0.625
  9
$LUNITS
 70
     2
  9
$LUPREC
 70
     4
  9
$SKETCHINC
 40
1.0
  9
$FILLETRAD
 40
0.0
  9
$AUNITS
 70
     0
  9
$AUPREC
 70
     0
  9
$MENU
  1
.
  9
$ELEVATION
 40
0.0
  9
$PELEVATION
 40
0.0
  9
$THICKNESS
 40
0.0
  9
$LIMCHECK
 70
     0
  9
$BLIPMODE
 70
     0
  9
$CHAMFERA
 40
0.0
  9
$CHAMFERB
 40
0.0
  9
$SKPOLY
 70
     0
  9
$TDCREATE
 40
2454979.4917406249
  9
$TDUPDATE
 40
2456776.5877992362
  9
$TDINDWG
 40
0.2096350926
  9
$TDUSRTIMER
 40
0.209634919
  9
$USRTIMER
 70
     1
  9
$ANGBASE
 50
0.0
  9
$ANGDIR
 70
     0
  9
$PDMODE
 70
     0
  9
$PDSIZE
 40
0.0
  9
$PLINEWID
 40
0.0
  9
$COORDS
 70
     1
  9
$SPLFRAME
 70
     0
  9
$SPLINETYPE
 70
     6
  9
$SPLINESEGS
 70
     8
  9
$ATTDIA
 70
     0
  9
$ATTREQ
 70
     1
  9
$HANDLING
 70
     1
  9
$HANDSEED
  5
1A7A
  9
$SURFTAB1
 70
     6
  9
$SURFTAB2
 70
     6
  9
$SURFTYPE
 70
     6
  9
$SURFU
 70
     6
  9
$SURFV
 70
     6
  9
$UCSNAME
  2

  9
$UCSORG
 10
0.0
 20
0.0
 30
0.0
  9
$UCSXDIR
 10
1.0
 20
0.0
 30
0.0
  9
$UCSYDIR
 10
0.0
 20
1.0
 30
0.0
  9
$PUCSNAME
  2

  9
$PUCSORG
 10
0.0
 20
0.0
 30
0.0
  9
$PUCSXDIR
 10
1.0
 20
0.0
 30
0.0
  9
$PUCSYDIR
 10
0.0
 20
1.0
 30
0.0
  9
$USERI1
 70
     0
  9
$USERI2
 70
     0
  9
$USERI3
 70
     0
  9
$USERI4
 70
     0
  9
$USERI5
 70
     0
  9
$USERR1
 40
0.0
  9
$USERR2
 40
0.0
  9
$USERR3
 40
0.0
  9
$USERR4
 40
0.0
  9
$USERR5
 40
0.0
  9
$WORLDVIEW
 70
     1
  9
$SHADEDGE
 70
     3
  9
$SHADEDIF
 70
    70
  9
$TILEMODE
 70
     1
  9
$MAXACTVP
 70
    64
  9
$PLIMCHECK
 70
     0
  9
$PEXTMIN
 10
0.0
 20
0.0
 30
0.0
  9
$PEXTMAX
 10
0.0
 20
0.0
 30
0.0
  9
$PLIMMIN
 10
0.0
 20
0.0
  9
$PLIMMAX
 10
12.0
 20
9.0
  9
$UNITMODE
 70
     0
  9
$VISRETAIN
 70
     1
  9
$PLINEGEN
 70
     0
  9
$PSLTSCALE
 70
     1
  0
ENDSEC
  0
SECTION
  2
TABLES
  0
TABLE
  2
VPORT
 70
     1
  0
VPORT
  2
*ACTIVE
 70
     0
 10
0.0
 20
0.0
 11
1.0
 21
1.0
 12
235.63977746870651
 22
135.0
 13
0.0
 23
0.0
 14
10.0
 24
10.0
 15
10.0
 25
10.0
 16
0.0
 26
0.0
 36
1.0
 17
0.0
 27
0.0
 37
0.0
 40
270.0
 41
1.7454798331015291
 42
50.0
 43
0.0
 44
0.0
 50
0.0
 51
0.0
 71
     0
 72
  1000
 73
     1
 74
     3
 75
     0
 76
     0
 77
     0
 78
     0
  0
ENDTAB
  0
TABLE
  2
LTYPE
 70
     3
  0
LTYPE
  2
CONTINUOUS
 70
     0
  3
Solid line
 72
    65
 73
     0
 40
0.0
  0
LTYPE
  2
CENTER
 70
     0
  3
____ _ ____ _ ____ _ ____ _ ____ _ ____ _ ____
 72
    65
 73
     4
 40
2.0
 49
1.25
 49
-0.25
 49
0.25
 49
-0.25
  0
LTYPE
  2
HIDDEN
 70
     0
  3
_ _ _ _ _ _ _ _ _ _ _ _ _ _ _ _ _ _ _ _ _ _ _
 72
    65
 73
     2
 40
0.375
 49
0.25
 49
-0.125
  0
ENDTAB
  0
TABLE
  2
LAYER
 70
     3
  0
LAYER
  2
0
 70
     0
 62
     7
  6
CONTINUOUS
  0
LAYER
  2
1
 70
     0
 62
     1
  6
CENTER
  0
LAYER
  2
2
 70
     0
 62
     2
  6
HIDDEN
  0
ENDTAB
  0
TABLE
  2
STYLE
 70
     2
  0
STYLE
  2
STANDARD
 70
     0
 40
0.0
 41
1.0
 50
0.0
 71
     0
 42
2.5
  3
txt
  4

  0
STYLE
  2
STANDARD1
 70
     0
 40
0.0
 41
1.0
 50
0.0
 71
     0
 42
3.0
  3
txt
  4

  0
ENDTAB
  0
TABLE
  2
VIEW
 70
     0
  0
ENDTAB
  0
TABLE
  2
UCS
 70
     0
  0
ENDTAB
  0
TABLE
  2
APPID
 70
     5
  0
APPID
  2
ACAD
 70
     0
  0
APPID
  2
ACAD_MLEADERVER
 70
     0
  0
APPID
  2
ACAD_NAV_VCDISPLAY
 70
     0
  0
APPID
  2
ACAD_EXEMPT_FROM_CAD_STANDARDS
 70
     0
  0
APPID
  2
ACADANNOTATIVE
 70
     0
  0
ENDTAB
  0
TABLE
  2
DIMSTYLE
 70
     2
  0
DIMSTYLE
  2
ISO-25
 70
     0
  3

  4

  5

  6

  7

 40
1.0
 41
2.5
 42
0.625
 43
3.75
 44
1.25
 45
0.0
 46
0.0
 47
0.0
 48
0.0
140
2.5
141
2.5
142
0.0
143
0.03937007874016
144
1.0
145
0.0
146
1.0
147
0.625
 71
     0
 72
     0
 73
     0
 74
     0
 75
     0
 76
     0
 77
     1
 78
     8
170
     0
171
     3
172
     1
173
     0
174
     0
175
     0
176
     0
177
     0
178
     0
  0
DIMSTYLE
  2
STANDARD
 70
     0
  3

  4

  5

  6

  7

 40
1.0
 41
0.18
 42
0.0625
 43
0.38
 44
0.18
 45
0.0
 46
0.0
 47
0.0
 48
0.0
140
0.18
141
0.09
142
0.0
143
25.399999999999999
144
1.0
145
0.0
146
1.0
147
0.09
 71
     0
 72
     0
 73
     1
 74
     1
 75
     0
 76
     0
 77
     0
 78
     0
170
     0
171
     2
172
     0
173
     0
174
     0
175
     0
176
     0
177
     0
178
     0
  0
ENDTAB
  0
ENDSEC
  0
SECTION
  2
BLOCKS
  0
BLOCK
  8
0
  2
$MODEL_SPACE
 70
     0
 10
0.0
 20
0.0
 30
0.0
  3
$MODEL_SPACE
  1

  0
ENDBLK
  5
21
  8
0
  0
BLOCK
 67
     1
  8
0
  2
$PAPER_SPACE
 70
     0
 10
0.0
 20
0.0
 30
0.0
  3
$PAPER_SPACE
  1

  0
ENDBLK
  5
53
 67
     1
  8
0
  0
ENDSEC
  0
SECTION
  2
ENTITIES
  0
TEXT
  5
749
  8
0
 62
     3
 10
0.0
 20
0.0
 30
0.0
 40
10.0
  1
TBKM12
  7
STANDARD1
  0
LINE
  5
13DB
  8
1
 10
90.368795211178394
 20
151.21163910488411
 30
0.0
 11
90.368795211178394
 21
181.21163910488411
 31
0.0
  0
LINE
  5
13DC
  8
1
 10
35.368795211178387
 20
166.21163910488411
 30
0.0
 11
145.36879521117839
 21
166.21163910488411
 31
0.0
  0
ARC
  5
13DD
  8
0
 10
41.368795211178387
 20
160.2116391048842
 30
0.0
 40
1.0
 50
180.0
 51
270.0
  0
ARC
  5
13DE
  8
0
 10
41.368795211178387
 20
172.21163910488411
 30
0.0
 40
0.9999999999999982
 50
90.0
 51
180.0
  0
LINE
  5
13DF
  8
0
 10
49.268795211178372
 20
173.21163910488411
 30
0.0
 11
41.368795211178387
 21
173.21163910488411
 31
0.0
  0
LINE
  5
13E0
  8
0
 10
41.368795211178387
 20
159.2116391048842
 30
0.0
 11
49.268795211178372
 21
159.2116391048842
 31
0.0
  0
ARC
  5
13E1
  8
0
 10
49.268795211178372
 20
160.21163910488411
 30
0.0
 40
0.9999999999999822
 50
270.0
 51
0.0
  0
ARC
  5
13E2
  8
0
 10
49.268795211178372
 20
172.21163910488411
 30
0.0
 40
0.9999999999999857
 50
0.0
 51
90.0
  0
LINE
  5
13E3
  8
0
 10
130.4687952111783
 20
171.21163910488411
 30
0.0
 11
99.029049249022762
 21
171.21163910488411
 31
0.0
  0
ARC
  5
13E5
  8
0
 10
131.4687952111783
 20
160.21163910488411
 30
0.0
 40
0.9999999999999715
 50
180.0
 51
270.0
  0
ARC
  5
13E6
  8
0
 10
131.4687952111783
 20
172.2116391048842
 30
0.0
 40
0.9999999999999678
 50
90.0
 51
180.0
  0
LINE
  5
13E7
  8
0
 10
139.36879521117839
 20
173.21163910488411
 30
0.0
 11
131.4687952111783
 21
173.21163910488411
 31
0.0
  0
LINE
  5
13E8
  8
0
 10
131.4687952111783
 20
159.2116391048842
 30
0.0
 11
139.36879521117839
 21
159.2116391048842
 31
0.0
  0
ARC
  5
13E9
  8
0
 10
139.36879521117839
 20
160.21163910488411
 30
0.0
 40
0.9999999999999678
 50
270.0
 51
0.0
  0
ARC
  5
13EA
  8
0
 10
139.36879521117839
 20
172.2116391048842
 30
0.0
 40
0.9999999999999857
 50
0.0
 51
90.0
  0
LINE
  5
13EB
  8
0
 10
81.708541173334027
 20
171.21163910488411
 30
0.0
 11
50.268795211178372
 21
171.21163910488411
 31
0.0
  0
LINE
  5
13EC
  8
0
 10
50.268795211178372
 20
161.21163910488411
 30
0.0
 11
81.708541173334027
 21
161.21163910488411
 31
0.0
  0
CIRCLE
  5
13EF
  8
0
 10
90.368795211178394
 20
166.21163910488411
 30
0.0
 40
10.0
  0
LINE
  5
13F0
  8
0
 10
40.368795211178387
 20
160.2116391048842
 30
0.0
 11
40.368795211178387
 21
172.21163910488411
 31
0.0
  0
LINE
  5
13F3
  8
0
 10
50.268795211178372
 20
160.2116391048842
 30
0.0
 11
50.268795211178372
 21
172.21163910488411
 31
0.0
  0
LINE
  5
13F4
  8
0
 10
130.4687952111783
 20
160.2116391048842
 30
0.0
 11
130.4687952111783
 21
172.21163910488411
 31
0.0
  0
LINE
  5
13F7
  8
0
 10
140.36879521117839
 20
160.2116391048842
 30
0.0
 11
140.36879521117839
 21
172.21163910488411
 31
0.0
  0
LINE
  5
140F
  8
2
 10
195.42179521117541
 20
79.511639104884168
 30
0.0
 11
190.36879521117541
 21
82.428990015099345
 31
0.0
  0
LINE
  5
1410
  8
2
 10
190.36879521117541
 20
82.428990015099345
 30
0.0
 11
185.31579521117541
 21
79.511639104884168
 31
0.0
  0
LINE
  5
1411
  8
2
 10
195.42179521117541
 20
47.158639104884173
 30
0.0
 11
195.42179521117541
 21
79.511639104884168
 31
0.0
  0
LINE
  5
1412
  8
2
 10
185.31579521117541
 20
79.511639104884168
 30
0.0
 11
185.31579521117541
 21
47.158639104884173
 31
0.0
  0
LINE
  5
1413
  8
2
 10
196.36879521117541
 20
46.211639104884171
 30
0.0
 11
195.42179521117541
 21
47.158639104884173
 31
0.0
  0
LINE
  5
1414
  8
2
 10
185.31579521117541
 20
47.158639104884173
 30
0.0
 11
184.36879521117541
 21
46.211639104884171
 31
0.0
  0
LINE
  5
1415
  8
2
 10
185.31579521117541
 20
79.511639104884168
 30
0.0
 11
195.42179521117541
 21
79.511639104884168
 31
0.0
  0
LINE
  5
1416
  8
2
 10
185.31579521117541
 20
47.158639104884173
 30
0.0
 11
195.42179521117541
 21
47.158639104884173
 31
0.0
  0
LINE
  5
149D
  8
2
 10
196.36879521117541
 20
46.211639104884171
 30
0.0
 11
196.36879521117541
 21
71.211639104884171
 31
0.0
  0
LINE
  5
149E
  8
2
 10
196.36879521117541
 20
71.211639104884171
 30
0.0
 11
184.36879521117541
 21
71.211639104884171
 31
0.0
  0
LINE
  5
149F
  8
2
 10
184.36879521117541
 20
46.211639104884171
 30
0.0
 11
184.36879521117541
 21
71.211639104884171
 31
0.0
  0
LINE
  5
14A0
  8
1
 10
178.36879521117541
 20
106.2116391048842
 30
0.0
 11
202.3687952111755
 21
106.2116391048842
 31
0.0
  0
LINE
  5
14A1
  8
1
 10
190.3687952111755
 20
121.2116391048841
 30
0.0
 11
190.3687952111753
 21
41.211639104884171
 31
0.0
  0
LINE
  5
14A2
  8
0
 10
200.36879521117541
 20
115.4116391048841
 30
0.0
 11
199.56879521117551
 21
116.2116391048841
 31
0.0
  0
LINE
  5
14A3
  8
0
 10
181.16879521117539
 20
116.2116391048841
 30
0.0
 11
180.36879521117541
 21
115.4116391048841
 31
0.0
  0
LINE
  5
14A4
  8
0
 10
199.56879521117551
 20
46.211639104884171
 30
0.0
 11
200.36879521117541
 21
47.011639104884168
 31
0.0
  0
LINE
  5
14A5
  8
0
 10
180.36879521117541
 20
47.011639104884168
 30
0.0
 11
181.16879521117539
 21
46.211639104884171
 31
0.0
  0
LINE
  5
14A6
  8
0
 10
200.36879521117541
 20
47.011639104884168
 30
0.0
 11
200.36879521117541
 21
115.4116391048841
 31
0.0
  0
LINE
  5
14A7
  8
0
 10
180.36879521117541
 20
115.4116391048841
 30
0.0
 11
180.36879521117541
 21
47.011639104884168
 31
0.0
  0
LINE
  5
14A8
  8
0
 10
181.16879521117539
 20
116.2116391048841
 30
0.0
 11
199.56879521117551
 21
116.2116391048841
 31
0.0
  0
LINE
  5
14A9
  8
0
 10
181.16879521117539
 20
46.211639104884171
 30
0.0
 11
199.56879521117551
 21
46.211639104884171
 31
0.0
  0
LINE
  5
14AA
  8
0
 10
180.36879521117541
 20
115.4116391048841
 30
0.0
 11
200.36879521117541
 21
115.4116391048841
 31
0.0
  0
LINE
  5
14AB
  8
0
 10
180.36879521117541
 20
47.011639104884168
 30
0.0
 11
200.36879521117541
 21
47.011639104884168
 31
0.0
  0
CIRCLE
  5
14AC
  8
0
 10
190.36879521117541
 20
106.2116391048842
 30
0.0
 40
7.0
  0
LINE
  5
14C6
  8
2
 10
95.421795211178392
 20
79.511639104884168
 30
0.0
 11
90.368795211178394
 21
82.428990015099345
 31
0.0
  0
LINE
  5
14C7
  8
2
 10
90.368795211178394
 20
82.428990015099345
 30
0.0
 11
85.315795211178397
 21
79.511639104884168
 31
0.0
  0
LINE
  5
14C8
  8
2
 10
95.421795211178392
 20
47.158639104884173
 30
0.0
 11
95.421795211178392
 21
79.511639104884168
 31
0.0
  0
LINE
  5
14C9
  8
2
 10
85.315795211178397
 20
79.511639104884168
 30
0.0
 11
85.315795211178397
 21
47.158639104884173
 31
0.0
  0
LINE
  5
14CA
  8
2
 10
96.368795211178394
 20
46.211639104884171
 30
0.0
 11
95.421795211178392
 21
47.158639104884173
 31
0.0
  0
LINE
  5
14CB
  8
2
 10
85.315795211178397
 20
47.158639104884173
 30
0.0
 11
84.368795211178394
 21
46.211639104884171
 31
0.0
  0
LINE
  5
14D4
  8
2
 10
85.315795211178397
 20
79.511639104884168
 30
0.0
 11
95.421795211178392
 21
79.511639104884168
 31
0.0
  0
LINE
  5
14D5
  8
2
 10
85.315795211178397
 20
47.158639104884173
 30
0.0
 11
95.421795211178392
 21
47.158639104884173
 31
0.0
  0
LINE
  5
155D
  8
2
 10
96.368795211178394
 20
46.211639104884171
 30
0.0
 11
96.368795211178394
 21
71.211639104884171
 31
0.0
  0
LINE
  5
155E
  8
2
 10
96.368795211178394
 20
71.211639104884171
 30
0.0
 11
84.368795211178394
 21
71.211639104884171
 31
0.0
  0
LINE
  5
155F
  8
2
 10
84.368795211178394
 20
46.211639104884171
 30
0.0
 11
84.368795211178394
 21
71.211639104884171
 31
0.0
  0
LINE
  5
1560
  8
1
 10
90.368795211178337
 20
121.2116391048841
 30
0.0
 11
90.368795211178337
 21
41.211639104884171
 31
0.0
  0
LINE
  5
1561
  8
1
 10
35.368795211178387
 20
106.2116391048842
 30
0.0
 11
145.36879521117839
 21
106.2116391048842
 31
0.0
  0
LINE
  5
1562
  8
0
 10
100.36879521117839
 20
115.4116391048841
 30
0.0
 11
99.568795211178383
 21
116.2116391048841
 31
0.0
  0
LINE
  5
1563
  8
0
 10
81.168795211178406
 20
116.2116391048841
 30
0.0
 11
80.368795211178394
 21
115.4116391048841
 31
0.0
  0
LINE
  5
1564
  8
0
 10
99.568795211178383
 20
46.211639104884171
 30
0.0
 11
100.36879521117839
 21
47.011639104884168
 31
0.0
  0
LINE
  5
1565
  8
0
 10
80.368795211178394
 20
47.011639104884168
 30
0.0
 11
81.168795211178406
 21
46.211639104884171
 31
0.0
  0
LINE
  5
1566
  8
0
 10
100.36879521117839
 20
111.2116391048841
 30
0.0
 11
100.36879521117839
 21
115.4116391048841
 31
0.0
  0
LINE
  5
1567
  8
0
 10
100.36879521117839
 20
47.011639104884168
 30
0.0
 11
100.36879521117839
 21
101.2116391048841
 31
0.0
  0
LINE
  5
1568
  8
0
 10
80.368795211178394
 20
101.2116391048841
 30
0.0
 11
80.368795211178394
 21
47.011639104884168
 31
0.0
  0
LINE
  5
1569
  8
0
 10
80.368795211178394
 20
115.4116391048841
 30
0.0
 11
80.368795211178394
 21
111.2116391048841
 31
0.0
  0
ARC
  5
156A
  8
0
 10
41.36879521117833
 20
100.2116391048841
 30
0.0
 40
0.9999999999999891
 50
180.0
 51
270.0
  0
ARC
  5
156B
  8
0
 10
41.36879521117833
 20
112.2116391048842
 30
0.0
 40
0.9999999999999857
 50
90.0
 51
180.0
  0
LINE
  5
156C
  8
0
 10
49.268795211178372
 20
113.2116391048841
 30
0.0
 11
41.368795211178387
 21
113.2116391048841
 31
0.0
  0
LINE
  5
156D
  8
0
 10
41.368795211178387
 20
99.211639104884171
 30
0.0
 11
49.268795211178372
 21
99.211639104884171
 31
0.0
  0
ARC
  5
156E
  8
0
 10
49.268795211178372
 20
100.2116391048841
 30
0.0
 40
0.9999999999999927
 50
270.0
 51
0.0
  0
ARC
  5
156F
  8
0
 10
49.268795211178372
 20
112.2116391048842
 30
0.0
 40
0.9999999999999927
 50
0.0
 51
90.0
  0
LINE
  5
1570
  8
0
 10
130.4687952111783
 20
111.2116391048841
 30
0.0
 11
100.36879521117839
 21
111.2116391048841
 31
0.0
  0
LINE
  5
1571
  8
0
 10
100.36879521117839
 20
101.2116391048841
 30
0.0
 11
130.4687952111783
 21
101.2116391048841
 31
0.0
  0
ARC
  5
1572
  8
0
 10
131.4687952111783
 20
100.2116391048841
 30
0.0
 40
0.9999999999999715
 50
180.0
 51
270.0
  0
ARC
  5
1573
  8
0
 10
131.4687952111783
 20
112.2116391048842
 30
0.0
 40
0.9999999999999857
 50
90.0
 51
180.0
  0
LINE
  5
1574
  8
0
 10
139.36879521117839
 20
113.2116391048841
 30
0.0
 11
131.4687952111783
 21
113.2116391048841
 31
0.0
  0
LINE
  5
1575
  8
0
 10
131.4687952111783
 20
99.211639104884171
 30
0.0
 11
139.36879521117839
 21
99.211639104884171
 31
0.0
  0
ARC
  5
1576
  8
0
 10
139.36879521117839
 20
100.2116391048841
 30
0.0
 40
0.9999999999999643
 50
270.0
 51
0.0
  0
ARC
  5
1577
  8
0
 10
139.36879521117839
 20
112.2116391048842
 30
0.0
 40
0.9999999999999857
 50
0.0
 51
90.0
  0
LINE
  5
1578
  8
0
 10
80.368795211178394
 20
111.2116391048841
 30
0.0
 11
50.268795211187012
 21
111.2116391048841
 31
0.0
  0
LINE
  5
1579
  8
0
 10
50.268795211169667
 20
101.2116391048841
 30
0.0
 11
80.368795211178394
 21
101.2116391048841
 31
0.0
  0
LINE
  5
157A
  8
0
 10
81.168795211178406
 20
116.2116391048841
 30
0.0
 11
99.568795211178383
 21
116.2116391048841
 31
0.0
  0
LINE
  5
157B
  8
0
 10
81.168795211178406
 20
46.211639104884171
 30
0.0
 11
99.568795211178383
 21
46.211639104884171
 31
0.0
  0
LINE
  5
157C
  8
0
 10
80.368795211178394
 20
115.4116391048841
 30
0.0
 11
100.36879521117839
 21
115.4116391048841
 31
0.0
  0
LINE
  5
157D
  8
0
 10
80.368795211178394
 20
47.011639104884168
 30
0.0
 11
100.36879521117839
 21
47.011639104884168
 31
0.0
  0
LINE
  5
157E
  8
0
 10
40.368795211167992
 20
100.2116391048841
 30
0.0
 11
40.36879521118874
 21
112.2116391048841
 31
0.0
  0
LINE
  5
1581
  8
0
 10
50.268795211167962
 20
100.2116391048841
 30
0.0
 11
50.268795211188767
 21
112.2116391048841
 31
0.0
  0
POLYLINE
  5
1582
  8
0
 66
     1
 10
0.0
 20
0.0
 30
0.0
 70
     8
  0
VERTEX
  5
1583
  8
0
 10
99.029049249022762
 20
106.2116391048842
 30
0.0
 70
    32
  0
VERTEX
  5
1584
  8
0
 10
99.029122527866889
 20
106.2472653898508
 30
0.0
 70
    32
  0
VERTEX
  5
1585
  8
0
 10
99.029711161457442
 20
106.31871430181521
 30
0.0
 70
    32
  0
VERTEX
  5
1586
  8
0
 10
99.030894004453515
 20
106.39040013099969
 30
0.0
 70
    32
  0
VERTEX
  5
1587
  8
0
 10
99.031709786443685
 20
106.42632244923929
 30
0.0
 70
    32
  0
VERTEX
  5
1588
  8
0
 10
99.032675818866039
 20
106.4622926192541
 30
0.0
 70
    32
  0
VERTEX
  5
1589
  8
0
 10
99.035060238316532
 20
106.53436115339861
 30
0.0
 70
    32
  0
VERTEX
  5
158A
  8
0
 10
99.03804975098376
 20
106.606574891989
 30
0.0
 70
    32
  0
VERTEX
  5
158B
  8
0
 10
99.04164569099089
 20
106.67890289032439
 30
0.0
 70
    32
  0
VERTEX
  5
158C
  8
0
 10
99.045848238189024
 20
106.751314223409
 30
0.0
 70
    32
  0
VERTEX
  5
158D
  8
0
 10
99.050656426227988
 20
106.8237781065676
 30
0.0
 70
    32
  0
VERTEX
  5
158E
  8
0
 10
99.053287023983046
 20
106.8600202016713
 30
0.0
 70
    32
  0
VERTEX
  5
158F
  8
0
 10
99.056068158736096
 20
106.8962640134052
 30
0.0
 70
    32
  0
VERTEX
  5
1590
  8
0
 10
99.062080233367055
 20
106.96874179079271
 30
0.0
 70
    32
  0
VERTEX
  5
1591
  8
0
 10
99.068688373406189
 20
107.0411817705608
 30
0.0
 70
    32
  0
VERTEX
  5
1592
  8
0
 10
99.075887266568316
 20
107.1135548775783
 30
0.0
 70
    32
  0
VERTEX
  5
1593
  8
0
 10
99.083670610563559
 20
107.1858327338969
 30
0.0
 70
    32
  0
VERTEX
  5
1594
  8
0
 10
99.092031156157702
 20
107.2579876853197
 30
0.0
 70
    32
  0
VERTEX
  5
1595
  8
0
 10
99.096425349956348
 20
107.2940105010812
 30
0.0
 70
    32
  0
VERTEX
  5
1596
  8
0
 10
99.100960683544599
 20
107.32999228558511
 30
0.0
 70
    32
  0
VERTEX
  5
1597
  8
0
 10
99.110449977833625
 20
107.4018189481795
 30
0.0
 70
    32
  0
VERTEX
  5
1598
  8
0
 10
99.120488852805693
 20
107.47344003882721
 30
0.0
 70
    32
  0
VERTEX
  5
1599
  8
0
 10
99.125710942033791
 20
107.5091648723749
 30
0.0
 70
    32
  0
VERTEX
  5
159A
  8
0
 10
99.131066182981613
 20
107.54482798246499
 30
0.0
 70
    32
  0
VERTEX
  5
159B
  8
0
 10
99.142169941162138
 20
107.6159553629674
 30
0.0
 70
    32
  0
VERTEX
  5
159C
  8
0
 10
99.153787240850662
 20
107.6867950157643
 30
0.0
 70
    32
  0
VERTEX
  5
159D
  8
0
 10
99.159784218185791
 20
107.72209854536079
 30
0.0
 70
    32
  0
VERTEX
  5
159E
  8
0
 10
99.165904382978113
 20
107.7573201135539
 30
0.0
 70
    32
  0
VERTEX
  5
159F
  8
0
 10
99.178506906360099
 20
107.82750424536511
 30
0.0
 70
    32
  0
VERTEX
  5
15A0
  8
0
 10
99.191579641335295
 20
107.8973214892672
 30
0.0
 70
    32
  0
VERTEX
  5
15A1
  8
0
 10
99.205106766056531
 20
107.9667464790561
 30
0.0
 70
    32
  0
VERTEX
  5
15A2
  8
0
 10
99.219071864933213
 20
108.0357544652704
 30
0.0
 70
    32
  0
VERTEX
  5
15A3
  8
0
 10
99.233457988753173
 20
108.1043213709076
 30
0.0
 70
    32
  0
VERTEX
  5
15A4
  8
0
 10
99.240803507557757
 20
108.1384320909166
 30
0.0
 70
    32
  0
VERTEX
  5
15A5
  8
0
 10
99.248248140078886
 20
108.17242576246829
 30
0.0
 70
    32
  0
VERTEX
  5
15A6
  8
0
 10
99.263427563347989
 20
108.2400583614141
 30
0.0
 70
    32
  0
VERTEX
  5
15A7
  8
0
 10
99.278978864197654
 20
108.30719934752381
 30
0.0
 70
    32
  0
VERTEX
  5
15A8
  8
0
 10
99.29488361557037
 20
108.37382647026681
 30
0.0
 70
    32
  0
VERTEX
  5
15A9
  8
0
 10
99.311122953919664
 20
108.4399176912823
 30
0.0
 70
    32
  0
VERTEX
  5
15AA
  8
0
 10
99.327677626980631
 20
108.505451246314
 30
0.0
 70
    32
  0
VERTEX
  5
15AB
  8
0
 10
99.336067103407814
 20
108.5380021868572
 30
0.0
 70
    32
  0
VERTEX
  5
15AC
  8
0
 10
99.344528042611785
 20
108.5704057023396
 30
0.0
 70
    32
  0
VERTEX
  5
15AD
  8
0
 10
99.361654318401307
 20
108.63476001032021
 30
0.0
 70
    32
  0
VERTEX
  5
15AE
  8
0
 10
99.379036331764681
 20
108.69849355400341
 30
0.0
 70
    32
  0
VERTEX
  5
15AF
  8
0
 10
99.396653770296325
 20
108.7615861952056
 30
0.0
 70
    32
  0
VERTEX
  5
15B0
  8
0
 10
99.414486182167991
 20
108.82401831599481
 30
0.0
 70
    32
  0
VERTEX
  5
15B1
  8
0
 10
99.432513026399306
 20
108.885770858174
 30
0.0
 70
    32
  0
VERTEX
  5
15B2
  8
0
 10
99.441592929526564
 20
108.91638649384009
 30
0.0
 70
    32
  0
VERTEX
  5
15B3
  8
0
 10
99.450713722850651
 20
108.9468253604534
 30
0.0
 70
    32
  0
VERTEX
  5
15B4
  8
0
 10
99.469067701815405
 20
109.0071639936742
 30
0.0
 70
    32
  0
VERTEX
  5
15B5
  8
0
 10
99.487554448115759
 20
109.0667695784757
 30
0.0
 70
    32
  0
VERTEX
  5
15B6
  8
0
 10
99.506153480313571
 20
109.12562540178619
 30
0.0
 70
    32
  0
VERTEX
  5
15B7
  8
0
 10
99.524844314245286
 20
109.1837150086544
 30
0.0
 70
    32
  0
VERTEX
  5
15B8
  8
0
 10
99.543606496910058
 20
109.2410222316592
 30
0.0
 70
    32
  0
VERTEX
  5
15B9
  8
0
 10
99.553007971610896
 20
109.2693774895225
 30
0.0
 70
    32
  0
VERTEX
  5
15BA
  8
0
 10
99.562419649697745
 20
109.29753124761061
 30
0.0
 70
    32
  0
VERTEX
  5
15BB
  8
0
 10
99.581263511726604
 20
109.3532266316937
 30
0.0
 70
    32
  0
VERTEX
  5
15BC
  8
0
 10
99.600117983148934
 20
109.4080934093131
 30
0.0
 70
    32
  0
VERTEX
  5
15BD
  8
0
 10
99.618963168303083
 20
109.46211710588901
 30
0.0
 70
    32
  0
VERTEX
  5
15BE
  8
0
 10
99.637779418605078
 20
109.5152837948479
 30
0.0
 70
    32
  0
VERTEX
  5
15BF
  8
0
 10
99.656547375091066
 20
109.567580144036
 30
0.0
 70
    32
  0
VERTEX
  5
15C0
  8
0
 10
99.665907283043666
 20
109.5933979485665
 30
0.0
 70
    32
  0
VERTEX
  5
15C1
  8
0
 10
99.675248010531433
 20
109.6189934607718
 30
0.0
 70
    32
  0
VERTEX
  5
15C2
  8
0
 10
99.693862671051875
 20
109.6695117357355
 30
0.0
 70
    32
  0
VERTEX
  5
15C3
  8
0
 10
99.712373117202276
 20
109.719123685882
 30
0.0
 70
    32
  0
VERTEX
  5
15C4
  8
0
 10
99.721583683352037
 20
109.74358647216251
 30
0.0
 70
    32
  0
VERTEX
  5
15C5
  8
0
 10
99.730779459402584
 20
109.767865906425
 30
0.0
 70
    32
  0
VERTEX
  5
15C6
  8
0
 10
99.749210509226543
 20
109.81610732694629
 30
0.0
 70
    32
  0
VERTEX
  5
15C7
  8
0
 10
99.767680043146186
 20
109.8639036194825
 30
0.0
 70
    32
  0
VERTEX
  5
15C8
  8
0
 10
99.776923339833061
 20
109.8876253514828
 30
0.0
 70
    32
  0
VERTEX
  5
15C9
  8
0
 10
99.786169153423415
 20
109.9112244827442
 30
0.0
 70
    32
  0
VERTEX
  5
15CA
  8
0
 10
99.804658770946162
 20
109.95804019373639
 30
0.0
 70
    32
  0
VERTEX
  5
15CB
  8
0
 10
99.823129712443858
 20
110.00432164654499
 30
0.0
 70
    32
  0
VERTEX
  5
15CC
  8
0
 10
99.841562727186897
 20
110.0500403882762
 30
0.0
 70
    32
  0
VERTEX
  5
15CD
  8
0
 10
99.859938543076623
 20
110.09516865242669
 30
0.0
 70
    32
  0
VERTEX
  5
15CE
  8
0
 10
99.878237912027274
 20
110.1396793899026
 30
0.0
 70
    32
  0
VERTEX
  5
15CF
  8
0
 10
99.887352931425085
 20
110.1616949365994
 30
0.0
 70
    32
  0
VERTEX
  5
15D0
  8
0
 10
99.896441654529156
 20
110.183546297845
 30
0.0
 70
    32
  0
VERTEX
  5
15D1
  8
0
 10
99.914530703272476
 20
110.22674384636031
 30
0.0
 70
    32
  0
VERTEX
  5
15D2
  8
0
 10
99.932486145698206
 20
110.26924730319701
 30
0.0
 70
    32
  0
VERTEX
  5
15D3
  8
0
 10
99.950289265327228
 20
110.3110327563513
 30
0.0
 70
    32
  0
VERTEX
  5
15D4
  8
0
 10
99.967921581704275
 20
110.3520771345285
 30
0.0
 70
    32
  0
VERTEX
  5
15D5
  8
0
 10
99.985364883594798
 20
110.39235821341551
 30
0.0
 70
    32
  0
VERTEX
  5
15D6
  8
0
 10
99.994010029251683
 20
110.41220576833069
 30
0.0
 70
    32
  0
VERTEX
  5
15D7
  8
0
 10
100.0026011942212
 20
110.43185446892809
 30
0.0
 70
    32
  0
VERTEX
  5
15D8
  8
0
 10
100.01961272587791
 20
110.4705449153043
 30
0.0
 70
    32
  0
VERTEX
  5
15D9
  8
0
 10
100.03638191286581
 20
110.5084091283605
 30
0.0
 70
    32
  0
VERTEX
  5
15DA
  8
0
 10
100.0528914535256
 20
110.5454272897223
 30
0.0
 70
    32
  0
VERTEX
  5
15DB
  8
0
 10
100.06912435120999
 20
110.58158022862339
 30
0.0
 70
    32
  0
VERTEX
  5
15DC
  8
0
 10
100.0850639540661
 20
110.6168494612709
 30
0.0
 70
    32
  0
VERTEX
  5
15DD
  8
0
 10
100.09291866999919
 20
110.6341471085388
 30
0.0
 70
    32
  0
VERTEX
  5
15DE
  8
0
 10
100.100693993476
 20
110.65121722773389
 30
0.0
 70
    32
  0
VERTEX
  5
15DF
  8
0
 10
100.1159986209985
 20
110.6846665262633
 30
0.0
 70
    32
  0
VERTEX
  5
15E0
  8
0
 10
100.13096244363351
 20
110.7171811449078
 30
0.0
 70
    32
  0
VERTEX
  5
15E1
  8
0
 10
100.1455705572169
 20
110.748745690243
 30
0.0
 70
    32
  0
VERTEX
  5
15E2
  8
0
 10
100.1598085777386
 20
110.7793456129865
 30
0.0
 70
    32
  0
VERTEX
  5
15E3
  8
0
 10
100.1736626703571
 20
110.8089672302264
 30
0.0
 70
    32
  0
VERTEX
  5
15E4
  8
0
 10
100.1804415770487
 20
110.8234071399111
 30
0.0
 70
    32
  0
VERTEX
  5
15E5
  8
0
 10
100.1871199574724
 20
110.83759855387321
 30
0.0
 70
    32
  0
VERTEX
  5
15E6
  8
0
 10
100.2001702782474
 20
110.8652329536624
 30
0.0
 70
    32
  0
VERTEX
  5
15E7
  8
0
 10
100.2128015920366
 20
110.89185935892959
 30
0.0
 70
    32
  0
VERTEX
  5
15E8
  8
0
 10
100.2250018320071
 20
110.9174662322303
 30
0.0
 70
    32
  0
VERTEX
  5
15E9
  8
0
 10
100.2367594756477
 20
110.9420427583627
 30
0.0
 70
    32
  0
VERTEX
  5
15EA
  8
0
 10
100.2480635819892
 20
110.9655788965205
 30
0.0
 70
    32
  0
VERTEX
  5
15EB
  8
0
 10
100.2535423072333
 20
110.9769539059195
 30
0.0
 70
    32
  0
VERTEX
  5
15EC
  8
0
 10
100.2589038263189
 20
110.9880654279082
 30
0.0
 70
    32
  0
VERTEX
  5
15ED
  8
0
 10
100.2692705321668
 20
111.0094939986363
 30
0.0
 70
    32
  0
VERTEX
  5
15EE
  8
0
 10
100.2791547003352
 20
111.0298571576834
 30
0.0
 70
    32
  0
VERTEX
  5
15EF
  8
0
 10
100.2839132121607
 20
111.03963713444089
 30
0.0
 70
    32
  0
VERTEX
  5
15F0
  8
0
 10
100.2885480347412
 20
111.0491483896901
 30
0.0
 70
    32
  0
VERTEX
  5
15F1
  8
0
 10
100.29744296484
 20
111.0673621423205
 30
0.0
 70
    32
  0
VERTEX
  5
15F2
  8
0
 10
100.3058326643923
 20
111.0844938479045
 30
0.0
 70
    32
  0
VERTEX
  5
15F3
  8
0
 10
100.3098361267801
 20
111.0926527788732
 30
0.0
 70
    32
  0
VERTEX
  5
15F4
  8
0
 10
100.313711066344
 20
111.1005399390517
 30
0.0
 70
    32
  0
VERTEX
  5
15F5
  8
0
 10
100.3210728735823
 20
111.1154978579055
 30
0.0
 70
    32
  0
VERTEX
  5
15F6
  8
0
 10
100.32791356284061
 20
111.1293660536295
 30
0.0
 70
    32
  0
VERTEX
  5
15F7
  8
0
 10
100.3342293502451
 20
111.1421439046057
 30
0.0
 70
    32
  0
VERTEX
  5
15F8
  8
0
 10
100.3400171620134
 20
111.153831654028
 30
0.0
 70
    32
  0
VERTEX
  5
15F9
  8
0
 10
100.345274658611
 20
111.1644304557332
 30
0.0
 70
    32
  0
VERTEX
  5
15FA
  8
0
 10
100.3477040150412
 20
111.1693221237763
 30
0.0
 70
    32
  0
VERTEX
  5
15FB
  8
0
 10
100.350000261415
 20
111.1739424264142
 30
0.0
 70
    32
  0
VERTEX
  5
15FC
  8
0
 10
100.3541931748499
 20
111.18237069016379
 30
0.0
 70
    32
  0
VERTEX
  5
15FD
  8
0
 10
100.3578534038768
 20
111.1897194153165
 30
0.0
 70
    32
  0
VERTEX
  5
15FE
  8
0
 10
100.3609817667308
 20
111.1959938435602
 30
0.0
 70
    32
  0
VERTEX
  5
15FF
  8
0
 10
100.36357990283121
 20
111.20120031129269
 30
0.0
 70
    32
  0
VERTEX
  5
1600
  8
0
 10
100.3656502757981
 20
111.2053462631998
 30
0.0
 70
    32
  0
VERTEX
  5
1601
  8
0
 10
100.36648854598479
 20
111.2070241768112
 30
0.0
 70
    32
  0
VERTEX
  5
1602
  8
0
 10
100.36719617153381
 20
111.2084402580256
 30
0.0
 70
    32
  0
VERTEX
  5
1603
  8
0
 10
100.3682216913388
 20
111.210491966505
 30
0.0
 70
    32
  0
VERTEX
  5
1604
  8
0
 10
100.3687317400491
 20
111.2115121614171
 30
0.0
 70
    32
  0
VERTEX
  5
1605
  8
0
 10
100.36879521117839
 20
111.2116391048841
 30
0.0
 70
    32
  0
SEQEND
  5
1606
  8
0
  0
POLYLINE
  5
1607
  8
0
 66
     1
 10
0.0
 20
0.0
 30
0.0
 70
     8
  0
VERTEX
  5
1608
  8
0
 10
100.36879521117839
 20
101.2116391048841
 30
0.0
 70
    32
  0
VERTEX
  5
1609
  8
0
 10
100.3687317400491
 20
101.21176604835119
 30
0.0
 70
    32
  0
VERTEX
  5
160A
  8
0
 10
100.3682216913388
 20
101.2127862432633
 30
0.0
 70
    32
  0
VERTEX
  5
160B
  8
0
 10
100.36719617153381
 20
101.21483795174269
 30
0.0
 70
    32
  0
VERTEX
  5
160C
  8
0
 10
100.36648854598479
 20
101.2162540329571
 30
0.0
 70
    32
  0
VERTEX
  5
160D
  8
0
 10
100.3656502757981
 20
101.2179319465685
 30
0.0
 70
    32
  0
VERTEX
  5
160E
  8
0
 10
100.36357990283121
 20
101.2220778984756
 30
0.0
 70
    32
  0
VERTEX
  5
160F
  8
0
 10
100.3609817667308
 20
101.2272843662081
 30
0.0
 70
    32
  0
VERTEX
  5
1610
  8
0
 10
100.3578534038768
 20
101.2335587944517
 30
0.0
 70
    32
  0
VERTEX
  5
1611
  8
0
 10
100.3541931748499
 20
101.24090751960451
 30
0.0
 70
    32
  0
VERTEX
  5
1612
  8
0
 10
100.350000261415
 20
101.2493357833541
 30
0.0
 70
    32
  0
VERTEX
  5
1613
  8
0
 10
100.3477040150412
 20
101.253956085992
 30
0.0
 70
    32
  0
VERTEX
  5
1614
  8
0
 10
100.345274658611
 20
101.2588477540351
 30
0.0
 70
    32
  0
VERTEX
  5
1615
  8
0
 10
100.3400171620134
 20
101.2694465557403
 30
0.0
 70
    32
  0
VERTEX
  5
1616
  8
0
 10
100.3342293502451
 20
101.2811343051626
 30
0.0
 70
    32
  0
VERTEX
  5
1617
  8
0
 10
100.32791356284071
 20
101.2939121561388
 30
0.0
 70
    32
  0
VERTEX
  5
1618
  8
0
 10
100.3210728735823
 20
101.3077803518628
 30
0.0
 70
    32
  0
VERTEX
  5
1619
  8
0
 10
100.313711066344
 20
101.3227382707166
 30
0.0
 70
    32
  0
VERTEX
  5
161A
  8
0
 10
100.3098361267801
 20
101.3306254308951
 30
0.0
 70
    32
  0
VERTEX
  5
161B
  8
0
 10
100.3058326643923
 20
101.3387843618638
 30
0.0
 70
    32
  0
VERTEX
  5
161C
  8
0
 10
100.29744296484
 20
101.35591606744779
 30
0.0
 70
    32
  0
VERTEX
  5
161D
  8
0
 10
100.2885480347412
 20
101.3741298200782
 30
0.0
 70
    32
  0
VERTEX
  5
161E
  8
0
 10
100.2839132121607
 20
101.3836410753274
 30
0.0
 70
    32
  0
VERTEX
  5
161F
  8
0
 10
100.2791547003352
 20
101.3934210520849
 30
0.0
 70
    32
  0
VERTEX
  5
1620
  8
0
 10
100.2692705321668
 20
101.413784211132
 30
0.0
 70
    32
  0
VERTEX
  5
1621
  8
0
 10
100.2589038263189
 20
101.43521278186
 30
0.0
 70
    32
  0
VERTEX
  5
1622
  8
0
 10
100.2535423072333
 20
101.4463243038489
 30
0.0
 70
    32
  0
VERTEX
  5
1623
  8
0
 10
100.2480635819892
 20
101.4576993132478
 30
0.0
 70
    32
  0
VERTEX
  5
1624
  8
0
 10
100.2367594756477
 20
101.4812354514056
 30
0.0
 70
    32
  0
VERTEX
  5
1625
  8
0
 10
100.2250018320071
 20
101.505811977538
 30
0.0
 70
    32
  0
VERTEX
  5
1626
  8
0
 10
100.2128015920366
 20
101.53141885083861
 30
0.0
 70
    32
  0
VERTEX
  5
1627
  8
0
 10
100.2001702782474
 20
101.5580452561059
 30
0.0
 70
    32
  0
VERTEX
  5
1628
  8
0
 10
100.1871199574724
 20
101.58567965589511
 30
0.0
 70
    32
  0
VERTEX
  5
1629
  8
0
 10
100.1804415770487
 20
101.5998710698572
 30
0.0
 70
    32
  0
VERTEX
  5
162A
  8
0
 10
100.1736626703571
 20
101.6143109795419
 30
0.0
 70
    32
  0
VERTEX
  5
162B
  8
0
 10
100.1598085777386
 20
101.6439325967818
 30
0.0
 70
    32
  0
VERTEX
  5
162C
  8
0
 10
100.1455705572169
 20
101.6745325195253
 30
0.0
 70
    32
  0
VERTEX
  5
162D
  8
0
 10
100.13096244363351
 20
101.7060970648605
 30
0.0
 70
    32
  0
VERTEX
  5
162E
  8
0
 10
100.1159986209985
 20
101.738611683505
 30
0.0
 70
    32
  0
VERTEX
  5
162F
  8
0
 10
100.100693993476
 20
101.7720609820344
 30
0.0
 70
    32
  0
VERTEX
  5
1630
  8
0
 10
100.09291866999919
 20
101.7891311012295
 30
0.0
 70
    32
  0
VERTEX
  5
1631
  8
0
 10
100.0850639540661
 20
101.8064287484974
 30
0.0
 70
    32
  0
VERTEX
  5
1632
  8
0
 10
100.06912435120999
 20
101.8416979811449
 30
0.0
 70
    32
  0
VERTEX
  5
1633
  8
0
 10
100.0528914535256
 20
101.877850920046
 30
0.0
 70
    32
  0
VERTEX
  5
1634
  8
0
 10
100.03638191286581
 20
101.9148690814078
 30
0.0
 70
    32
  0
VERTEX
  5
1635
  8
0
 10
100.01961272587791
 20
101.952733294464
 30
0.0
 70
    32
  0
VERTEX
  5
1636
  8
0
 10
100.0026011942212
 20
101.9914237408402
 30
0.0
 70
    32
  0
VERTEX
  5
1637
  8
0
 10
99.994010029251683
 20
102.0110724414377
 30
0.0
 70
    32
  0
VERTEX
  5
1638
  8
0
 10
99.985364883594798
 20
102.03091999635279
 30
0.0
 70
    32
  0
VERTEX
  5
1639
  8
0
 10
99.967921581704275
 20
102.0712010752398
 30
0.0
 70
    32
  0
VERTEX
  5
163A
  8
0
 10
99.950289265327228
 20
102.112245453417
 30
0.0
 70
    32
  0
VERTEX
  5
163B
  8
0
 10
99.932486145698206
 20
102.15403090657119
 30
0.0
 70
    32
  0
VERTEX
  5
163C
  8
0
 10
99.914530703272476
 20
102.19653436340791
 30
0.0
 70
    32
  0
VERTEX
  5
163D
  8
0
 10
99.896441654529156
 20
102.2397319119233
 30
0.0
 70
    32
  0
VERTEX
  5
163E
  8
0
 10
99.887352931425085
 20
102.2615832731689
 30
0.0
 70
    32
  0
VERTEX
  5
163F
  8
0
 10
99.878237912027274
 20
102.2835988198657
 30
0.0
 70
    32
  0
VERTEX
  5
1640
  8
0
 10
99.859938543076623
 20
102.3281095573417
 30
0.0
 70
    32
  0
VERTEX
  5
1641
  8
0
 10
99.841562727186897
 20
102.3732378214921
 30
0.0
 70
    32
  0
VERTEX
  5
1642
  8
0
 10
99.823129712443858
 20
102.4189565632233
 30
0.0
 70
    32
  0
VERTEX
  5
1643
  8
0
 10
99.804658770946162
 20
102.4652380160319
 30
0.0
 70
    32
  0
VERTEX
  5
1644
  8
0
 10
99.786169153423415
 20
102.5120537270241
 30
0.0
 70
    32
  0
VERTEX
  5
1645
  8
0
 10
99.776923339833061
 20
102.5356528582855
 30
0.0
 70
    32
  0
VERTEX
  5
1646
  8
0
 10
99.767680043146186
 20
102.5593745902859
 30
0.0
 70
    32
  0
VERTEX
  5
1647
  8
0
 10
99.749210509226543
 20
102.607170882822
 30
0.0
 70
    32
  0
VERTEX
  5
1648
  8
0
 10
99.730779459402584
 20
102.6554123033433
 30
0.0
 70
    32
  0
VERTEX
  5
1649
  8
0
 10
99.721583683352037
 20
102.67969173760579
 30
0.0
 70
    32
  0
VERTEX
  5
164A
  8
0
 10
99.712373117202276
 20
102.7041545238863
 30
0.0
 70
    32
  0
VERTEX
  5
164B
  8
0
 10
99.693862671051875
 20
102.7537664740328
 30
0.0
 70
    32
  0
VERTEX
  5
164C
  8
0
 10
99.675248010531433
 20
102.80428474899649
 30
0.0
 70
    32
  0
VERTEX
  5
164D
  8
0
 10
99.665907283043666
 20
102.82988026120179
 30
0.0
 70
    32
  0
VERTEX
  5
164E
  8
0
 10
99.656547375091066
 20
102.8556980657322
 30
0.0
 70
    32
  0
VERTEX
  5
164F
  8
0
 10
99.637779418605078
 20
102.9079944149204
 30
0.0
 70
    32
  0
VERTEX
  5
1650
  8
0
 10
99.618963168303083
 20
102.96116110387931
 30
0.0
 70
    32
  0
VERTEX
  5
1651
  8
0
 10
99.600117983148934
 20
103.0151848004552
 30
0.0
 70
    32
  0
VERTEX
  5
1652
  8
0
 10
99.581263511726604
 20
103.0700515780746
 30
0.0
 70
    32
  0
VERTEX
  5
1653
  8
0
 10
99.562419649697745
 20
103.12574696215771
 30
0.0
 70
    32
  0
VERTEX
  5
1654
  8
0
 10
99.553007971610896
 20
103.1539007202457
 30
0.0
 70
    32
  0
VERTEX
  5
1655
  8
0
 10
99.543606496910058
 20
103.1822559781091
 30
0.0
 70
    32
  0
VERTEX
  5
1656
  8
0
 10
99.524844314245286
 20
103.2395632011139
 30
0.0
 70
    32
  0
VERTEX
  5
1657
  8
0
 10
99.506153480313571
 20
103.2976528079821
 30
0.0
 70
    32
  0
VERTEX
  5
1658
  8
0
 10
99.487554448115816
 20
103.3565086312926
 30
0.0
 70
    32
  0
VERTEX
  5
1659
  8
0
 10
99.469067701815405
 20
103.416114216094
 30
0.0
 70
    32
  0
VERTEX
  5
165A
  8
0
 10
99.450713722850651
 20
103.4764528493149
 30
0.0
 70
    32
  0
VERTEX
  5
165B
  8
0
 10
99.441592929526564
 20
103.50689171592811
 30
0.0
 70
    32
  0
VERTEX
  5
165C
  8
0
 10
99.432513026399306
 20
103.5375073515943
 30
0.0
 70
    32
  0
VERTEX
  5
165D
  8
0
 10
99.414486182167991
 20
103.59925989377351
 30
0.0
 70
    32
  0
VERTEX
  5
165E
  8
0
 10
99.396653770296325
 20
103.6616920145627
 30
0.0
 70
    32
  0
VERTEX
  5
165F
  8
0
 10
99.379036331764681
 20
103.72478465576491
 30
0.0
 70
    32
  0
VERTEX
  5
1660
  8
0
 10
99.361654318401307
 20
103.78851819944801
 30
0.0
 70
    32
  0
VERTEX
  5
1661
  8
0
 10
99.344528042611785
 20
103.8528725074287
 30
0.0
 70
    32
  0
VERTEX
  5
1662
  8
0
 10
99.336067103407814
 20
103.8852760229111
 30
0.0
 70
    32
  0
VERTEX
  5
1663
  8
0
 10
99.327677626980631
 20
103.9178269634543
 30
0.0
 70
    32
  0
VERTEX
  5
1664
  8
0
 10
99.311122953919664
 20
103.98336051848599
 30
0.0
 70
    32
  0
VERTEX
  5
1665
  8
0
 10
99.29488361557037
 20
104.04945173950139
 30
0.0
 70
    32
  0
VERTEX
  5
1666
  8
0
 10
99.278978864197654
 20
104.11607886224451
 30
0.0
 70
    32
  0
VERTEX
  5
1667
  8
0
 10
99.263427563347989
 20
104.1832198483542
 30
0.0
 70
    32
  0
VERTEX
  5
1668
  8
0
 10
99.248248140078886
 20
104.25085244730001
 30
0.0
 70
    32
  0
VERTEX
  5
1669
  8
0
 10
99.240803507557757
 20
104.2848461188517
 30
0.0
 70
    32
  0
VERTEX
  5
166A
  8
0
 10
99.233457988753173
 20
104.3189568388607
 30
0.0
 70
    32
  0
VERTEX
  5
166B
  8
0
 10
99.219071864933213
 20
104.3875237444979
 30
0.0
 70
    32
  0
VERTEX
  5
166C
  8
0
 10
99.205106766056531
 20
104.4565317307122
 30
0.0
 70
    32
  0
VERTEX
  5
166D
  8
0
 10
99.191579641335295
 20
104.525956720501
 30
0.0
 70
    32
  0
VERTEX
  5
166E
  8
0
 10
99.178506906360099
 20
104.59577396440319
 30
0.0
 70
    32
  0
VERTEX
  5
166F
  8
0
 10
99.165904382978113
 20
104.6659580962144
 30
0.0
 70
    32
  0
VERTEX
  5
1670
  8
0
 10
99.159784218185791
 20
104.7011796644075
 30
0.0
 70
    32
  0
VERTEX
  5
1671
  8
0
 10
99.153787240850662
 20
104.7364831940039
 30
0.0
 70
    32
  0
VERTEX
  5
1672
  8
0
 10
99.142169941162138
 20
104.8073228468009
 30
0.0
 70
    32
  0
VERTEX
  5
1673
  8
0
 10
99.131066182981613
 20
104.8784502273033
 30
0.0
 70
    32
  0
VERTEX
  5
1674
  8
0
 10
99.125710942033791
 20
104.9141133373934
 30
0.0
 70
    32
  0
VERTEX
  5
1675
  8
0
 10
99.120488852805693
 20
104.94983817094101
 30
0.0
 70
    32
  0
VERTEX
  5
1676
  8
0
 10
99.110449977833625
 20
105.0214592615887
 30
0.0
 70
    32
  0
VERTEX
  5
1677
  8
0
 10
99.100960683544599
 20
105.09328592418311
 30
0.0
 70
    32
  0
VERTEX
  5
1678
  8
0
 10
99.096425349956348
 20
105.1292677086871
 30
0.0
 70
    32
  0
VERTEX
  5
1679
  8
0
 10
99.092031156157702
 20
105.16529052444859
 30
0.0
 70
    32
  0
VERTEX
  5
167A
  8
0
 10
99.083670610563559
 20
105.2374454758714
 30
0.0
 70
    32
  0
VERTEX
  5
167B
  8
0
 10
99.075887266568316
 20
105.30972333219
 30
0.0
 70
    32
  0
VERTEX
  5
167C
  8
0
 10
99.068688373406189
 20
105.3820964392075
 30
0.0
 70
    32
  0
VERTEX
  5
167D
  8
0
 10
99.062080233367055
 20
105.45453641897549
 30
0.0
 70
    32
  0
VERTEX
  5
167E
  8
0
 10
99.056068158736096
 20
105.5270141963631
 30
0.0
 70
    32
  0
VERTEX
  5
167F
  8
0
 10
99.053287023983046
 20
105.56325800809699
 30
0.0
 70
    32
  0
VERTEX
  5
1680
  8
0
 10
99.050656426227988
 20
105.5995001032007
 30
0.0
 70
    32
  0
VERTEX
  5
1681
  8
0
 10
99.045848238189024
 20
105.6719639863593
 30
0.0
 70
    32
  0
VERTEX
  5
1682
  8
0
 10
99.04164569099089
 20
105.7443753194439
 30
0.0
 70
    32
  0
VERTEX
  5
1683
  8
0
 10
99.03804975098376
 20
105.8167033177793
 30
0.0
 70
    32
  0
VERTEX
  5
1684
  8
0
 10
99.035060238316532
 20
105.88891705636971
 30
0.0
 70
    32
  0
VERTEX
  5
1685
  8
0
 10
99.032675818866039
 20
105.9609855905142
 30
0.0
 70
    32
  0
VERTEX
  5
1686
  8
0
 10
99.031709786443685
 20
105.996955760529
 30
0.0
 70
    32
  0
VERTEX
  5
1687
  8
0
 10
99.030894004453515
 20
106.0328780787686
 30
0.0
 70
    32
  0
VERTEX
  5
1688
  8
0
 10
99.029711161457442
 20
106.10456390795311
 30
0.0
 70
    32
  0
VERTEX
  5
1689
  8
0
 10
99.029122527866889
 20
106.1760128199174
 30
0.0
 70
    32
  0
VERTEX
  5
168A
  8
0
 10
99.029049249022762
 20
106.2116391048842
 30
0.0
 70
    32
  0
SEQEND
  5
168B
  8
0
  0
LINE
  5
168C
  8
0
 10
130.4687952111679
 20
100.2116391048841
 30
0.0
 11
130.46879521118871
 21
112.2116391048841
 31
0.0
  0
LINE
  5
168F
  8
0
 10
140.36879521116791
 20
100.2116391048841
 30
0.0
 11
140.36879521118871
 21
112.2116391048841
 31
0.0
  0
POLYLINE
  5
1690
  8
0
 66
     1
 10
0.0
 20
0.0
 30
0.0
 70
     8
  0
VERTEX
  5
1691
  8
0
 10
81.708541173334027
 20
106.2116391048842
 30
0.0
 70
    32
  0
VERTEX
  5
1692
  8
0
 10
81.7084678944899
 20
106.1760128199174
 30
0.0
 70
    32
  0
VERTEX
  5
1693
  8
0
 10
81.707879260899347
 20
106.10456390795311
 30
0.0
 70
    32
  0
VERTEX
  5
1694
  8
0
 10
81.706696417903288
 20
106.0328780787686
 30
0.0
 70
    32
  0
VERTEX
  5
1695
  8
0
 10
81.705880635913104
 20
105.996955760529
 30
0.0
 70
    32
  0
VERTEX
  5
1696
  8
0
 10
81.704914603490735
 20
105.9609855905142
 30
0.0
 70
    32
  0
VERTEX
  5
1697
  8
0
 10
81.702530184040256
 20
105.88891705636971
 30
0.0
 70
    32
  0
VERTEX
  5
1698
  8
0
 10
81.699540671373015
 20
105.8167033177793
 30
0.0
 70
    32
  0
VERTEX
  5
1699
  8
0
 10
81.695944731365884
 20
105.7443753194439
 30
0.0
 70
    32
  0
VERTEX
  5
169A
  8
0
 10
81.691742184167765
 20
105.6719639863593
 30
0.0
 70
    32
  0
VERTEX
  5
169B
  8
0
 10
81.686933996128801
 20
105.5995001032007
 30
0.0
 70
    32
  0
VERTEX
  5
169C
  8
0
 10
81.684303398373743
 20
105.56325800809699
 30
0.0
 70
    32
  0
VERTEX
  5
169D
  8
0
 10
81.681522263620707
 20
105.5270141963631
 30
0.0
 70
    32
  0
VERTEX
  5
169E
  8
0
 10
81.675510188989733
 20
105.45453641897549
 30
0.0
 70
    32
  0
VERTEX
  5
169F
  8
0
 10
81.668902048950585
 20
105.3820964392075
 30
0.0
 70
    32
  0
VERTEX
  5
16A0
  8
0
 10
81.661703155788473
 20
105.30972333219
 30
0.0
 70
    32
  0
VERTEX
  5
16A1
  8
0
 10
81.653919811793244
 20
105.2374454758714
 30
0.0
 70
    32
  0
VERTEX
  5
16A2
  8
0
 10
81.645559266199086
 20
105.16529052444869
 30
0.0
 70
    32
  0
VERTEX
  5
16A3
  8
0
 10
81.641165072400426
 20
105.1292677086871
 30
0.0
 70
    32
  0
VERTEX
  5
16A4
  8
0
 10
81.636629738812189
 20
105.09328592418311
 30
0.0
 70
    32
  0
VERTEX
  5
16A5
  8
0
 10
81.627140444523135
 20
105.0214592615887
 30
0.0
 70
    32
  0
VERTEX
  5
16A6
  8
0
 10
81.617101569551096
 20
104.94983817094111
 30
0.0
 70
    32
  0
VERTEX
  5
16A7
  8
0
 10
81.611879480323012
 20
104.9141133373934
 30
0.0
 70
    32
  0
VERTEX
  5
16A8
  8
0
 10
81.606524239375176
 20
104.8784502273033
 30
0.0
 70
    32
  0
VERTEX
  5
16A9
  8
0
 10
81.595420481194651
 20
104.8073228468009
 30
0.0
 70
    32
  0
VERTEX
  5
16AA
  8
0
 10
81.583803181506141
 20
104.73648319400399
 30
0.0
 70
    32
  0
VERTEX
  5
16AB
  8
0
 10
81.577806204170983
 20
104.7011796644075
 30
0.0
 70
    32
  0
VERTEX
  5
16AC
  8
0
 10
81.571686039378676
 20
104.6659580962144
 30
0.0
 70
    32
  0
VERTEX
  5
16AD
  8
0
 10
81.559083515996676
 20
104.59577396440319
 30
0.0
 70
    32
  0
VERTEX
  5
16AE
  8
0
 10
81.546010781021494
 20
104.525956720501
 30
0.0
 70
    32
  0
VERTEX
  5
16AF
  8
0
 10
81.532483656300244
 20
104.4565317307122
 30
0.0
 70
    32
  0
VERTEX
  5
16B0
  8
0
 10
81.51851855742359
 20
104.3875237444979
 30
0.0
 70
    32
  0
VERTEX
  5
16B1
  8
0
 10
81.504132433603615
 20
104.3189568388607
 30
0.0
 70
    32
  0
VERTEX
  5
16B2
  8
0
 10
81.496786914799046
 20
104.2848461188517
 30
0.0
 70
    32
  0
VERTEX
  5
16B3
  8
0
 10
81.489342282277903
 20
104.25085244730001
 30
0.0
 70
    32
  0
VERTEX
  5
16B4
  8
0
 10
81.474162859008786
 20
104.1832198483542
 30
0.0
 70
    32
  0
VERTEX
  5
16B5
  8
0
 10
81.458611558159134
 20
104.11607886224451
 30
0.0
 70
    32
  0
VERTEX
  5
16B6
  8
0
 10
81.442706806786418
 20
104.04945173950139
 30
0.0
 70
    32
  0
VERTEX
  5
16B7
  8
0
 10
81.426467468437124
 20
103.98336051848599
 30
0.0
 70
    32
  0
VERTEX
  5
16B8
  8
0
 10
81.409912795376144
 20
103.9178269634543
 30
0.0
 70
    32
  0
VERTEX
  5
16B9
  8
0
 10
81.401523318948989
 20
103.8852760229111
 30
0.0
 70
    32
  0
VERTEX
  5
16BA
  8
0
 10
81.393062379745004
 20
103.8528725074287
 30
0.0
 70
    32
  0
VERTEX
  5
16BB
  8
0
 10
81.375936103955496
 20
103.78851819944811
 30
0.0
 70
    32
  0
VERTEX
  5
16BC
  8
0
 10
81.358554090592122
 20
103.72478465576491
 30
0.0
 70
    32
  0
VERTEX
  5
16BD
  8
0
 10
81.340936652060464
 20
103.6616920145627
 30
0.0
 70
    32
  0
VERTEX
  5
16BE
  8
0
 10
81.323104240188798
 20
103.59925989377351
 30
0.0
 70
    32
  0
VERTEX
  5
16BF
  8
0
 10
81.305077395957468
 20
103.5375073515943
 30
0.0
 70
    32
  0
VERTEX
  5
16C0
  8
0
 10
81.295997492830224
 20
103.50689171592811
 30
0.0
 70
    32
  0
VERTEX
  5
16C1
  8
0
 10
81.286876699506124
 20
103.4764528493149
 30
0.0
 70
    32
  0
VERTEX
  5
16C2
  8
0
 10
81.268522720541398
 20
103.4161142160941
 30
0.0
 70
    32
  0
VERTEX
  5
16C3
  8
0
 10
81.250035974240973
 20
103.3565086312926
 30
0.0
 70
    32
  0
VERTEX
  5
16C4
  8
0
 10
81.231436942043203
 20
103.2976528079821
 30
0.0
 70
    32
  0
VERTEX
  5
16C5
  8
0
 10
81.212746108111503
 20
103.2395632011139
 30
0.0
 70
    32
  0
VERTEX
  5
16C6
  8
0
 10
81.193983925446716
 20
103.1822559781091
 30
0.0
 70
    32
  0
VERTEX
  5
16C7
  8
0
 10
81.184582450745907
 20
103.1539007202457
 30
0.0
 70
    32
  0
VERTEX
  5
16C8
  8
0
 10
81.175170772659044
 20
103.12574696215771
 30
0.0
 70
    32
  0
VERTEX
  5
16C9
  8
0
 10
81.156326910630185
 20
103.0700515780746
 30
0.0
 70
    32
  0
VERTEX
  5
16CA
  8
0
 10
81.137472439207841
 20
103.0151848004552
 30
0.0
 70
    32
  0
VERTEX
  5
16CB
  8
0
 10
81.118627254053706
 20
102.96116110387931
 30
0.0
 70
    32
  0
VERTEX
  5
16CC
  8
0
 10
81.099811003751697
 20
102.9079944149204
 30
0.0
 70
    32
  0
VERTEX
  5
16CD
  8
0
 10
81.081043047265709
 20
102.8556980657322
 30
0.0
 70
    32
  0
VERTEX
  5
16CE
  8
0
 10
81.071683139313095
 20
102.82988026120179
 30
0.0
 70
    32
  0
VERTEX
  5
16CF
  8
0
 10
81.062342411825341
 20
102.80428474899649
 30
0.0
 70
    32
  0
VERTEX
  5
16D0
  8
0
 10
81.043727751304914
 20
102.7537664740328
 30
0.0
 70
    32
  0
VERTEX
  5
16D1
  8
0
 10
81.025217305154513
 20
102.7041545238863
 30
0.0
 70
    32
  0
VERTEX
  5
16D2
  8
0
 10
81.016006739004766
 20
102.67969173760579
 30
0.0
 70
    32
  0
VERTEX
  5
16D3
  8
0
 10
81.006810962954205
 20
102.6554123033433
 30
0.0
 70
    32
  0
VERTEX
  5
16D4
  8
0
 10
80.988379913130245
 20
102.607170882822
 30
0.0
 70
    32
  0
VERTEX
  5
16D5
  8
0
 10
80.969910379210603
 20
102.5593745902859
 30
0.0
 70
    32
  0
VERTEX
  5
16D6
  8
0
 10
80.960667082523742
 20
102.5356528582855
 30
0.0
 70
    32
  0
VERTEX
  5
16D7
  8
0
 10
80.951421268933345
 20
102.5120537270241
 30
0.0
 70
    32
  0
VERTEX
  5
16D8
  8
0
 10
80.932931651410627
 20
102.4652380160319
 30
0.0
 70
    32
  0
VERTEX
  5
16D9
  8
0
 10
80.914460709912944
 20
102.4189565632233
 30
0.0
 70
    32
  0
VERTEX
  5
16DA
  8
0
 10
80.896027695169892
 20
102.3732378214921
 30
0.0
 70
    32
  0
VERTEX
  5
16DB
  8
0
 10
80.877651879280222
 20
102.32810955734161
 30
0.0
 70
    32
  0
VERTEX
  5
16DC
  8
0
 10
80.859352510329529
 20
102.2835988198657
 30
0.0
 70
    32
  0
VERTEX
  5
16DD
  8
0
 10
80.850237490931704
 20
102.2615832731689
 30
0.0
 70
    32
  0
VERTEX
  5
16DE
  8
0
 10
80.841148767827633
 20
102.2397319119233
 30
0.0
 70
    32
  0
VERTEX
  5
16DF
  8
0
 10
80.823059719084299
 20
102.19653436340791
 30
0.0
 70
    32
  0
VERTEX
  5
16E0
  8
0
 10
80.805104276658597
 20
102.15403090657119
 30
0.0
 70
    32
  0
VERTEX
  5
16E1
  8
0
 10
80.78730115702956
 20
102.112245453417
 30
0.0
 70
    32
  0
VERTEX
  5
16E2
  8
0
 10
80.769668840652514
 20
102.0712010752398
 30
0.0
 70
    32
  0
VERTEX
  5
16E3
  8
0
 10
80.752225538762005
 20
102.03091999635279
 30
0.0
 70
    32
  0
VERTEX
  5
16E4
  8
0
 10
80.743580393105105
 20
102.0110724414377
 30
0.0
 70
    32
  0
VERTEX
  5
16E5
  8
0
 10
80.734989228135547
 20
101.9914237408402
 30
0.0
 70
    32
  0
VERTEX
  5
16E6
  8
0
 10
80.717977696478897
 20
101.952733294464
 30
0.0
 70
    32
  0
VERTEX
  5
16E7
  8
0
 10
80.701208509490925
 20
101.9148690814078
 30
0.0
 70
    32
  0
VERTEX
  5
16E8
  8
0
 10
80.684698968831185
 20
101.877850920046
 30
0.0
 70
    32
  0
VERTEX
  5
16E9
  8
0
 10
80.668466071146725
 20
101.8416979811449
 30
0.0
 70
    32
  0
VERTEX
  5
16EA
  8
0
 10
80.652526468290645
 20
101.8064287484974
 30
0.0
 70
    32
  0
VERTEX
  5
16EB
  8
0
 10
80.644671752357567
 20
101.7891311012295
 30
0.0
 70
    32
  0
VERTEX
  5
16EC
  8
0
 10
80.636896428880732
 20
101.7720609820344
 30
0.0
 70
    32
  0
VERTEX
  5
16ED
  8
0
 10
80.62159180135825
 20
101.738611683505
 30
0.0
 70
    32
  0
VERTEX
  5
16EE
  8
0
 10
80.606627978723282
 20
101.7060970648605
 30
0.0
 70
    32
  0
VERTEX
  5
16EF
  8
0
 10
80.592019865139875
 20
101.6745325195253
 30
0.0
 70
    32
  0
VERTEX
  5
16F0
  8
0
 10
80.577781844618187
 20
101.6439325967818
 30
0.0
 70
    32
  0
VERTEX
  5
16F1
  8
0
 10
80.563927751999657
 20
101.6143109795419
 30
0.0
 70
    32
  0
VERTEX
  5
16F2
  8
0
 10
80.557148845308049
 20
101.5998710698572
 30
0.0
 70
    32
  0
VERTEX
  5
16F3
  8
0
 10
80.550470464884299
 20
101.58567965589511
 30
0.0
 70
    32
  0
VERTEX
  5
16F4
  8
0
 10
80.537420144109376
 20
101.5580452561059
 30
0.0
 70
    32
  0
VERTEX
  5
16F5
  8
0
 10
80.524788830320176
 20
101.53141885083861
 30
0.0
 70
    32
  0
VERTEX
  5
16F6
  8
0
 10
80.512588590349708
 20
101.505811977538
 30
0.0
 70
    32
  0
VERTEX
  5
16F7
  8
0
 10
80.500830946709087
 20
101.4812354514056
 30
0.0
 70
    32
  0
VERTEX
  5
16F8
  8
0
 10
80.489526840367546
 20
101.4576993132478
 30
0.0
 70
    32
  0
VERTEX
  5
16F9
  8
0
 10
80.484048115123457
 20
101.4463243038489
 30
0.0
 70
    32
  0
VERTEX
  5
16FA
  8
0
 10
80.478686596037846
 20
101.43521278186
 30
0.0
 70
    32
  0
VERTEX
  5
16FB
  8
0
 10
80.468319890189946
 20
101.413784211132
 30
0.0
 70
    32
  0
VERTEX
  5
16FC
  8
0
 10
80.458435722021591
 20
101.3934210520849
 30
0.0
 70
    32
  0
VERTEX
  5
16FD
  8
0
 10
80.453677210196005
 20
101.3836410753274
 30
0.0
 70
    32
  0
VERTEX
  5
16FE
  8
0
 10
80.449042387615506
 20
101.3741298200782
 30
0.0
 70
    32
  0
VERTEX
  5
16FF
  8
0
 10
80.440147457516787
 20
101.35591606744779
 30
0.0
 70
    32
  0
VERTEX
  5
1700
  8
0
 10
80.431757757964476
 20
101.3387843618638
 30
0.0
 70
    32
  0
VERTEX
  5
1701
  8
0
 10
80.427754295576676
 20
101.3306254308951
 30
0.0
 70
    32
  0
VERTEX
  5
1702
  8
0
 10
80.423879356012776
 20
101.3227382707166
 30
0.0
 70
    32
  0
VERTEX
  5
1703
  8
0
 10
80.416517548774493
 20
101.3077803518628
 30
0.0
 70
    32
  0
VERTEX
  5
1704
  8
0
 10
80.409676859516125
 20
101.2939121561388
 30
0.0
 70
    32
  0
VERTEX
  5
1705
  8
0
 10
80.403361072111636
 20
101.2811343051626
 30
0.0
 70
    32
  0
VERTEX
  5
1706
  8
0
 10
80.397573260343378
 20
101.2694465557403
 30
0.0
 70
    32
  0
VERTEX
  5
1707
  8
0
 10
80.392315763745785
 20
101.2588477540351
 30
0.0
 70
    32
  0
VERTEX
  5
1708
  8
0
 10
80.389886407315544
 20
101.253956085992
 30
0.0
 70
    32
  0
VERTEX
  5
1709
  8
0
 10
80.387590160941784
 20
101.2493357833541
 30
0.0
 70
    32
  0
VERTEX
  5
170A
  8
0
 10
80.383397247506835
 20
101.24090751960451
 30
0.0
 70
    32
  0
VERTEX
  5
170B
  8
0
 10
80.379737018480014
 20
101.2335587944517
 30
0.0
 70
    32
  0
VERTEX
  5
170C
  8
0
 10
80.376608655626001
 20
101.2272843662081
 30
0.0
 70
    32
  0
VERTEX
  5
170D
  8
0
 10
80.374010519525598
 20
101.2220778984756
 30
0.0
 70
    32
  0
VERTEX
  5
170E
  8
0
 10
80.3719401465587
 20
101.2179319465685
 30
0.0
 70
    32
  0
VERTEX
  5
170F
  8
0
 10
80.371101876371995
 20
101.2162540329571
 30
0.0
 70
    32
  0
VERTEX
  5
1710
  8
0
 10
80.370394250822983
 20
101.21483795174269
 30
0.0
 70
    32
  0
VERTEX
  5
1711
  8
0
 10
80.369368731017914
 20
101.2127862432633
 30
0.0
 70
    32
  0
VERTEX
  5
1712
  8
0
 10
80.368858682307632
 20
101.21176604835119
 30
0.0
 70
    32
  0
VERTEX
  5
1713
  8
0
 10
80.368795211178394
 20
101.2116391048841
 30
0.0
 70
    32
  0
SEQEND
  5
1714
  8
0
  0
POLYLINE
  5
1715
  8
0
 66
     1
 10
0.0
 20
0.0
 30
0.0
 70
     8
  0
VERTEX
  5
1716
  8
0
 10
80.368795211178394
 20
111.2116391048841
 30
0.0
 70
    32
  0
VERTEX
  5
1717
  8
0
 10
80.368858682307632
 20
111.2115121614171
 30
0.0
 70
    32
  0
VERTEX
  5
1718
  8
0
 10
80.369368731017914
 20
111.210491966505
 30
0.0
 70
    32
  0
VERTEX
  5
1719
  8
0
 10
80.370394250822983
 20
111.2084402580256
 30
0.0
 70
    32
  0
VERTEX
  5
171A
  8
0
 10
80.371101876371995
 20
111.2070241768112
 30
0.0
 70
    32
  0
VERTEX
  5
171B
  8
0
 10
80.3719401465587
 20
111.2053462631998
 30
0.0
 70
    32
  0
VERTEX
  5
171C
  8
0
 10
80.374010519525598
 20
111.20120031129269
 30
0.0
 70
    32
  0
VERTEX
  5
171D
  8
0
 10
80.376608655626001
 20
111.1959938435602
 30
0.0
 70
    32
  0
VERTEX
  5
171E
  8
0
 10
80.379737018480014
 20
111.1897194153165
 30
0.0
 70
    32
  0
VERTEX
  5
171F
  8
0
 10
80.383397247506835
 20
111.18237069016379
 30
0.0
 70
    32
  0
VERTEX
  5
1720
  8
0
 10
80.387590160941784
 20
111.1739424264142
 30
0.0
 70
    32
  0
VERTEX
  5
1721
  8
0
 10
80.389886407315544
 20
111.1693221237763
 30
0.0
 70
    32
  0
VERTEX
  5
1722
  8
0
 10
80.392315763745785
 20
111.1644304557332
 30
0.0
 70
    32
  0
VERTEX
  5
1723
  8
0
 10
80.397573260343378
 20
111.153831654028
 30
0.0
 70
    32
  0
VERTEX
  5
1724
  8
0
 10
80.403361072111636
 20
111.1421439046057
 30
0.0
 70
    32
  0
VERTEX
  5
1725
  8
0
 10
80.409676859516082
 20
111.1293660536295
 30
0.0
 70
    32
  0
VERTEX
  5
1726
  8
0
 10
80.416517548774493
 20
111.1154978579055
 30
0.0
 70
    32
  0
VERTEX
  5
1727
  8
0
 10
80.423879356012776
 20
111.1005399390517
 30
0.0
 70
    32
  0
VERTEX
  5
1728
  8
0
 10
80.427754295576676
 20
111.0926527788732
 30
0.0
 70
    32
  0
VERTEX
  5
1729
  8
0
 10
80.431757757964476
 20
111.0844938479045
 30
0.0
 70
    32
  0
VERTEX
  5
172A
  8
0
 10
80.440147457516787
 20
111.0673621423205
 30
0.0
 70
    32
  0
VERTEX
  5
172B
  8
0
 10
80.449042387615506
 20
111.0491483896901
 30
0.0
 70
    32
  0
VERTEX
  5
172C
  8
0
 10
80.453677210196005
 20
111.03963713444089
 30
0.0
 70
    32
  0
VERTEX
  5
172D
  8
0
 10
80.458435722021591
 20
111.0298571576834
 30
0.0
 70
    32
  0
VERTEX
  5
172E
  8
0
 10
80.468319890189946
 20
111.0094939986363
 30
0.0
 70
    32
  0
VERTEX
  5
172F
  8
0
 10
80.478686596037846
 20
110.9880654279082
 30
0.0
 70
    32
  0
VERTEX
  5
1730
  8
0
 10
80.484048115123457
 20
110.9769539059195
 30
0.0
 70
    32
  0
VERTEX
  5
1731
  8
0
 10
80.489526840367546
 20
110.9655788965205
 30
0.0
 70
    32
  0
VERTEX
  5
1732
  8
0
 10
80.500830946709087
 20
110.9420427583627
 30
0.0
 70
    32
  0
VERTEX
  5
1733
  8
0
 10
80.512588590349708
 20
110.9174662322303
 30
0.0
 70
    32
  0
VERTEX
  5
1734
  8
0
 10
80.524788830320176
 20
110.89185935892959
 30
0.0
 70
    32
  0
VERTEX
  5
1735
  8
0
 10
80.537420144109319
 20
110.8652329536624
 30
0.0
 70
    32
  0
VERTEX
  5
1736
  8
0
 10
80.550470464884299
 20
110.83759855387321
 30
0.0
 70
    32
  0
VERTEX
  5
1737
  8
0
 10
80.557148845308049
 20
110.8234071399111
 30
0.0
 70
    32
  0
VERTEX
  5
1738
  8
0
 10
80.563927751999657
 20
110.8089672302264
 30
0.0
 70
    32
  0
VERTEX
  5
1739
  8
0
 10
80.577781844618187
 20
110.7793456129865
 30
0.0
 70
    32
  0
VERTEX
  5
173A
  8
0
 10
80.592019865139875
 20
110.748745690243
 30
0.0
 70
    32
  0
VERTEX
  5
173B
  8
0
 10
80.606627978723282
 20
110.7171811449078
 30
0.0
 70
    32
  0
VERTEX
  5
173C
  8
0
 10
80.62159180135825
 20
110.6846665262633
 30
0.0
 70
    32
  0
VERTEX
  5
173D
  8
0
 10
80.636896428880732
 20
110.65121722773389
 30
0.0
 70
    32
  0
VERTEX
  5
173E
  8
0
 10
80.644671752357567
 20
110.6341471085388
 30
0.0
 70
    32
  0
VERTEX
  5
173F
  8
0
 10
80.652526468290645
 20
110.6168494612709
 30
0.0
 70
    32
  0
VERTEX
  5
1740
  8
0
 10
80.668466071146725
 20
110.58158022862339
 30
0.0
 70
    32
  0
VERTEX
  5
1741
  8
0
 10
80.684698968831185
 20
110.5454272897223
 30
0.0
 70
    32
  0
VERTEX
  5
1742
  8
0
 10
80.701208509490925
 20
110.5084091283605
 30
0.0
 70
    32
  0
VERTEX
  5
1743
  8
0
 10
80.717977696478897
 20
110.4705449153043
 30
0.0
 70
    32
  0
VERTEX
  5
1744
  8
0
 10
80.734989228135547
 20
110.43185446892809
 30
0.0
 70
    32
  0
VERTEX
  5
1745
  8
0
 10
80.743580393105105
 20
110.41220576833069
 30
0.0
 70
    32
  0
VERTEX
  5
1746
  8
0
 10
80.752225538762005
 20
110.39235821341551
 30
0.0
 70
    32
  0
VERTEX
  5
1747
  8
0
 10
80.769668840652514
 20
110.3520771345285
 30
0.0
 70
    32
  0
VERTEX
  5
1748
  8
0
 10
80.78730115702956
 20
110.3110327563513
 30
0.0
 70
    32
  0
VERTEX
  5
1749
  8
0
 10
80.805104276658597
 20
110.2692473031971
 30
0.0
 70
    32
  0
VERTEX
  5
174A
  8
0
 10
80.823059719084299
 20
110.22674384636031
 30
0.0
 70
    32
  0
VERTEX
  5
174B
  8
0
 10
80.841148767827633
 20
110.183546297845
 30
0.0
 70
    32
  0
VERTEX
  5
174C
  8
0
 10
80.850237490931704
 20
110.1616949365994
 30
0.0
 70
    32
  0
VERTEX
  5
174D
  8
0
 10
80.859352510329529
 20
110.1396793899026
 30
0.0
 70
    32
  0
VERTEX
  5
174E
  8
0
 10
80.877651879280165
 20
110.09516865242669
 30
0.0
 70
    32
  0
VERTEX
  5
174F
  8
0
 10
80.896027695169892
 20
110.0500403882762
 30
0.0
 70
    32
  0
VERTEX
  5
1750
  8
0
 10
80.914460709912944
 20
110.00432164654499
 30
0.0
 70
    32
  0
VERTEX
  5
1751
  8
0
 10
80.932931651410627
 20
109.95804019373639
 30
0.0
 70
    32
  0
VERTEX
  5
1752
  8
0
 10
80.951421268933345
 20
109.9112244827442
 30
0.0
 70
    32
  0
VERTEX
  5
1753
  8
0
 10
80.960667082523742
 20
109.8876253514828
 30
0.0
 70
    32
  0
VERTEX
  5
1754
  8
0
 10
80.969910379210603
 20
109.8639036194825
 30
0.0
 70
    32
  0
VERTEX
  5
1755
  8
0
 10
80.988379913130245
 20
109.81610732694629
 30
0.0
 70
    32
  0
VERTEX
  5
1756
  8
0
 10
81.006810962954205
 20
109.767865906425
 30
0.0
 70
    32
  0
VERTEX
  5
1757
  8
0
 10
81.016006739004766
 20
109.74358647216251
 30
0.0
 70
    32
  0
VERTEX
  5
1758
  8
0
 10
81.025217305154513
 20
109.719123685882
 30
0.0
 70
    32
  0
VERTEX
  5
1759
  8
0
 10
81.043727751304914
 20
109.6695117357355
 30
0.0
 70
    32
  0
VERTEX
  5
175A
  8
0
 10
81.062342411825341
 20
109.6189934607718
 30
0.0
 70
    32
  0
VERTEX
  5
175B
  8
0
 10
81.071683139313095
 20
109.5933979485665
 30
0.0
 70
    32
  0
VERTEX
  5
175C
  8
0
 10
81.081043047265709
 20
109.5675801440361
 30
0.0
 70
    32
  0
VERTEX
  5
175D
  8
0
 10
81.099811003751697
 20
109.5152837948479
 30
0.0
 70
    32
  0
VERTEX
  5
175E
  8
0
 10
81.118627254053706
 20
109.46211710588901
 30
0.0
 70
    32
  0
VERTEX
  5
175F
  8
0
 10
81.137472439207841
 20
109.4080934093131
 30
0.0
 70
    32
  0
VERTEX
  5
1760
  8
0
 10
81.156326910630185
 20
109.3532266316937
 30
0.0
 70
    32
  0
VERTEX
  5
1761
  8
0
 10
81.175170772659044
 20
109.29753124761061
 30
0.0
 70
    32
  0
VERTEX
  5
1762
  8
0
 10
81.184582450745907
 20
109.2693774895225
 30
0.0
 70
    32
  0
VERTEX
  5
1763
  8
0
 10
81.193983925446716
 20
109.2410222316592
 30
0.0
 70
    32
  0
VERTEX
  5
1764
  8
0
 10
81.212746108111503
 20
109.1837150086544
 30
0.0
 70
    32
  0
VERTEX
  5
1765
  8
0
 10
81.231436942043203
 20
109.12562540178619
 30
0.0
 70
    32
  0
VERTEX
  5
1766
  8
0
 10
81.250035974241015
 20
109.0667695784757
 30
0.0
 70
    32
  0
VERTEX
  5
1767
  8
0
 10
81.268522720541398
 20
109.0071639936742
 30
0.0
 70
    32
  0
VERTEX
  5
1768
  8
0
 10
81.286876699506124
 20
108.9468253604534
 30
0.0
 70
    32
  0
VERTEX
  5
1769
  8
0
 10
81.295997492830224
 20
108.91638649384009
 30
0.0
 70
    32
  0
VERTEX
  5
176A
  8
0
 10
81.305077395957468
 20
108.8857708581739
 30
0.0
 70
    32
  0
VERTEX
  5
176B
  8
0
 10
81.323104240188798
 20
108.82401831599481
 30
0.0
 70
    32
  0
VERTEX
  5
176C
  8
0
 10
81.340936652060464
 20
108.7615861952056
 30
0.0
 70
    32
  0
VERTEX
  5
176D
  8
0
 10
81.358554090592122
 20
108.69849355400341
 30
0.0
 70
    32
  0
VERTEX
  5
176E
  8
0
 10
81.375936103955496
 20
108.63476001032021
 30
0.0
 70
    32
  0
VERTEX
  5
176F
  8
0
 10
81.393062379745004
 20
108.5704057023396
 30
0.0
 70
    32
  0
VERTEX
  5
1770
  8
0
 10
81.401523318948989
 20
108.5380021868572
 30
0.0
 70
    32
  0
VERTEX
  5
1771
  8
0
 10
81.409912795376144
 20
108.505451246314
 30
0.0
 70
    32
  0
VERTEX
  5
1772
  8
0
 10
81.426467468437124
 20
108.4399176912823
 30
0.0
 70
    32
  0
VERTEX
  5
1773
  8
0
 10
81.442706806786418
 20
108.37382647026681
 30
0.0
 70
    32
  0
VERTEX
  5
1774
  8
0
 10
81.458611558159134
 20
108.30719934752381
 30
0.0
 70
    32
  0
VERTEX
  5
1775
  8
0
 10
81.474162859008786
 20
108.2400583614141
 30
0.0
 70
    32
  0
VERTEX
  5
1776
  8
0
 10
81.489342282277903
 20
108.17242576246829
 30
0.0
 70
    32
  0
VERTEX
  5
1777
  8
0
 10
81.496786914799046
 20
108.1384320909166
 30
0.0
 70
    32
  0
VERTEX
  5
1778
  8
0
 10
81.504132433603615
 20
108.1043213709076
 30
0.0
 70
    32
  0
VERTEX
  5
1779
  8
0
 10
81.51851855742359
 20
108.0357544652704
 30
0.0
 70
    32
  0
VERTEX
  5
177A
  8
0
 10
81.532483656300244
 20
107.9667464790561
 30
0.0
 70
    32
  0
VERTEX
  5
177B
  8
0
 10
81.546010781021494
 20
107.8973214892672
 30
0.0
 70
    32
  0
VERTEX
  5
177C
  8
0
 10
81.559083515996676
 20
107.82750424536511
 30
0.0
 70
    32
  0
VERTEX
  5
177D
  8
0
 10
81.571686039378676
 20
107.7573201135539
 30
0.0
 70
    32
  0
VERTEX
  5
177E
  8
0
 10
81.577806204170983
 20
107.72209854536079
 30
0.0
 70
    32
  0
VERTEX
  5
177F
  8
0
 10
81.583803181506141
 20
107.6867950157643
 30
0.0
 70
    32
  0
VERTEX
  5
1780
  8
0
 10
81.595420481194651
 20
107.6159553629674
 30
0.0
 70
    32
  0
VERTEX
  5
1781
  8
0
 10
81.606524239375176
 20
107.54482798246499
 30
0.0
 70
    32
  0
VERTEX
  5
1782
  8
0
 10
81.611879480323012
 20
107.5091648723749
 30
0.0
 70
    32
  0
VERTEX
  5
1783
  8
0
 10
81.617101569551096
 20
107.47344003882721
 30
0.0
 70
    32
  0
VERTEX
  5
1784
  8
0
 10
81.627140444523135
 20
107.4018189481795
 30
0.0
 70
    32
  0
VERTEX
  5
1785
  8
0
 10
81.636629738812189
 20
107.32999228558521
 30
0.0
 70
    32
  0
VERTEX
  5
1786
  8
0
 10
81.641165072400426
 20
107.2940105010812
 30
0.0
 70
    32
  0
VERTEX
  5
1787
  8
0
 10
81.645559266199086
 20
107.2579876853197
 30
0.0
 70
    32
  0
VERTEX
  5
1788
  8
0
 10
81.653919811793244
 20
107.1858327338969
 30
0.0
 70
    32
  0
VERTEX
  5
1789
  8
0
 10
81.661703155788473
 20
107.1135548775783
 30
0.0
 70
    32
  0
VERTEX
  5
178A
  8
0
 10
81.668902048950585
 20
107.0411817705608
 30
0.0
 70
    32
  0
VERTEX
  5
178B
  8
0
 10
81.675510188989733
 20
106.96874179079271
 30
0.0
 70
    32
  0
VERTEX
  5
178C
  8
0
 10
81.681522263620707
 20
106.8962640134052
 30
0.0
 70
    32
  0
VERTEX
  5
178D
  8
0
 10
81.684303398373743
 20
106.8600202016713
 30
0.0
 70
    32
  0
VERTEX
  5
178E
  8
0
 10
81.686933996128801
 20
106.8237781065676
 30
0.0
 70
    32
  0
VERTEX
  5
178F
  8
0
 10
81.691742184167765
 20
106.7513142234089
 30
0.0
 70
    32
  0
VERTEX
  5
1790
  8
0
 10
81.695944731365884
 20
106.67890289032439
 30
0.0
 70
    32
  0
VERTEX
  5
1791
  8
0
 10
81.699540671373015
 20
106.606574891989
 30
0.0
 70
    32
  0
VERTEX
  5
1792
  8
0
 10
81.702530184040256
 20
106.53436115339861
 30
0.0
 70
    32
  0
VERTEX
  5
1793
  8
0
 10
81.704914603490735
 20
106.4622926192541
 30
0.0
 70
    32
  0
VERTEX
  5
1794
  8
0
 10
81.705880635913104
 20
106.42632244923929
 30
0.0
 70
    32
  0
VERTEX
  5
1795
  8
0
 10
81.706696417903288
 20
106.39040013099969
 30
0.0
 70
    32
  0
VERTEX
  5
1796
  8
0
 10
81.707879260899347
 20
106.31871430181521
 30
0.0
 70
    32
  0
VERTEX
  5
1797
  8
0
 10
81.7084678944899
 20
106.2472653898509
 30
0.0
 70
    32
  0
VERTEX
  5
1798
  8
0
 10
81.708541173334027
 20
106.2116391048842
 30
0.0
 70
    32
  0
SEQEND
  5
1799
  8
0
  0
LINE
  5
179B
  8
0
 10
99.029049249022762
 20
161.21163910488411
 30
0.0
 11
130.4687952111783
 21
161.21163910488411
 31
0.0
  0
LINE
  5
17C5
  8
2
 10
96.368795211178394
 20
71.211639104884171
 30
0.0
 11
95.421795211178434
 21
72.851891219651861
 31
0.0
  0
LINE
  5
17C6
  8
2
 10
84.368795211178053
 20
71.211639104884171
 30
0.0
 11
85.315795211177999
 21
72.851891219651861
 31
0.0
  0
LINE
  5
180D
  8
2
 10
196.36879521117541
 20
71.211639104884171
 30
0.0
 11
195.42179521117541
 21
72.851891219651861
 31
0.0
  0
LINE
  5
180E
  8
2
 10
184.3687952111751
 20
71.211639104884171
 30
0.0
 11
185.31579521117499
 21
72.851891219651861
 31
0.0
  0
ENDSEC
  0
EOF
