  0
SECTION
  2
HEADER
  9
$ACADVER
  1
AC1009
  9
$INSBASE
 10
0.0
 20
0.0
 30
0.0
  9
$EXTMIN
 10
0.0
 20
-2.960436562073669
 30
0.0
  9
$EXTMAX
 10
203.36879521117319
 20
206.2116391048842
 30
0.0
  9
$LIMMIN
 10
0.0
 20
0.0
  9
$LIMMAX
 10
420.0
 20
297.0
  9
$ORTHOMODE
 70
     1
  9
$REGENMODE
 70
     1
  9
$FILLMODE
 70
     1
  9
$QTEXTMODE
 70
     0
  9
$MIRRTEXT
 70
     0
  9
$DRAGMODE
 70
     2
  9
$LTSCALE
 40
5.0
  9
$OSMODE
 70
    37
  9
$ATTMODE
 70
     1
  9
$TEXTSIZE
 40
2.5
  9
$TRACEWID
 40
1.0
  9
$TEXTSTYLE
  7
STANDARD
  9
$CLAYER
  8
0
  9
$CELTYPE
  6
BYLAYER
  9
$CECOLOR
 62
   256
  9
$DIMSCALE
 40
1.0
  9
$DIMASZ
 40
2.5
  9
$DIMEXO
 40
0.625
  9
$DIMDLI
 40
3.75
  9
$DIMRND
 40
0.0
  9
$DIMDLE
 40
0.0
  9
$DIMEXE
 40
1.25
  9
$DIMTP
 40
0.0
  9
$DIMTM
 40
0.0
  9
$DIMTXT
 40
2.5
  9
$DIMCEN
 40
2.5
  9
$DIMTSZ
 40
0.0
  9
$DIMTOL
 70
     0
  9
$DIMLIM
 70
     0
  9
$DIMTIH
 70
     0
  9
$DIMTOH
 70
     0
  9
$DIMSE1
 70
     0
  9
$DIMSE2
 70
     0
  9
$DIMTAD
 70
     1
  9
$DIMZIN
 70
     8
  9
$DIMBLK
  1

  9
$DIMASO
 70
     1
  9
$DIMSHO
 70
     1
  9
$DIMPOST
  1

  9
$DIMAPOST
  1

  9
$DIMALT
 70
     0
  9
$DIMALTD
 70
     3
  9
$DIMALTF
 40
0.03937007874016
  9
$DIMLFAC
 40
1.0
  9
$DIMTOFL
 70
     1
  9
$DIMTVP
 40
0.0
  9
$DIMTIX
 70
     0
  9
$DIMSOXD
 70
     0
  9
$DIMSAH
 70
     0
  9
$DIMBLK1
  1

  9
$DIMBLK2
  1

  9
$DIMSTYLE
  2
ISO-25
  9
$DIMCLRD
 70
     0
  9
$DIMCLRE
 70
     0
  9
$DIMCLRT
 70
     0
  9
$DIMTFAC
 40
1.0
  9
$DIMGAP
 40
0.625
  9
$LUNITS
 70
     2
  9
$LUPREC
 70
     4
  9
$SKETCHINC
 40
1.0
  9
$FILLETRAD
 40
0.0
  9
$AUNITS
 70
     0
  9
$AUPREC
 70
     0
  9
$MENU
  1
.
  9
$ELEVATION
 40
0.0
  9
$PELEVATION
 40
0.0
  9
$THICKNESS
 40
0.0
  9
$LIMCHECK
 70
     0
  9
$BLIPMODE
 70
     0
  9
$CHAMFERA
 40
0.0
  9
$CHAMFERB
 40
0.0
  9
$SKPOLY
 70
     0
  9
$TDCREATE
 40
2454979.4917406249
  9
$TDUPDATE
 40
2456776.5876885531
  9
$TDINDWG
 40
0.2187098264
  9
$TDUSRTIMER
 40
0.2187096528
  9
$USRTIMER
 70
     1
  9
$ANGBASE
 50
0.0
  9
$ANGDIR
 70
     0
  9
$PDMODE
 70
     0
  9
$PDSIZE
 40
0.0
  9
$PLINEWID
 40
0.0
  9
$COORDS
 70
     1
  9
$SPLFRAME
 70
     0
  9
$SPLINETYPE
 70
     6
  9
$SPLINESEGS
 70
     8
  9
$ATTDIA
 70
     0
  9
$ATTREQ
 70
     1
  9
$HANDLING
 70
     1
  9
$HANDSEED
  5
22A1
  9
$SURFTAB1
 70
     6
  9
$SURFTAB2
 70
     6
  9
$SURFTYPE
 70
     6
  9
$SURFU
 70
     6
  9
$SURFV
 70
     6
  9
$UCSNAME
  2

  9
$UCSORG
 10
0.0
 20
0.0
 30
0.0
  9
$UCSXDIR
 10
1.0
 20
0.0
 30
0.0
  9
$UCSYDIR
 10
0.0
 20
1.0
 30
0.0
  9
$PUCSNAME
  2

  9
$PUCSORG
 10
0.0
 20
0.0
 30
0.0
  9
$PUCSXDIR
 10
1.0
 20
0.0
 30
0.0
  9
$PUCSYDIR
 10
0.0
 20
1.0
 30
0.0
  9
$USERI1
 70
     0
  9
$USERI2
 70
     0
  9
$USERI3
 70
     0
  9
$USERI4
 70
     0
  9
$USERI5
 70
     0
  9
$USERR1
 40
0.0
  9
$USERR2
 40
0.0
  9
$USERR3
 40
0.0
  9
$USERR4
 40
0.0
  9
$USERR5
 40
0.0
  9
$WORLDVIEW
 70
     1
  9
$SHADEDGE
 70
     3
  9
$SHADEDIF
 70
    70
  9
$TILEMODE
 70
     1
  9
$MAXACTVP
 70
    64
  9
$PLIMCHECK
 70
     0
  9
$PEXTMIN
 10
0.0
 20
0.0
 30
0.0
  9
$PEXTMAX
 10
0.0
 20
0.0
 30
0.0
  9
$PLIMMIN
 10
0.0
 20
0.0
  9
$PLIMMAX
 10
12.0
 20
9.0
  9
$UNITMODE
 70
     0
  9
$VISRETAIN
 70
     1
  9
$PLINEGEN
 70
     0
  9
$PSLTSCALE
 70
     1
  0
ENDSEC
  0
SECTION
  2
TABLES
  0
TABLE
  2
VPORT
 70
     1
  0
VPORT
  2
*ACTIVE
 70
     0
 10
0.0
 20
0.0
 11
1.0
 21
1.0
 12
235.63977746870651
 22
135.0
 13
0.0
 23
0.0
 14
10.0
 24
10.0
 15
10.0
 25
10.0
 16
0.0
 26
0.0
 36
1.0
 17
0.0
 27
0.0
 37
0.0
 40
270.0
 41
1.7454798331015291
 42
50.0
 43
0.0
 44
0.0
 50
0.0
 51
0.0
 71
     0
 72
  1000
 73
     1
 74
     3
 75
     0
 76
     0
 77
     0
 78
     0
  0
ENDTAB
  0
TABLE
  2
LTYPE
 70
     2
  0
LTYPE
  2
CONTINUOUS
 70
     0
  3
Solid line
 72
    65
 73
     0
 40
0.0
  0
LTYPE
  2
CENTER
 70
     0
  3
____ _ ____ _ ____ _ ____ _ ____ _ ____ _ ____
 72
    65
 73
     4
 40
2.0
 49
1.25
 49
-0.25
 49
0.25
 49
-0.25
  0
ENDTAB
  0
TABLE
  2
LAYER
 70
     3
  0
LAYER
  2
0
 70
     0
 62
     7
  6
CONTINUOUS
  0
LAYER
  2
1
 70
     0
 62
     1
  6
CENTER
  0
LAYER
  2
3
 70
     0
 62
     3
  6
CONTINUOUS
  0
ENDTAB
  0
TABLE
  2
STYLE
 70
     2
  0
STYLE
  2
STANDARD
 70
     0
 40
0.0
 41
1.0
 50
0.0
 71
     0
 42
2.5
  3
txt
  4

  0
STYLE
  2
STANDARD1
 70
     0
 40
0.0
 41
1.0
 50
0.0
 71
     0
 42
3.0
  3
txt
  4

  0
ENDTAB
  0
TABLE
  2
VIEW
 70
     0
  0
ENDTAB
  0
TABLE
  2
UCS
 70
     0
  0
ENDTAB
  0
TABLE
  2
APPID
 70
     5
  0
APPID
  2
ACAD
 70
     0
  0
APPID
  2
ACAD_MLEADERVER
 70
     0
  0
APPID
  2
ACAD_NAV_VCDISPLAY
 70
     0
  0
APPID
  2
ACAD_EXEMPT_FROM_CAD_STANDARDS
 70
     0
  0
APPID
  2
ACADANNOTATIVE
 70
     0
  0
ENDTAB
  0
TABLE
  2
DIMSTYLE
 70
     2
  0
DIMSTYLE
  2
ISO-25
 70
     0
  3

  4

  5

  6

  7

 40
1.0
 41
2.5
 42
0.625
 43
3.75
 44
1.25
 45
0.0
 46
0.0
 47
0.0
 48
0.0
140
2.5
141
2.5
142
0.0
143
0.03937007874016
144
1.0
145
0.0
146
1.0
147
0.625
 71
     0
 72
     0
 73
     0
 74
     0
 75
     0
 76
     0
 77
     1
 78
     8
170
     0
171
     3
172
     1
173
     0
174
     0
175
     0
176
     0
177
     0
178
     0
  0
DIMSTYLE
  2
STANDARD
 70
     0
  3

  4

  5

  6

  7

 40
1.0
 41
0.18
 42
0.0625
 43
0.38
 44
0.18
 45
0.0
 46
0.0
 47
0.0
 48
0.0
140
0.18
141
0.09
142
0.0
143
25.399999999999999
144
1.0
145
0.0
146
1.0
147
0.09
 71
     0
 72
     0
 73
     1
 74
     1
 75
     0
 76
     0
 77
     0
 78
     0
170
     0
171
     2
172
     0
173
     0
174
     0
175
     0
176
     0
177
     0
178
     0
  0
ENDTAB
  0
ENDSEC
  0
SECTION
  2
BLOCKS
  0
BLOCK
  8
0
  2
$MODEL_SPACE
 70
     0
 10
0.0
 20
0.0
 30
0.0
  3
$MODEL_SPACE
  1

  0
ENDBLK
  5
21
  8
0
  0
BLOCK
 67
     1
  8
0
  2
$PAPER_SPACE
 70
     0
 10
0.0
 20
0.0
 30
0.0
  3
$PAPER_SPACE
  1

  0
ENDBLK
  5
53
 67
     1
  8
0
  0
ENDSEC
  0
SECTION
  2
ENTITIES
  0
TEXT
  5
749
  8
0
 62
     3
 10
0.0
 20
0.0
 30
0.0
 40
10.0
  1
TBKM12X60
  7
STANDARD1
  0
LINE
  5
2070
  8
1
 10
90.368795211178437
 20
146.21163910488411
 30
0.0
 11
90.368795211178437
 21
41.211639104884171
 31
0.0
  0
LINE
  5
2071
  8
1
 10
35.368795211178508
 20
131.2116391048842
 30
0.0
 11
145.36879521117851
 21
131.2116391048842
 31
0.0
  0
LINE
  5
2072
  8
0
 10
86.768795211178485
 20
54.825998458829083
 30
0.0
 11
86.768795211178485
 21
50.711639104884171
 31
0.0
  0
LINE
  5
2073
  8
0
 10
93.968795211178531
 20
50.711639104884171
 30
0.0
 11
93.968795211178531
 21
54.825998458829083
 31
0.0
  0
ARC
  5
2074
  8
0
 10
90.368795211178508
 20
52.211639104884171
 30
0.0
 40
5.9999999999999991
 50
228.1896851042199
 51
311.81031489577998
  0
LINE
  5
2075
  8
0
 10
86.368795211178508
 20
50.711639104884171
 30
0.0
 11
86.368795211178508
 21
47.739503149884577
 31
0.0
  0
LINE
  5
2076
  8
0
 10
94.368795211178494
 20
47.739503149884577
 30
0.0
 11
94.368795211178494
 21
50.711639104884171
 31
0.0
  0
LINE
  5
2077
  8
0
 10
94.368795211178494
 20
47.739503149884577
 30
0.0
 11
86.368795211178508
 21
47.739503149884577
 31
0.0
  0
LINE
  5
2078
  8
0
 10
94.368795211178494
 20
50.711639104884171
 30
0.0
 11
86.368795211178508
 21
50.711639104884171
 31
0.0
  0
LINE
  5
2079
  8
0
 10
50.268795211178542
 20
126.2116391048841
 30
0.0
 11
80.376973158330259
 21
126.2116391048841
 31
0.0
  0
LINE
  5
207A
  8
0
 10
80.372642217973748
 20
136.21163910488411
 30
0.0
 11
50.268795211178478
 21
136.21163910488411
 31
0.0
  0
LINE
  5
207B
  8
0
 10
100.3649482043832
 20
126.2116391048841
 30
0.0
 11
130.4687952111785
 21
126.2116391048841
 31
0.0
  0
LINE
  5
207C
  8
0
 10
130.4687952111785
 20
136.21163910488411
 30
0.0
 11
100.3606172640267
 21
136.21163910488411
 31
0.0
  0
LINE
  5
207D
  8
0
 10
84.368795211178494
 20
106.2116391048842
 30
0.0
 11
84.368795211178494
 21
56.211639104884171
 31
0.0
  0
LINE
  5
207E
  8
0
 10
96.368795211178508
 20
56.211639104884171
 30
0.0
 11
96.368795211178508
 21
106.2116391048842
 31
0.0
  0
LINE
  5
207F
  8
0
 10
93.968795211178531
 20
54.825998458829083
 30
0.0
 11
96.368795211178508
 21
56.211639104884171
 31
0.0
  0
LINE
  5
2080
  8
0
 10
84.368795211178494
 20
56.211639104884171
 30
0.0
 11
86.768795211178485
 21
54.825998458829083
 31
0.0
  0
LINE
  5
2081
  8
0
 10
93.968795211178531
 20
54.825998458829083
 30
0.0
 11
86.768795211178485
 21
54.825998458829083
 31
0.0
  0
LINE
  5
2082
  8
0
 10
96.368795211178508
 20
56.211639104884171
 30
0.0
 11
84.368795211178494
 21
56.211639104884171
 31
0.0
  0
LINE
  5
2083
  8
0
 10
40.368795211178501
 20
138.21163910488411
 30
0.0
 11
40.368795211178501
 21
124.2116391048841
 31
0.0
  0
ARC
  5
2084
  8
0
 10
41.368795211178501
 20
124.2116391048841
 30
0.0
 40
1.0000000000000211
 50
180.0
 51
270.0
  0
ARC
  5
2085
  8
0
 10
41.368795211178501
 20
138.2116391048842
 30
0.0
 40
0.9999999999999715
 50
90.0
 51
180.0
  0
LINE
  5
2086
  8
0
 10
50.268795211178478
 20
138.21163910488411
 30
0.0
 11
50.268795211178478
 21
124.2116391048841
 31
0.0
  0
ARC
  5
2087
  8
0
 10
49.268795211178478
 20
124.2116391048841
 30
0.0
 40
1.0000000000000271
 50
270.0
 51
0.0
  0
ARC
  5
2088
  8
0
 10
49.268795211178542
 20
138.2116391048842
 30
0.0
 40
0.9999999999999802
 50
0.0
 51
90.0
  0
LINE
  5
2089
  8
0
 10
140.36879521117851
 20
138.21163910488411
 30
0.0
 11
140.36879521117851
 21
124.2116391048841
 31
0.0
  0
ARC
  5
208A
  8
0
 10
139.36879521117851
 20
124.2116391048841
 30
0.0
 40
1.0
 50
270.0
 51
0.0
  0
ARC
  5
208B
  8
0
 10
139.36879521117851
 20
138.2116391048842
 30
0.0
 40
0.9999999999999715
 50
0.0
 51
90.0
  0
LINE
  5
208C
  8
0
 10
41.368795211178501
 20
123.2116391048841
 30
0.0
 11
49.268795211178478
 21
123.2116391048841
 31
0.0
  0
LINE
  5
208D
  8
0
 10
49.268795211178478
 20
139.21163910488411
 30
0.0
 11
41.368795211178501
 21
139.21163910488411
 31
0.0
  0
LINE
  5
208E
  8
0
 10
130.46879521117839
 20
138.21163910488411
 30
0.0
 11
130.46879521117839
 21
124.2116391048841
 31
0.0
  0
ARC
  5
208F
  8
0
 10
131.46879521117859
 20
124.2116391048841
 30
0.0
 40
1.000000000000042
 50
180.0
 51
270.0
  0
ARC
  5
2090
  8
0
 10
131.4687952111785
 20
138.21163910488411
 30
0.0
 40
1.0
 50
90.0
 51
180.0
  0
LINE
  5
2091
  8
0
 10
131.46879521117839
 20
123.2116391048841
 30
0.0
 11
139.36879521117851
 21
123.2116391048841
 31
0.0
  0
LINE
  5
2092
  8
0
 10
139.36879521117851
 20
139.21163910488411
 30
0.0
 11
131.46879521117839
 21
139.21163910488411
 31
0.0
  0
LINE
  5
2093
  8
0
 10
99.661688429991955
 20
106.2116391048842
 30
0.0
 11
100.36879521117849
 21
106.9187458860707
 31
0.0
  0
LINE
  5
2094
  8
0
 10
80.368795211178508
 20
106.9187458860707
 30
0.0
 11
81.075901992365061
 21
106.2116391048842
 31
0.0
  0
LINE
  5
2095
  8
0
 10
99.661688429991955
 20
106.2116391048842
 30
0.0
 11
81.075901992365061
 21
106.2116391048842
 31
0.0
  0
LINE
  5
2096
  8
0
 10
81.075901992365061
 20
141.21163910488411
 30
0.0
 11
80.368795211178508
 21
140.50453232369759
 31
0.0
  0
LINE
  5
2097
  8
0
 10
100.36879521117849
 20
140.50453232369759
 30
0.0
 11
99.661688429991955
 21
141.21163910488411
 31
0.0
  0
LINE
  5
2098
  8
0
 10
99.661688429991955
 20
141.21163910488411
 30
0.0
 11
81.075901992365061
 21
141.21163910488411
 31
0.0
  0
LINE
  5
2099
  8
0
 10
80.368795211178508
 20
140.50453232369759
 30
0.0
 11
80.368795211178508
 21
136.20389775239539
 31
0.0
  0
LINE
  5
209A
  8
0
 10
80.368795211178508
 20
126.2280317652022
 30
0.0
 11
80.368795211178508
 21
106.9187458860707
 31
0.0
  0
LINE
  5
209B
  8
0
 10
100.36879521117849
 20
106.9187458860707
 30
0.0
 11
100.36879521117849
 21
126.21938045737291
 31
0.0
  0
LINE
  5
209C
  8
0
 10
100.36879521117849
 20
136.1952464445661
 30
0.0
 11
100.36879521117849
 21
140.50453232369759
 31
0.0
  0
LINE
  5
209D
  8
0
 10
100.36879521117849
 20
106.9187458860707
 30
0.0
 11
80.368795211178508
 21
106.9187458860707
 31
0.0
  0
POLYLINE
  5
209E
  8
0
 66
     1
 10
0.0
 20
0.0
 30
0.0
  0
VERTEX
  5
2273
  8
0
 10
100.36879521061201
 20
136.21163910375111
 30
0.0
  0
VERTEX
  5
2274
  8
0
 10
100.36443663240441
 20
136.2029162382166
 30
0.0
  0
VERTEX
  5
2275
  8
0
 10
100.31470545278439
 20
136.10256238521501
 30
0.0
  0
VERTEX
  5
2276
  8
0
 10
100.210238621218
 20
135.88646620254349
 30
0.0
  0
VERTEX
  5
2277
  8
0
 10
100.0633383907349
 20
135.56872155306931
 30
0.0
  0
VERTEX
  5
2278
  8
0
 10
99.880869419838177
 20
135.14604576295201
 30
0.0
  0
VERTEX
  5
2279
  8
0
 10
99.667360464983574
 20
134.59739098286801
 30
0.0
  0
VERTEX
  5
227A
  8
0
 10
99.449450154853707
 20
133.9426268760198
 30
0.0
  0
VERTEX
  5
227B
  8
0
 10
99.250346962356545
 20
133.18190850495461
 30
0.0
  0
VERTEX
  5
227C
  8
0
 10
99.100095776634419
 20
132.32321886555411
 30
0.0
  0
VERTEX
  5
227D
  8
0
 10
99.034560700588656
 20
131.5206561229455
 30
0.0
  0
VERTEX
  5
227E
  8
0
 10
99.045495515547827
 20
130.6776651618469
 30
0.0
  0
VERTEX
  5
227F
  8
0
 10
99.118306718002202
 20
129.96506315130571
 30
0.0
  0
VERTEX
  5
2280
  8
0
 10
99.24465600373162
 20
129.26718421757471
 30
0.0
  0
VERTEX
  5
2281
  8
0
 10
99.412919119347634
 20
128.60469122156991
 30
0.0
  0
VERTEX
  5
2282
  8
0
 10
99.608442456602006
 20
127.99122279330859
 30
0.0
  0
VERTEX
  5
2283
  8
0
 10
99.829369875330542
 20
127.4034278481396
 30
0.0
  0
VERTEX
  5
2284
  8
0
 10
100.04006493437321
 20
126.9065888079906
 30
0.0
  0
VERTEX
  5
2285
  8
0
 10
100.2113880616795
 20
126.53439269051449
 30
0.0
  0
VERTEX
  5
2286
  8
0
 10
100.32822121370521
 20
126.29328914785521
 30
0.0
  0
VERTEX
  5
2287
  8
0
 10
100.36821056401951
 20
126.2128085017698
 30
0.0
  0
VERTEX
  5
2288
  8
0
 10
100.36879521049261
 20
126.2116391062559
 30
0.0
  0
SEQEND
  5
2289
  8
0
  0
LINE
  5
209F
  8
0
 10
100.36879521117849
 20
140.50453232369759
 30
0.0
 11
80.368795211178508
 21
140.50453232369759
 31
0.0
  0
POLYLINE
  5
20A0
  8
0
 66
     1
 10
0.0
 20
0.0
 30
0.0
  0
VERTEX
  5
228A
  8
0
 10
80.36879521174501
 20
126.2116391060172
 30
0.0
  0
VERTEX
  5
228B
  8
0
 10
80.373153789952596
 20
126.2203619715517
 30
0.0
  0
VERTEX
  5
228C
  8
0
 10
80.422884969572578
 20
126.3207158245533
 30
0.0
  0
VERTEX
  5
228D
  8
0
 10
80.527351801138991
 20
126.5368120072248
 30
0.0
  0
VERTEX
  5
228E
  8
0
 10
80.674252031622146
 20
126.854556656699
 30
0.0
  0
VERTEX
  5
228F
  8
0
 10
80.856721002518825
 20
127.2772324468163
 30
0.0
  0
VERTEX
  5
2290
  8
0
 10
81.070229957373428
 20
127.82588722690031
 30
0.0
  0
VERTEX
  5
2291
  8
0
 10
81.288140267503309
 20
128.48065133374851
 30
0.0
  0
VERTEX
  5
2292
  8
0
 10
81.487243460000457
 20
129.24136970481371
 30
0.0
  0
VERTEX
  5
2293
  8
0
 10
81.637494645722597
 20
130.1000593442142
 30
0.0
  0
VERTEX
  5
2294
  8
0
 10
81.70302972176836
 20
130.90262208682279
 30
0.0
  0
VERTEX
  5
2295
  8
0
 10
81.692094906809174
 20
131.74561304792141
 30
0.0
  0
VERTEX
  5
2296
  8
0
 10
81.619283704354814
 20
132.4582150584626
 30
0.0
  0
VERTEX
  5
2297
  8
0
 10
81.492934418625396
 20
133.1560939921936
 30
0.0
  0
VERTEX
  5
2298
  8
0
 10
81.324671303009382
 20
133.81858698819829
 30
0.0
  0
VERTEX
  5
2299
  8
0
 10
81.129147965754996
 20
134.43205541645969
 30
0.0
  0
VERTEX
  5
229A
  8
0
 10
80.908220547026474
 20
135.0198503616287
 30
0.0
  0
VERTEX
  5
229B
  8
0
 10
80.697525487983754
 20
135.51668940177771
 30
0.0
  0
VERTEX
  5
229C
  8
0
 10
80.52620236067753
 20
135.88888551925371
 30
0.0
  0
VERTEX
  5
229D
  8
0
 10
80.409369208651754
 20
136.12998906191311
 30
0.0
  0
VERTEX
  5
229E
  8
0
 10
80.369379858337481
 20
136.2104697079985
 30
0.0
  0
VERTEX
  5
229F
  8
0
 10
80.368795211864381
 20
136.2116391035124
 30
0.0
  0
SEQEND
  5
22A0
  8
0
  0
LINE
  5
20A1
  8
1
 10
177.36879521117311
 20
131.2116391048842
 30
0.0
 11
203.36879521117319
 21
131.2116391048842
 31
0.0
  0
LINE
  5
20A2
  8
1
 10
190.36879521117311
 20
146.21163910488411
 30
0.0
 11
190.36879521117311
 21
41.211639104884171
 31
0.0
  0
LINE
  5
20A3
  8
0
 10
186.7687952111732
 20
54.825998458829083
 30
0.0
 11
186.7687952111732
 21
50.711639104884171
 31
0.0
  0
LINE
  5
20A4
  8
0
 10
193.9687952111731
 20
50.711639104884171
 30
0.0
 11
193.9687952111731
 21
54.825998458829083
 31
0.0
  0
LINE
  5
20A5
  8
0
 10
194.36879521117311
 20
50.711639104884171
 30
0.0
 11
186.36879521117319
 21
50.711639104884171
 31
0.0
  0
LINE
  5
20A6
  8
0
 10
186.36879521117319
 20
50.711639104884171
 30
0.0
 11
186.36879521117319
 21
47.739503149884598
 31
0.0
  0
LINE
  5
20A7
  8
0
 10
194.36879521117311
 20
47.739503149884598
 30
0.0
 11
194.36879521117311
 21
50.711639104884171
 31
0.0
  0
LINE
  5
20A8
  8
0
 10
194.36879521117311
 20
47.739503149884598
 30
0.0
 11
186.36879521117319
 21
47.739503149884598
 31
0.0
  0
ARC
  5
20A9
  8
0
 10
190.36879521117311
 20
52.211639104884171
 30
0.0
 40
5.9999999999999991
 50
228.1896851042199
 51
311.81031489577998
  0
LINE
  5
20AA
  8
0
 10
184.36879521117311
 20
106.2116391048842
 30
0.0
 11
184.36879521117311
 21
56.211639104884171
 31
0.0
  0
LINE
  5
20AB
  8
0
 10
196.36879521117311
 20
56.211639104884171
 30
0.0
 11
196.36879521117311
 21
106.2116391048842
 31
0.0
  0
LINE
  5
20AC
  8
0
 10
193.9687952111731
 20
54.825998458829083
 30
0.0
 11
186.7687952111732
 21
54.825998458829083
 31
0.0
  0
LINE
  5
20AD
  8
0
 10
196.36879521117311
 20
56.211639104884171
 30
0.0
 11
184.36879521117311
 21
56.211639104884171
 31
0.0
  0
LINE
  5
20AE
  8
0
 10
193.9687952111731
 20
54.825998458829083
 30
0.0
 11
196.36879521117311
 21
56.211639104884171
 31
0.0
  0
LINE
  5
20AF
  8
0
 10
184.36879521117311
 20
56.211639104884171
 30
0.0
 11
186.7687952111732
 21
54.825998458829083
 31
0.0
  0
LINE
  5
20B0
  8
0
 10
199.66168842998661
 20
141.21163910488411
 30
0.0
 11
181.07590199235969
 21
141.21163910488411
 31
0.0
  0
LINE
  5
20B1
  8
0
 10
181.07590199235969
 20
141.21163910488411
 30
0.0
 11
180.36879521117311
 21
140.50453232369759
 31
0.0
  0
LINE
  5
20B2
  8
0
 10
200.36879521117319
 20
140.50453232369759
 30
0.0
 11
199.66168842998661
 21
141.21163910488411
 31
0.0
  0
LINE
  5
20B3
  8
0
 10
199.66168842998661
 20
106.2116391048842
 30
0.0
 11
181.07590199235969
 21
106.2116391048842
 31
0.0
  0
LINE
  5
20B4
  8
0
 10
199.66168842998661
 20
106.2116391048842
 30
0.0
 11
200.36879521117319
 21
106.9187458860707
 31
0.0
  0
LINE
  5
20B5
  8
0
 10
180.36879521117311
 20
106.9187458860707
 30
0.0
 11
181.07590199235969
 21
106.2116391048842
 31
0.0
  0
LINE
  5
20B6
  8
0
 10
200.36879521117319
 20
106.9187458860707
 30
0.0
 11
180.36879521117311
 21
106.9187458860707
 31
0.0
  0
LINE
  5
20B7
  8
0
 10
200.36879521117319
 20
140.50453232369759
 30
0.0
 11
180.36879521117311
 21
140.50453232369759
 31
0.0
  0
LINE
  5
20B8
  8
0
 10
180.36879521117311
 20
140.50453232369759
 30
0.0
 11
180.36879521117311
 21
106.9187458860707
 31
0.0
  0
LINE
  5
20B9
  8
0
 10
200.36879521117319
 20
106.9187458860707
 30
0.0
 11
200.36879521117319
 21
140.50453232369759
 31
0.0
  0
CIRCLE
  5
20BA
  8
0
 10
190.36879521117311
 20
131.2116391048842
 30
0.0
 40
8.0000000000000089
  0
LINE
  5
20BB
  8
1
 10
90.368795211178394
 20
176.21163910488411
 30
0.0
 11
90.368795211178394
 21
206.2116391048842
 31
0.0
  0
LINE
  5
20BC
  8
1
 10
35.368795211178387
 20
191.21163910488411
 30
0.0
 11
145.36879521117839
 21
191.21163910488411
 31
0.0
  0
LINE
  5
20BD
  8
0
 10
50.268795211178428
 20
186.21163910488411
 30
0.0
 11
81.706486418796828
 21
186.21163910488411
 31
0.0
  0
LINE
  5
20BE
  8
0
 10
81.708541173334027
 20
196.21163910488411
 30
0.0
 11
50.268795211178428
 21
196.21163910488411
 31
0.0
  0
LINE
  5
20BF
  8
0
 10
99.031104003559975
 20
186.21163910488411
 30
0.0
 11
130.46879521117839
 21
186.21163910488411
 31
0.0
  0
LINE
  5
20C0
  8
0
 10
130.46879521117839
 20
196.21163910488411
 30
0.0
 11
99.029049249022762
 21
196.21163910488411
 31
0.0
  0
LINE
  5
20C1
  8
0
 10
50.268795211178428
 20
198.21163910488411
 30
0.0
 11
50.268795211178428
 21
184.2116391050304
 31
0.0
  0
ARC
  5
20C2
  8
0
 10
49.268795211178372
 20
184.2116391048842
 30
0.0
 40
1.0000000000000131
 50
270.0
 51
0.0
  0
ARC
  5
20C3
  8
0
 10
49.268795211178372
 20
198.21163910488411
 30
0.0
 40
1.0000000000000191
 50
0.0
 51
90.0
  0
LINE
  5
20C4
  8
0
 10
140.36879521117839
 20
198.21163910488411
 30
0.0
 11
140.36879521117839
 21
184.2116391050304
 31
0.0
  0
ARC
  5
20C5
  8
0
 10
139.36879521117839
 20
184.2116391048842
 30
0.0
 40
1.0000000000000031
 50
270.0
 51
0.0
  0
ARC
  5
20C6
  8
0
 10
139.36879521117839
 20
198.21163910488411
 30
0.0
 40
1.0
 50
0.0
 51
90.0
  0
LINE
  5
20C7
  8
0
 10
41.368795211178387
 20
183.2116391048842
 30
0.0
 11
49.268795211178372
 21
183.2116391048842
 31
0.0
  0
LINE
  5
20C8
  8
0
 10
49.268795211178372
 20
199.2116391048842
 30
0.0
 11
41.368795211178387
 21
199.2116391048842
 31
0.0
  0
LINE
  5
20C9
  8
0
 10
40.368795211178387
 20
198.21163910488411
 30
0.0
 11
40.368795211178387
 21
184.2116391050304
 31
0.0
  0
ARC
  5
20CA
  8
0
 10
41.368795211178387
 20
184.2116391048842
 30
0.0
 40
1.0000000000000111
 50
180.0
 51
270.0
  0
ARC
  5
20CB
  8
0
 10
41.368795211178387
 20
198.21163910488411
 30
0.0
 40
1.0000000000000111
 50
90.0
 51
180.0
  0
LINE
  5
20CC
  8
0
 10
131.4687952111783
 20
183.2116391048842
 30
0.0
 11
139.36879521117839
 21
183.2116391048842
 31
0.0
  0
LINE
  5
20CD
  8
0
 10
139.36879521117839
 20
199.2116391048842
 30
0.0
 11
131.4687952111783
 21
199.2116391048842
 31
0.0
  0
LINE
  5
20CE
  8
0
 10
130.4687952111783
 20
198.21163910488411
 30
0.0
 11
130.4687952111783
 21
184.2116391050304
 31
0.0
  0
ARC
  5
20CF
  8
0
 10
131.46879521117839
 20
184.2116391048842
 30
0.0
 40
1.0000000000000271
 50
180.0
 51
270.0
  0
ARC
  5
20D0
  8
0
 10
131.46879521117839
 20
198.21163910488411
 30
0.0
 40
1.0000000000000251
 50
90.0
 51
180.0
  0
CIRCLE
  5
20D1
  8
0
 10
90.368795211178394
 20
191.21163910488411
 30
0.0
 40
10.0
  0
LINE
  5
20E2
  8
3
 10
95.295295211178427
 20
55.591853590909068
 30
0.0
 11
95.295295211178427
 21
96.211639104884227
 31
0.0
  0
LINE
  5
20E3
  8
0
 10
96.368795211178465
 20
96.211639104884227
 30
0.0
 11
84.368795211178451
 21
96.211639104884227
 31
0.0
  0
LINE
  5
20E4
  8
3
 10
85.442295211178546
 20
55.59185359090911
 30
0.0
 11
85.442295211178475
 21
96.211639104884227
 31
0.0
  0
LINE
  5
20E5
  8
3
 10
85.442295211178475
 20
96.211639104884185
 30
0.0
 11
84.368795211178394
 21
98.070995646809507
 31
0.0
  0
LINE
  5
20E6
  8
3
 10
95.295295211178427
 20
96.211639104884185
 30
0.0
 11
96.368795211178465
 21
98.070995646809365
 31
0.0
  0
LINE
  5
20E7
  8
3
 10
195.29529521117311
 20
55.591853590909103
 30
0.0
 11
195.29529521117311
 21
96.211639104884227
 31
0.0
  0
LINE
  5
20E8
  8
0
 10
196.36879521117311
 20
96.211639104884227
 30
0.0
 11
184.36879521117311
 21
96.211639104884227
 31
0.0
  0
LINE
  5
20E9
  8
3
 10
185.4422952111731
 20
55.591853590909189
 30
0.0
 11
185.4422952111731
 21
96.211639104884227
 31
0.0
  0
LINE
  5
20EA
  8
3
 10
185.44229521117319
 20
96.211639104884185
 30
0.0
 11
184.36879521117299
 21
98.070995646809536
 31
0.0
  0
LINE
  5
20EB
  8
3
 10
195.295295211173
 20
96.211639104884185
 30
0.0
 11
196.36879521117311
 21
98.070995646809365
 31
0.0
  0
ENDSEC
  0
EOF
