  0
SECTION
  2
HEADER
  9
$ACADVER
  1
AC1009
  9
$INSBASE
 10
0.0
 20
0.0
 30
0.0
  9
$EXTMIN
 10
0.0
 20
-2.960436562073669
 30
0.0
  9
$EXTMAX
 10
241.56879521117841
 20
226.21163910488411
 30
0.0
  9
$LIMMIN
 10
0.0
 20
0.0
  9
$LIMMAX
 10
420.0
 20
297.0
  9
$ORTHOMODE
 70
     1
  9
$REGENMODE
 70
     1
  9
$FILLMODE
 70
     1
  9
$QTEXTMODE
 70
     0
  9
$MIRRTEXT
 70
     0
  9
$DRAGMODE
 70
     2
  9
$LTSCALE
 40
5.0
  9
$OSMODE
 70
    37
  9
$ATTMODE
 70
     1
  9
$TEXTSIZE
 40
2.5
  9
$TRACEWID
 40
1.0
  9
$TEXTSTYLE
  7
STANDARD
  9
$CLAYER
  8
0
  9
$CELTYPE
  6
BYLAYER
  9
$CECOLOR
 62
   256
  9
$DIMSCALE
 40
1.0
  9
$DIMASZ
 40
2.5
  9
$DIMEXO
 40
0.625
  9
$DIMDLI
 40
3.75
  9
$DIMRND
 40
0.0
  9
$DIMDLE
 40
0.0
  9
$DIMEXE
 40
1.25
  9
$DIMTP
 40
0.0
  9
$DIMTM
 40
0.0
  9
$DIMTXT
 40
2.5
  9
$DIMCEN
 40
2.5
  9
$DIMTSZ
 40
0.0
  9
$DIMTOL
 70
     0
  9
$DIMLIM
 70
     0
  9
$DIMTIH
 70
     0
  9
$DIMTOH
 70
     0
  9
$DIMSE1
 70
     0
  9
$DIMSE2
 70
     0
  9
$DIMTAD
 70
     1
  9
$DIMZIN
 70
     8
  9
$DIMBLK
  1

  9
$DIMASO
 70
     1
  9
$DIMSHO
 70
     1
  9
$DIMPOST
  1

  9
$DIMAPOST
  1

  9
$DIMALT
 70
     0
  9
$DIMALTD
 70
     3
  9
$DIMALTF
 40
0.03937007874016
  9
$DIMLFAC
 40
1.0
  9
$DIMTOFL
 70
     1
  9
$DIMTVP
 40
0.0
  9
$DIMTIX
 70
     0
  9
$DIMSOXD
 70
     0
  9
$DIMSAH
 70
     0
  9
$DIMBLK1
  1

  9
$DIMBLK2
  1

  9
$DIMSTYLE
  2
ISO-25
  9
$DIMCLRD
 70
     0
  9
$DIMCLRE
 70
     0
  9
$DIMCLRT
 70
     0
  9
$DIMTFAC
 40
1.0
  9
$DIMGAP
 40
0.625
  9
$LUNITS
 70
     2
  9
$LUPREC
 70
     4
  9
$SKETCHINC
 40
1.0
  9
$FILLETRAD
 40
0.0
  9
$AUNITS
 70
     0
  9
$AUPREC
 70
     0
  9
$MENU
  1
.
  9
$ELEVATION
 40
0.0
  9
$PELEVATION
 40
0.0
  9
$THICKNESS
 40
0.0
  9
$LIMCHECK
 70
     0
  9
$BLIPMODE
 70
     0
  9
$CHAMFERA
 40
0.0
  9
$CHAMFERB
 40
0.0
  9
$SKPOLY
 70
     0
  9
$TDCREATE
 40
2454979.4917406249
  9
$TDUPDATE
 40
2456776.5878181951
  9
$TDINDWG
 40
0.2372229745
  9
$TDUSRTIMER
 40
0.2372228009
  9
$USRTIMER
 70
     1
  9
$ANGBASE
 50
0.0
  9
$ANGDIR
 70
     0
  9
$PDMODE
 70
     0
  9
$PDSIZE
 40
0.0
  9
$PLINEWID
 40
0.0
  9
$COORDS
 70
     1
  9
$SPLFRAME
 70
     0
  9
$SPLINETYPE
 70
     6
  9
$SPLINESEGS
 70
     8
  9
$ATTDIA
 70
     0
  9
$ATTREQ
 70
     1
  9
$HANDLING
 70
     1
  9
$HANDSEED
  5
179A
  9
$SURFTAB1
 70
     6
  9
$SURFTAB2
 70
     6
  9
$SURFTYPE
 70
     6
  9
$SURFU
 70
     6
  9
$SURFV
 70
     6
  9
$UCSNAME
  2

  9
$UCSORG
 10
0.0
 20
0.0
 30
0.0
  9
$UCSXDIR
 10
1.0
 20
0.0
 30
0.0
  9
$UCSYDIR
 10
0.0
 20
1.0
 30
0.0
  9
$PUCSNAME
  2

  9
$PUCSORG
 10
0.0
 20
0.0
 30
0.0
  9
$PUCSXDIR
 10
1.0
 20
0.0
 30
0.0
  9
$PUCSYDIR
 10
0.0
 20
1.0
 30
0.0
  9
$USERI1
 70
     0
  9
$USERI2
 70
     0
  9
$USERI3
 70
     0
  9
$USERI4
 70
     0
  9
$USERI5
 70
     0
  9
$USERR1
 40
0.0
  9
$USERR2
 40
0.0
  9
$USERR3
 40
0.0
  9
$USERR4
 40
0.0
  9
$USERR5
 40
0.0
  9
$WORLDVIEW
 70
     1
  9
$SHADEDGE
 70
     3
  9
$SHADEDIF
 70
    70
  9
$TILEMODE
 70
     1
  9
$MAXACTVP
 70
    64
  9
$PLIMCHECK
 70
     0
  9
$PEXTMIN
 10
0.0
 20
0.0
 30
0.0
  9
$PEXTMAX
 10
0.0
 20
0.0
 30
0.0
  9
$PLIMMIN
 10
0.0
 20
0.0
  9
$PLIMMAX
 10
12.0
 20
9.0
  9
$UNITMODE
 70
     0
  9
$VISRETAIN
 70
     1
  9
$PLINEGEN
 70
     0
  9
$PSLTSCALE
 70
     1
  0
ENDSEC
  0
SECTION
  2
TABLES
  0
TABLE
  2
VPORT
 70
     1
  0
VPORT
  2
*ACTIVE
 70
     0
 10
0.0
 20
0.0
 11
1.0
 21
1.0
 12
235.63977746870651
 22
135.0
 13
0.0
 23
0.0
 14
10.0
 24
10.0
 15
10.0
 25
10.0
 16
0.0
 26
0.0
 36
1.0
 17
0.0
 27
0.0
 37
0.0
 40
270.0
 41
1.7454798331015291
 42
50.0
 43
0.0
 44
0.0
 50
0.0
 51
0.0
 71
     0
 72
  1000
 73
     1
 74
     3
 75
     0
 76
     0
 77
     0
 78
     0
  0
ENDTAB
  0
TABLE
  2
LTYPE
 70
     3
  0
LTYPE
  2
CONTINUOUS
 70
     0
  3
Solid line
 72
    65
 73
     0
 40
0.0
  0
LTYPE
  2
CENTER
 70
     0
  3
____ _ ____ _ ____ _ ____ _ ____ _ ____ _ ____
 72
    65
 73
     4
 40
2.0
 49
1.25
 49
-0.25
 49
0.25
 49
-0.25
  0
LTYPE
  2
HIDDEN
 70
     0
  3
_ _ _ _ _ _ _ _ _ _ _ _ _ _ _ _ _ _ _ _ _ _ _
 72
    65
 73
     2
 40
0.375
 49
0.25
 49
-0.125
  0
ENDTAB
  0
TABLE
  2
LAYER
 70
     3
  0
LAYER
  2
0
 70
     0
 62
     7
  6
CONTINUOUS
  0
LAYER
  2
1
 70
     0
 62
     1
  6
CENTER
  0
LAYER
  2
2
 70
     0
 62
     2
  6
HIDDEN
  0
ENDTAB
  0
TABLE
  2
STYLE
 70
     2
  0
STYLE
  2
STANDARD
 70
     0
 40
0.0
 41
1.0
 50
0.0
 71
     0
 42
2.5
  3
txt
  4

  0
STYLE
  2
STANDARD1
 70
     0
 40
0.0
 41
1.0
 50
0.0
 71
     0
 42
3.0
  3
txt
  4

  0
ENDTAB
  0
TABLE
  2
VIEW
 70
     0
  0
ENDTAB
  0
TABLE
  2
UCS
 70
     0
  0
ENDTAB
  0
TABLE
  2
APPID
 70
     5
  0
APPID
  2
ACAD
 70
     0
  0
APPID
  2
ACAD_MLEADERVER
 70
     0
  0
APPID
  2
ACAD_NAV_VCDISPLAY
 70
     0
  0
APPID
  2
ACAD_EXEMPT_FROM_CAD_STANDARDS
 70
     0
  0
APPID
  2
ACADANNOTATIVE
 70
     0
  0
ENDTAB
  0
TABLE
  2
DIMSTYLE
 70
     2
  0
DIMSTYLE
  2
ISO-25
 70
     0
  3

  4

  5

  6

  7

 40
1.0
 41
2.5
 42
0.625
 43
3.75
 44
1.25
 45
0.0
 46
0.0
 47
0.0
 48
0.0
140
2.5
141
2.5
142
0.0
143
0.03937007874016
144
1.0
145
0.0
146
1.0
147
0.625
 71
     0
 72
     0
 73
     0
 74
     0
 75
     0
 76
     0
 77
     1
 78
     8
170
     0
171
     3
172
     1
173
     0
174
     0
175
     0
176
     0
177
     0
178
     0
  0
DIMSTYLE
  2
STANDARD
 70
     0
  3

  4

  5

  6

  7

 40
1.0
 41
0.18
 42
0.0625
 43
0.38
 44
0.18
 45
0.0
 46
0.0
 47
0.0
 48
0.0
140
0.18
141
0.09
142
0.0
143
25.399999999999999
144
1.0
145
0.0
146
1.0
147
0.09
 71
     0
 72
     0
 73
     1
 74
     1
 75
     0
 76
     0
 77
     0
 78
     0
170
     0
171
     2
172
     0
173
     0
174
     0
175
     0
176
     0
177
     0
178
     0
  0
ENDTAB
  0
ENDSEC
  0
SECTION
  2
BLOCKS
  0
BLOCK
  8
0
  2
$MODEL_SPACE
 70
     0
 10
0.0
 20
0.0
 30
0.0
  3
$MODEL_SPACE
  1

  0
ENDBLK
  5
21
  8
0
  0
BLOCK
 67
     1
  8
0
  2
$PAPER_SPACE
 70
     0
 10
0.0
 20
0.0
 30
0.0
  3
$PAPER_SPACE
  1

  0
ENDBLK
  5
53
 67
     1
  8
0
  0
ENDSEC
  0
SECTION
  2
ENTITIES
  0
TEXT
  5
749
  8
0
 62
     3
 10
0.0
 20
0.0
 30
0.0
 40
10.0
  1
TBKM20
  7
STANDARD1
  0
LINE
  5
10AE
  8
2
 10
99.015795211178386
 20
97.411639104884173
 30
0.0
 11
90.368795211178394
 21
102.4039868825668
 31
0.0
  0
LINE
  5
10AF
  8
2
 10
90.368795211178394
 20
102.4039868825668
 30
0.0
 11
81.721795211178403
 21
97.411639104884173
 31
0.0
  0
LINE
  5
10B0
  8
2
 10
99.015795211178386
 20
47.564639104884172
 30
0.0
 11
99.015795211178386
 21
97.411639104884173
 31
0.0
  0
LINE
  5
10B1
  8
2
 10
81.721795211178403
 20
97.411639104884173
 30
0.0
 11
81.721795211178403
 21
47.564639104884172
 31
0.0
  0
LINE
  5
10B2
  8
2
 10
100.36879521117839
 20
46.211639104884171
 30
0.0
 11
99.015795211178386
 21
47.564639104884172
 31
0.0
  0
LINE
  5
10B3
  8
2
 10
81.721795211178403
 20
47.564639104884172
 30
0.0
 11
80.368795211178394
 21
46.211639104884171
 31
0.0
  0
LINE
  5
10BC
  8
2
 10
81.721795211178403
 20
97.411639104884173
 30
0.0
 11
99.015795211178386
 21
97.411639104884173
 31
0.0
  0
LINE
  5
10BD
  8
2
 10
81.721795211178403
 20
47.564639104884172
 30
0.0
 11
99.015795211178386
 21
47.564639104884172
 31
0.0
  0
LINE
  5
10C0
  8
2
 10
100.36879521117839
 20
46.211639104884171
 30
0.0
 11
100.36879521117839
 21
86.211639104884185
 31
0.0
  0
LINE
  5
10C1
  8
2
 10
100.36879521117839
 20
86.211639104884185
 30
0.0
 11
80.368795211178394
 21
86.211639104884185
 31
0.0
  0
LINE
  5
10C2
  8
2
 10
80.368795211178394
 20
46.211639104884171
 30
0.0
 11
80.368795211178394
 21
86.211639104884185
 31
0.0
  0
LINE
  5
10C3
  8
1
 10
90.368795211178394
 20
146.21163910488411
 30
0.0
 11
90.368795211178394
 21
41.211639104884171
 31
0.0
  0
LINE
  5
10C4
  8
1
 10
15.368795211178391
 20
125.2116391048841
 30
0.0
 11
165.36879521117839
 21
125.2116391048842
 31
0.0
  0
LINE
  5
10C5
  8
0
 10
105.36879521117839
 20
140.01163910488421
 30
0.0
 11
104.16879521117841
 21
141.21163910488411
 31
0.0
  0
LINE
  5
10C6
  8
0
 10
76.568795211178383
 20
141.21163910488411
 30
0.0
 11
75.368795211178394
 21
140.01163910488421
 31
0.0
  0
LINE
  5
10C7
  8
0
 10
104.16879521117841
 20
46.211639104884163
 30
0.0
 11
105.36879521117839
 21
47.411639104884159
 31
0.0
  0
LINE
  5
10C8
  8
0
 10
75.368795211178394
 20
47.411639104884159
 30
0.0
 11
76.568795211178383
 21
46.211639104884163
 31
0.0
  0
LINE
  5
10C9
  8
0
 10
105.36879521117839
 20
133.2116391048842
 30
0.0
 11
105.36879521117839
 21
140.01163910488421
 31
0.0
  0
LINE
  5
10CA
  8
0
 10
105.36879521117839
 20
47.411639104884173
 30
0.0
 11
105.36879521117839
 21
117.2116391048841
 31
0.0
  0
LINE
  5
10CB
  8
0
 10
75.368795211178394
 20
117.2116391048841
 30
0.0
 11
75.368795211178394
 21
47.411639104884173
 31
0.0
  0
LINE
  5
10CC
  8
0
 10
75.368795211178394
 20
140.01163910488421
 30
0.0
 11
75.368795211178394
 21
133.2116391048842
 31
0.0
  0
ARC
  5
10CD
  8
0
 10
21.9687952111783
 20
115.61163910488411
 30
0.0
 40
1.5999999999999579
 50
180.0
 51
270.0
  0
ARC
  5
10CE
  8
0
 10
21.9687952111783
 20
134.81163910488419
 30
0.0
 40
1.599999999999965
 50
90.0
 51
180.0
  0
LINE
  5
10CF
  8
0
 10
32.668795211178413
 20
136.4116391048841
 30
0.0
 11
21.96879521117836
 21
136.4116391048841
 31
0.0
  0
LINE
  5
10D0
  8
0
 10
21.96879521117836
 20
114.0116391048841
 30
0.0
 11
32.668795211178413
 21
114.0116391048841
 31
0.0
  0
ARC
  5
10D1
  8
0
 10
32.668795211178413
 20
115.61163910488411
 30
0.0
 40
1.5999999999999941
 50
270.0
 51
0.0
  0
ARC
  5
10D2
  8
0
 10
32.668795211178413
 20
134.81163910488419
 30
0.0
 40
1.5999999999999901
 50
0.0
 51
90.0
  0
LINE
  5
10D3
  8
0
 10
146.4687952111783
 20
133.2116391048842
 30
0.0
 11
105.36879521117839
 21
133.2116391048842
 31
0.0
  0
LINE
  5
10D4
  8
0
 10
105.36879521117839
 20
117.2116391048841
 30
0.0
 11
146.4687952111783
 21
117.2116391048841
 31
0.0
  0
ARC
  5
10D5
  8
0
 10
148.0687952111783
 20
115.61163910488411
 30
0.0
 40
1.599999999999965
 50
180.0
 51
270.0
  0
ARC
  5
10D6
  8
0
 10
148.0687952111783
 20
134.81163910488419
 30
0.0
 40
1.599999999999965
 50
90.0
 51
180.0
  0
LINE
  5
10D7
  8
0
 10
158.76879521117829
 20
136.4116391048841
 30
0.0
 11
148.0687952111783
 21
136.4116391048841
 31
0.0
  0
LINE
  5
10D8
  8
0
 10
148.0687952111783
 20
114.0116391048841
 30
0.0
 11
158.76879521117829
 21
114.0116391048841
 31
0.0
  0
ARC
  5
10D9
  8
0
 10
158.76879521117829
 20
115.61163910488411
 30
0.0
 40
1.5999999999999941
 50
270.0
 51
0.0
  0
ARC
  5
10DA
  8
0
 10
158.76879521117829
 20
134.81163910488419
 30
0.0
 40
1.5999999999999941
 50
0.0
 51
90.0
  0
LINE
  5
10DB
  8
0
 10
75.368795211178394
 20
133.2116391048842
 30
0.0
 11
34.268795211178372
 21
133.2116391048842
 31
0.0
  0
LINE
  5
10DC
  8
0
 10
34.268795211178372
 20
117.2116391048841
 30
0.0
 11
75.368795211178394
 21
117.2116391048841
 31
0.0
  0
LINE
  5
10DD
  8
0
 10
76.568795211178383
 20
141.21163910488411
 30
0.0
 11
104.16879521117841
 21
141.21163910488411
 31
0.0
  0
LINE
  5
10DE
  8
0
 10
76.568795211178383
 20
46.211639104884171
 30
0.0
 11
104.16879521117841
 21
46.211639104884171
 31
0.0
  0
LINE
  5
10DF
  8
0
 10
75.368795211178394
 20
140.01163910488421
 30
0.0
 11
105.36879521117839
 21
140.01163910488421
 31
0.0
  0
LINE
  5
10E0
  8
0
 10
75.368795211178394
 20
47.411639104884173
 30
0.0
 11
105.36879521117839
 21
47.411639104884173
 31
0.0
  0
LINE
  5
10E1
  8
0
 10
20.368795211178391
 20
115.61163910488411
 30
0.0
 11
20.368795211178391
 21
134.81163910488419
 31
0.0
  0
LINE
  5
10E4
  8
0
 10
34.268795211178372
 20
115.61163910488411
 30
0.0
 11
34.268795211178372
 21
134.81163910488419
 31
0.0
  0
POLYLINE
  5
10E5
  8
0
 66
     1
 10
0.0
 20
0.0
 30
0.0
 70
     8
  0
VERTEX
  5
10E6
  8
0
 10
103.0573727516279
 20
125.2116391048841
 30
0.0
 70
    32
  0
VERTEX
  5
10E7
  8
0
 10
103.0575016100553
 20
125.26882369108981
 30
0.0
 70
    32
  0
VERTEX
  5
10E8
  8
0
 10
103.0585364404303
 20
125.3834892296327
 30
0.0
 70
    32
  0
VERTEX
  5
10E9
  8
0
 10
103.06061522080461
 20
125.4985104292592
 30
0.0
 70
    32
  0
VERTEX
  5
10EA
  8
0
 10
103.0620485549905
 20
125.5561393954451
 30
0.0
 70
    32
  0
VERTEX
  5
10EB
  8
0
 10
103.0637455814459
 20
125.6138391838942
 30
0.0
 70
    32
  0
VERTEX
  5
10EC
  8
0
 10
103.067933137388
 20
125.7294267726549
 30
0.0
 70
    32
  0
VERTEX
  5
10ED
  8
0
 10
103.0731814585012
 20
125.8452240803734
 30
0.0
 70
    32
  0
VERTEX
  5
10EE
  8
0
 10
103.0794920557243
 20
125.9611818147754
 30
0.0
 70
    32
  0
VERTEX
  5
10EF
  8
0
 10
103.0868643833266
 20
126.07725071960959
 30
0.0
 70
    32
  0
VERTEX
  5
10F0
  8
0
 10
103.0952958569204
 20
126.1933817830202
 30
0.0
 70
    32
  0
VERTEX
  5
10F1
  8
0
 10
103.0999074162968
 20
126.2514554248728
 30
0.0
 70
    32
  0
VERTEX
  5
10F2
  8
0
 10
103.1047818868004
 20
126.3095264404618
 30
0.0
 70
    32
  0
VERTEX
  5
10F3
  8
0
 10
103.1153159260431
 20
126.4256367714693
 30
0.0
 70
    32
  0
VERTEX
  5
10F4
  8
0
 10
103.1268895326711
 20
126.5416656896201
 30
0.0
 70
    32
  0
VERTEX
  5
10F5
  8
0
 10
103.1394924450608
 20
126.657567125047
 30
0.0
 70
    32
  0
VERTEX
  5
10F6
  8
0
 10
103.1531126696616
 20
126.77329619889611
 30
0.0
 70
    32
  0
VERTEX
  5
10F7
  8
0
 10
103.16773656319489
 20
126.8888092609385
 30
0.0
 70
    32
  0
VERTEX
  5
10F8
  8
0
 10
103.1754201614484
 20
126.94647126301309
 30
0.0
 70
    32
  0
VERTEX
  5
10F9
  8
0
 10
103.1833487895762
 20
127.0040629982836
 30
0.0
 70
    32
  0
VERTEX
  5
10FA
  8
0
 10
103.1999322797699
 20
127.1190138643331
 30
0.0
 70
    32
  0
VERTEX
  5
10FB
  8
0
 10
103.21746827999409
 20
127.2336182415993
 30
0.0
 70
    32
  0
VERTEX
  5
10FC
  8
0
 10
103.2265871652797
 20
127.29077689131201
 30
0.0
 70
    32
  0
VERTEX
  5
10FD
  8
0
 10
103.23593641407059
 20
127.3478326202675
 30
0.0
 70
    32
  0
VERTEX
  5
10FE
  8
0
 10
103.25531475538121
 20
127.46161376321329
 30
0.0
 70
    32
  0
VERTEX
  5
10FF
  8
0
 10
103.2755799072373
 20
127.57491885777441
 30
0.0
 70
    32
  0
VERTEX
  5
1100
  8
0
 10
103.2860373451114
 20
127.6313796584672
 30
0.0
 70
    32
  0
VERTEX
  5
1101
  8
0
 10
103.2967070904853
 20
127.6877056547016
 30
0.0
 70
    32
  0
VERTEX
  5
1102
  8
0
 10
103.3186702372185
 20
127.79993259482271
 30
0.0
 70
    32
  0
VERTEX
  5
1103
  8
0
 10
103.3414420895092
 20
127.9115589240394
 30
0.0
 70
    32
  0
VERTEX
  5
1104
  8
0
 10
103.36499430213949
 20
128.02254479734319
 30
0.0
 70
    32
  0
VERTEX
  5
1105
  8
0
 10
103.3892975483754
 20
128.13285137258291
 30
0.0
 70
    32
  0
VERTEX
  5
1106
  8
0
 10
103.414321627902
 20
128.24244089474661
 30
0.0
 70
    32
  0
VERTEX
  5
1107
  8
0
 10
103.42709433056029
 20
128.29695527851231
 30
0.0
 70
    32
  0
VERTEX
  5
1108
  8
0
 10
103.44003627895449
 20
128.3512796976778
 30
0.0
 70
    32
  0
VERTEX
  5
1109
  8
0
 10
103.46641527269669
 20
128.45935388236791
 30
0.0
 70
    32
  0
VERTEX
  5
110A
  8
0
 10
103.4934278981484
 20
128.56663287058359
 30
0.0
 70
    32
  0
VERTEX
  5
110B
  8
0
 10
103.52104166387529
 20
128.67308197635811
 30
0.0
 70
    32
  0
VERTEX
  5
110C
  8
0
 10
103.5492233894135
 20
128.7786668538109
 30
0.0
 70
    32
  0
VERTEX
  5
110D
  8
0
 10
103.5779392888475
 20
128.88335359060099
 30
0.0
 70
    32
  0
VERTEX
  5
110E
  8
0
 10
103.5924868509716
 20
128.93534969841011
 30
0.0
 70
    32
  0
VERTEX
  5
110F
  8
0
 10
103.60715505559151
 20
128.9871087935677
 30
0.0
 70
    32
  0
VERTEX
  5
1110
  8
0
 10
103.6368359478642
 20
129.089899667347
 30
0.0
 70
    32
  0
VERTEX
  5
1111
  8
0
 10
103.6669468744218
 20
129.19169408674361
 30
0.0
 70
    32
  0
VERTEX
  5
1112
  8
0
 10
103.697452480172
 20
129.2924606636266
 30
0.0
 70
    32
  0
VERTEX
  5
1113
  8
0
 10
103.7283172313611
 20
129.3921688090899
 30
0.0
 70
    32
  0
VERTEX
  5
1114
  8
0
 10
103.7595055000774
 20
129.4907887915891
 30
0.0
 70
    32
  0
VERTEX
  5
1115
  8
0
 10
103.7752098146379
 20
129.53968167859489
 30
0.0
 70
    32
  0
VERTEX
  5
1116
  8
0
 10
103.7909816478673
 20
129.58829179172551
 30
0.0
 70
    32
  0
VERTEX
  5
1117
  8
0
 10
103.8227101083025
 20
129.68464995430759
 30
0.0
 70
    32
  0
VERTEX
  5
1118
  8
0
 10
103.8546554610201
 20
129.7798364165447
 30
0.0
 70
    32
  0
VERTEX
  5
1119
  8
0
 10
103.8867824013067
 20
129.87382503773489
 30
0.0
 70
    32
  0
VERTEX
  5
111A
  8
0
 10
103.9190556770799
 20
129.96659007137939
 30
0.0
 70
    32
  0
VERTEX
  5
111B
  8
0
 10
103.9514401433331
 20
130.05810620504991
 30
0.0
 70
    32
  0
VERTEX
  5
111C
  8
0
 10
103.96766313685011
 20
130.10338816425579
 30
0.0
 70
    32
  0
VERTEX
  5
111D
  8
0
 10
103.9839008332365
 20
130.1483486466538
 30
0.0
 70
    32
  0
VERTEX
  5
111E
  8
0
 10
104.01640302924829
 20
130.23729320717209
 30
0.0
 70
    32
  0
VERTEX
  5
111F
  8
0
 10
104.04891233403831
 20
130.32491638028841
 30
0.0
 70
    32
  0
VERTEX
  5
1120
  8
0
 10
104.0813947410588
 20
130.41119541930919
 30
0.0
 70
    32
  0
VERTEX
  5
1121
  8
0
 10
104.1138167046241
 20
130.49610841175729
 30
0.0
 70
    32
  0
VERTEX
  5
1122
  8
0
 10
104.1461452093841
 20
130.57963435200011
 30
0.0
 70
    32
  0
VERTEX
  5
1123
  8
0
 10
104.16226425936919
 20
130.6208708787498
 30
0.0
 70
    32
  0
VERTEX
  5
1124
  8
0
 10
104.1783478390973
 20
130.6617532122458
 30
0.0
 70
    32
  0
VERTEX
  5
1125
  8
0
 10
104.2103928446236
 20
130.74244601221659
 30
0.0
 70
    32
  0
VERTEX
  5
1126
  8
0
 10
104.242249211073
 20
130.8216948877791
 30
0.0
 70
    32
  0
VERTEX
  5
1127
  8
0
 10
104.25809717958521
 20
130.8607725932689
 30
0.0
 70
    32
  0
VERTEX
  5
1128
  8
0
 10
104.2739141115411
 20
130.89955011273449
 30
0.0
 70
    32
  0
VERTEX
  5
1129
  8
0
 10
104.3056097517952
 20
130.97660220446679
 30
0.0
 70
    32
  0
VERTEX
  5
112A
  8
0
 10
104.33736549195579
 20
131.05295365633731
 30
0.0
 70
    32
  0
VERTEX
  5
112B
  8
0
 10
104.35325578607009
 20
131.09085143058741
 30
0.0
 70
    32
  0
VERTEX
  5
112C
  8
0
 10
104.3691489351464
 20
131.1285559030338
 30
0.0
 70
    32
  0
VERTEX
  5
112D
  8
0
 10
104.40092743721981
 20
131.2033612954659
 30
0.0
 70
    32
  0
VERTEX
  5
112E
  8
0
 10
104.43266818605851
 20
131.27732315975911
 30
0.0
 70
    32
  0
VERTEX
  5
112F
  8
0
 10
104.4643382798581
 20
131.35039585206081
 30
0.0
 70
    32
  0
VERTEX
  5
1130
  8
0
 10
104.4959048042644
 20
131.42253480961639
 30
0.0
 70
    32
  0
VERTEX
  5
1131
  8
0
 10
104.5273349082193
 20
131.49369659846721
 30
0.0
 70
    32
  0
VERTEX
  5
1132
  8
0
 10
104.54298857222039
 20
131.52889780120239
 30
0.0
 70
    32
  0
VERTEX
  5
1133
  8
0
 10
104.5585958783568
 20
131.56383895802631
 30
0.0
 70
    32
  0
VERTEX
  5
1134
  8
0
 10
104.5896552117642
 20
131.63292084268861
 30
0.0
 70
    32
  0
VERTEX
  5
1135
  8
0
 10
104.6204806869043
 20
131.70090246053681
 30
0.0
 70
    32
  0
VERTEX
  5
1136
  8
0
 10
104.6510404324673
 20
131.76774530910561
 30
0.0
 70
    32
  0
VERTEX
  5
1137
  8
0
 10
104.6813029938902
 20
131.8334122080785
 30
0.0
 70
    32
  0
VERTEX
  5
1138
  8
0
 10
104.71123738955259
 20
131.89786731217771
 30
0.0
 70
    32
  0
VERTEX
  5
1139
  8
0
 10
104.7260719610626
 20
131.9296295538775
 30
0.0
 70
    32
  0
VERTEX
  5
113A
  8
0
 10
104.74081305453041
 20
131.9610758880261
 30
0.0
 70
    32
  0
VERTEX
  5
113B
  8
0
 10
104.76999975725489
 20
132.0230040472386
 30
0.0
 70
    32
  0
VERTEX
  5
113C
  8
0
 10
104.7987676520452
 20
132.08361877919771
 30
0.0
 70
    32
  0
VERTEX
  5
113D
  8
0
 10
104.82708734915521
 20
132.14288802171609
 30
0.0
 70
    32
  0
VERTEX
  5
113E
  8
0
 10
104.8549299830941
 20
132.20078072815281
 30
0.0
 70
    32
  0
VERTEX
  5
113F
  8
0
 10
104.8822672790028
 20
132.25726693095601
 30
0.0
 70
    32
  0
VERTEX
  5
1140
  8
0
 10
104.8957377666482
 20
132.2849735385102
 30
0.0
 70
    32
  0
VERTEX
  5
1141
  8
0
 10
104.90907161684029
 20
132.3123178015336
 30
0.0
 70
    32
  0
VERTEX
  5
1142
  8
0
 10
104.93531609311179
 20
132.36590570627689
 30
0.0
 70
    32
  0
VERTEX
  5
1143
  8
0
 10
104.960974579834
 20
132.41800425848399
 30
0.0
 70
    32
  0
VERTEX
  5
1144
  8
0
 10
104.9860217804106
 20
132.46858836585261
 30
0.0
 70
    32
  0
VERTEX
  5
1145
  8
0
 10
105.010433282053
 20
132.51763427313369
 30
0.0
 70
    32
  0
VERTEX
  5
1146
  8
0
 10
105.0341856043505
 20
132.56511959946261
 30
0.0
 70
    32
  0
VERTEX
  5
1147
  8
0
 10
105.04580750156001
 20
132.5882704344283
 30
0.0
 70
    32
  0
VERTEX
  5
1148
  8
0
 10
105.0572568728799
 20
132.6110246190519
 30
0.0
 70
    32
  0
VERTEX
  5
1149
  8
0
 10
105.0796299546839
 20
132.65533837680059
 30
0.0
 70
    32
  0
VERTEX
  5
114A
  8
0
 10
105.10128445065121
 20
132.69804272686321
 30
0.0
 70
    32
  0
VERTEX
  5
114B
  8
0
 10
105.1221998387981
 20
132.7391186369899
 30
0.0
 70
    32
  0
VERTEX
  5
114C
  8
0
 10
105.1423565131294
 20
132.77854821908031
 30
0.0
 70
    32
  0
VERTEX
  5
114D
  8
0
 10
105.1617358472093
 20
132.8163148153358
 30
0.0
 70
    32
  0
VERTEX
  5
114E
  8
0
 10
105.1711284734433
 20
132.8345696441948
 30
0.0
 70
    32
  0
VERTEX
  5
114F
  8
0
 10
105.18032025352331
 20
132.8524030771587
 30
0.0
 70
    32
  0
VERTEX
  5
1150
  8
0
 10
105.19809323823191
 20
132.88679903645379
 30
0.0
 70
    32
  0
VERTEX
  5
1151
  8
0
 10
105.2150394509046
 20
132.91949016893591
 30
0.0
 70
    32
  0
VERTEX
  5
1152
  8
0
 10
105.2231980443887
 20
132.9351929197602
 30
0.0
 70
    32
  0
VERTEX
  5
1153
  8
0
 10
105.23114472881819
 20
132.95046544900691
 30
0.0
 70
    32
  0
VERTEX
  5
1154
  8
0
 10
105.24639613539421
 20
132.9797153957187
 30
0.0
 70
    32
  0
VERTEX
  5
1155
  8
0
 10
105.26078199234681
 20
133.00723210929971
 30
0.0
 70
    32
  0
VERTEX
  5
1156
  8
0
 10
105.2676470407168
 20
133.02033847408379
 30
0.0
 70
    32
  0
VERTEX
  5
1157
  8
0
 10
105.2742919051108
 20
133.03300929768491
 30
0.0
 70
    32
  0
VERTEX
  5
1158
  8
0
 10
105.2869167811204
 20
133.0570422924564
 30
0.0
 70
    32
  0
VERTEX
  5
1159
  8
0
 10
105.29864883628269
 20
133.07932804554781
 30
0.0
 70
    32
  0
VERTEX
  5
115A
  8
0
 10
105.30948153395271
 20
133.09986500146789
 30
0.0
 70
    32
  0
VERTEX
  5
115B
  8
0
 10
105.31940953131129
 20
133.1186529880998
 30
0.0
 70
    32
  0
VERTEX
  5
115C
  8
0
 10
105.32842872150761
 20
133.13569329219021
 30
0.0
 70
    32
  0
VERTEX
  5
115D
  8
0
 10
105.33259658026159
 20
133.14355888595719
 30
0.0
 70
    32
  0
VERTEX
  5
115E
  8
0
 10
105.336536280847
 20
133.15098874629959
 30
0.0
 70
    32
  0
VERTEX
  5
115F
  8
0
 10
105.343730708126
 20
133.1645438030269
 30
0.0
 70
    32
  0
VERTEX
  5
1160
  8
0
 10
105.3500118558768
 20
133.1763645964117
 30
0.0
 70
    32
  0
VERTEX
  5
1161
  8
0
 10
105.3553809533319
 20
133.1864589904313
 30
0.0
 70
    32
  0
VERTEX
  5
1162
  8
0
 10
105.3598406209495
 20
133.1948366145177
 30
0.0
 70
    32
  0
VERTEX
  5
1163
  8
0
 10
105.36339487637839
 20
133.20150888602669
 30
0.0
 70
    32
  0
VERTEX
  5
1164
  8
0
 10
105.3648341115988
 20
133.20420957394609
 30
0.0
 70
    32
  0
VERTEX
  5
1165
  8
0
 10
105.36604913177069
 20
133.20648901959311
 30
0.0
 70
    32
  0
VERTEX
  5
1166
  8
0
 10
105.3678101823825
 20
133.20979202330241
 30
0.0
 70
    32
  0
VERTEX
  5
1167
  8
0
 10
105.3686861864268
 20
133.21143468160611
 30
0.0
 70
    32
  0
VERTEX
  5
1168
  8
0
 10
105.36879521117839
 20
133.2116391048842
 30
0.0
 70
    32
  0
SEQEND
  5
1169
  8
0
  0
POLYLINE
  5
116A
  8
0
 66
     1
 10
0.0
 20
0.0
 30
0.0
 70
     8
  0
VERTEX
  5
116B
  8
0
 10
105.36879521117839
 20
117.2116391048841
 30
0.0
 70
    32
  0
VERTEX
  5
116C
  8
0
 10
105.3686861864268
 20
117.21184352816221
 30
0.0
 70
    32
  0
VERTEX
  5
116D
  8
0
 10
105.3678101823825
 20
117.2134861864658
 30
0.0
 70
    32
  0
VERTEX
  5
116E
  8
0
 10
105.36604913177069
 20
117.21678919017521
 30
0.0
 70
    32
  0
VERTEX
  5
116F
  8
0
 10
105.3648341115988
 20
117.2190686358222
 30
0.0
 70
    32
  0
VERTEX
  5
1170
  8
0
 10
105.36339487637839
 20
117.2217693237416
 30
0.0
 70
    32
  0
VERTEX
  5
1171
  8
0
 10
105.3598406209495
 20
117.2284415952506
 30
0.0
 70
    32
  0
VERTEX
  5
1172
  8
0
 10
105.3553809533319
 20
117.23681921933689
 30
0.0
 70
    32
  0
VERTEX
  5
1173
  8
0
 10
105.3500118558768
 20
117.2469136133566
 30
0.0
 70
    32
  0
VERTEX
  5
1174
  8
0
 10
105.343730708126
 20
117.2587344067413
 30
0.0
 70
    32
  0
VERTEX
  5
1175
  8
0
 10
105.336536280847
 20
117.2722894634686
 30
0.0
 70
    32
  0
VERTEX
  5
1176
  8
0
 10
105.33259658026159
 20
117.27971932381109
 30
0.0
 70
    32
  0
VERTEX
  5
1177
  8
0
 10
105.32842872150761
 20
117.2875849175781
 30
0.0
 70
    32
  0
VERTEX
  5
1178
  8
0
 10
105.31940953131129
 20
117.3046252216685
 30
0.0
 70
    32
  0
VERTEX
  5
1179
  8
0
 10
105.30948153395271
 20
117.32341320830029
 30
0.0
 70
    32
  0
VERTEX
  5
117A
  8
0
 10
105.29864883628269
 20
117.3439501642205
 30
0.0
 70
    32
  0
VERTEX
  5
117B
  8
0
 10
105.2869167811204
 20
117.3662359173118
 30
0.0
 70
    32
  0
VERTEX
  5
117C
  8
0
 10
105.2742919051108
 20
117.3902689120835
 30
0.0
 70
    32
  0
VERTEX
  5
117D
  8
0
 10
105.2676470407168
 20
117.4029397356845
 30
0.0
 70
    32
  0
VERTEX
  5
117E
  8
0
 10
105.26078199234681
 20
117.41604610046861
 30
0.0
 70
    32
  0
VERTEX
  5
117F
  8
0
 10
105.24639613539409
 20
117.4435628140496
 30
0.0
 70
    32
  0
VERTEX
  5
1180
  8
0
 10
105.23114472881819
 20
117.4728127607614
 30
0.0
 70
    32
  0
VERTEX
  5
1181
  8
0
 10
105.2231980443887
 20
117.4880852900081
 30
0.0
 70
    32
  0
VERTEX
  5
1182
  8
0
 10
105.2150394509046
 20
117.5037880408324
 30
0.0
 70
    32
  0
VERTEX
  5
1183
  8
0
 10
105.19809323823191
 20
117.5364791733144
 30
0.0
 70
    32
  0
VERTEX
  5
1184
  8
0
 10
105.18032025352331
 20
117.5708751326095
 30
0.0
 70
    32
  0
VERTEX
  5
1185
  8
0
 10
105.1711284734433
 20
117.5887085655735
 30
0.0
 70
    32
  0
VERTEX
  5
1186
  8
0
 10
105.1617358472093
 20
117.6069633944325
 30
0.0
 70
    32
  0
VERTEX
  5
1187
  8
0
 10
105.1423565131294
 20
117.64472999068801
 30
0.0
 70
    32
  0
VERTEX
  5
1188
  8
0
 10
105.1221998387981
 20
117.6841595727784
 30
0.0
 70
    32
  0
VERTEX
  5
1189
  8
0
 10
105.10128445065121
 20
117.72523548290511
 30
0.0
 70
    32
  0
VERTEX
  5
118A
  8
0
 10
105.0796299546838
 20
117.7679398329677
 30
0.0
 70
    32
  0
VERTEX
  5
118B
  8
0
 10
105.0572568728799
 20
117.8122535907164
 30
0.0
 70
    32
  0
VERTEX
  5
118C
  8
0
 10
105.04580750156001
 20
117.8350077753399
 30
0.0
 70
    32
  0
VERTEX
  5
118D
  8
0
 10
105.0341856043505
 20
117.85815861030569
 30
0.0
 70
    32
  0
VERTEX
  5
118E
  8
0
 10
105.010433282053
 20
117.9056439366346
 30
0.0
 70
    32
  0
VERTEX
  5
118F
  8
0
 10
104.9860217804106
 20
117.9546898439157
 30
0.0
 70
    32
  0
VERTEX
  5
1190
  8
0
 10
104.960974579834
 20
118.00527395128429
 30
0.0
 70
    32
  0
VERTEX
  5
1191
  8
0
 10
104.93531609311179
 20
118.05737250349139
 30
0.0
 70
    32
  0
VERTEX
  5
1192
  8
0
 10
104.90907161684029
 20
118.1109604082347
 30
0.0
 70
    32
  0
VERTEX
  5
1193
  8
0
 10
104.8957377666482
 20
118.1383046712581
 30
0.0
 70
    32
  0
VERTEX
  5
1194
  8
0
 10
104.8822672790028
 20
118.16601127881221
 30
0.0
 70
    32
  0
VERTEX
  5
1195
  8
0
 10
104.8549299830941
 20
118.22249748161551
 30
0.0
 70
    32
  0
VERTEX
  5
1196
  8
0
 10
104.82708734915521
 20
118.28039018805219
 30
0.0
 70
    32
  0
VERTEX
  5
1197
  8
0
 10
104.7987676520452
 20
118.33965943057061
 30
0.0
 70
    32
  0
VERTEX
  5
1198
  8
0
 10
104.76999975725489
 20
118.4002741625297
 30
0.0
 70
    32
  0
VERTEX
  5
1199
  8
0
 10
104.74081305453041
 20
118.4622023217423
 30
0.0
 70
    32
  0
VERTEX
  5
119A
  8
0
 10
104.7260719610626
 20
118.49364865589079
 30
0.0
 70
    32
  0
VERTEX
  5
119B
  8
0
 10
104.71123738955259
 20
118.5254108975906
 30
0.0
 70
    32
  0
VERTEX
  5
119C
  8
0
 10
104.6813029938902
 20
118.5898660016898
 30
0.0
 70
    32
  0
VERTEX
  5
119D
  8
0
 10
104.6510404324673
 20
118.65553290066271
 30
0.0
 70
    32
  0
VERTEX
  5
119E
  8
0
 10
104.6204806869043
 20
118.7223757492315
 30
0.0
 70
    32
  0
VERTEX
  5
119F
  8
0
 10
104.5896552117642
 20
118.79035736707969
 30
0.0
 70
    32
  0
VERTEX
  5
11A0
  8
0
 10
104.5585958783568
 20
118.859439251742
 30
0.0
 70
    32
  0
VERTEX
  5
11A1
  8
0
 10
104.54298857222039
 20
118.89438040856589
 30
0.0
 70
    32
  0
VERTEX
  5
11A2
  8
0
 10
104.5273349082193
 20
118.929581611301
 30
0.0
 70
    32
  0
VERTEX
  5
11A3
  8
0
 10
104.4959048042644
 20
119.0007434001518
 30
0.0
 70
    32
  0
VERTEX
  5
11A4
  8
0
 10
104.4643382798581
 20
119.0728823577075
 30
0.0
 70
    32
  0
VERTEX
  5
11A5
  8
0
 10
104.43266818605851
 20
119.14595505000921
 30
0.0
 70
    32
  0
VERTEX
  5
11A6
  8
0
 10
104.40092743721981
 20
119.2199169143024
 30
0.0
 70
    32
  0
VERTEX
  5
11A7
  8
0
 10
104.3691489351464
 20
119.2947223067345
 30
0.0
 70
    32
  0
VERTEX
  5
11A8
  8
0
 10
104.35325578607009
 20
119.33242677918091
 30
0.0
 70
    32
  0
VERTEX
  5
11A9
  8
0
 10
104.33736549195579
 20
119.370324553431
 30
0.0
 70
    32
  0
VERTEX
  5
11AA
  8
0
 10
104.3056097517952
 20
119.4466760053014
 30
0.0
 70
    32
  0
VERTEX
  5
11AB
  8
0
 10
104.2739141115411
 20
119.5237280970337
 30
0.0
 70
    32
  0
VERTEX
  5
11AC
  8
0
 10
104.25809717958521
 20
119.56250561649929
 30
0.0
 70
    32
  0
VERTEX
  5
11AD
  8
0
 10
104.242249211073
 20
119.6015833219892
 30
0.0
 70
    32
  0
VERTEX
  5
11AE
  8
0
 10
104.2103928446236
 20
119.68083219755169
 30
0.0
 70
    32
  0
VERTEX
  5
11AF
  8
0
 10
104.1783478390973
 20
119.7615249975225
 30
0.0
 70
    32
  0
VERTEX
  5
11B0
  8
0
 10
104.16226425936919
 20
119.8024073310185
 30
0.0
 70
    32
  0
VERTEX
  5
11B1
  8
0
 10
104.1461452093841
 20
119.8436438577682
 30
0.0
 70
    32
  0
VERTEX
  5
11B2
  8
0
 10
104.113816704624
 20
119.92716979801099
 30
0.0
 70
    32
  0
VERTEX
  5
11B3
  8
0
 10
104.0813947410588
 20
120.0120827904591
 30
0.0
 70
    32
  0
VERTEX
  5
11B4
  8
0
 10
104.04891233403831
 20
120.0983618294799
 30
0.0
 70
    32
  0
VERTEX
  5
11B5
  8
0
 10
104.01640302924829
 20
120.1859850025962
 30
0.0
 70
    32
  0
VERTEX
  5
11B6
  8
0
 10
103.9839008332365
 20
120.2749295631145
 30
0.0
 70
    32
  0
VERTEX
  5
11B7
  8
0
 10
103.96766313685011
 20
120.31989004551249
 30
0.0
 70
    32
  0
VERTEX
  5
11B8
  8
0
 10
103.9514401433331
 20
120.3651720047183
 30
0.0
 70
    32
  0
VERTEX
  5
11B9
  8
0
 10
103.9190556770799
 20
120.456688138389
 30
0.0
 70
    32
  0
VERTEX
  5
11BA
  8
0
 10
103.8867824013067
 20
120.5494531720333
 30
0.0
 70
    32
  0
VERTEX
  5
11BB
  8
0
 10
103.8546554610201
 20
120.6434417932236
 30
0.0
 70
    32
  0
VERTEX
  5
11BC
  8
0
 10
103.8227101083025
 20
120.7386282554608
 30
0.0
 70
    32
  0
VERTEX
  5
11BD
  8
0
 10
103.7909816478673
 20
120.8349864180428
 30
0.0
 70
    32
  0
VERTEX
  5
11BE
  8
0
 10
103.7752098146379
 20
120.8835965311735
 30
0.0
 70
    32
  0
VERTEX
  5
11BF
  8
0
 10
103.7595055000774
 20
120.9324894181792
 30
0.0
 70
    32
  0
VERTEX
  5
11C0
  8
0
 10
103.7283172313611
 20
121.0311094006784
 30
0.0
 70
    32
  0
VERTEX
  5
11C1
  8
0
 10
103.697452480172
 20
121.1308175461417
 30
0.0
 70
    32
  0
VERTEX
  5
11C2
  8
0
 10
103.6669468744218
 20
121.2315841230247
 30
0.0
 70
    32
  0
VERTEX
  5
11C3
  8
0
 10
103.6368359478642
 20
121.3333785424213
 30
0.0
 70
    32
  0
VERTEX
  5
11C4
  8
0
 10
103.60715505559151
 20
121.4361694162006
 30
0.0
 70
    32
  0
VERTEX
  5
11C5
  8
0
 10
103.5924868509716
 20
121.48792851135821
 30
0.0
 70
    32
  0
VERTEX
  5
11C6
  8
0
 10
103.5779392888475
 20
121.53992461916729
 30
0.0
 70
    32
  0
VERTEX
  5
11C7
  8
0
 10
103.5492233894135
 20
121.64461135595739
 30
0.0
 70
    32
  0
VERTEX
  5
11C8
  8
0
 10
103.52104166387529
 20
121.75019623341019
 30
0.0
 70
    32
  0
VERTEX
  5
11C9
  8
0
 10
103.4934278981484
 20
121.85664533918469
 30
0.0
 70
    32
  0
VERTEX
  5
11CA
  8
0
 10
103.46641527269669
 20
121.96392432740041
 30
0.0
 70
    32
  0
VERTEX
  5
11CB
  8
0
 10
103.44003627895449
 20
122.0719985120905
 30
0.0
 70
    32
  0
VERTEX
  5
11CC
  8
0
 10
103.42709433056029
 20
122.126322931256
 30
0.0
 70
    32
  0
VERTEX
  5
11CD
  8
0
 10
103.414321627902
 20
122.18083731502171
 30
0.0
 70
    32
  0
VERTEX
  5
11CE
  8
0
 10
103.3892975483754
 20
122.29042683718539
 30
0.0
 70
    32
  0
VERTEX
  5
11CF
  8
0
 10
103.36499430213949
 20
122.4007334124251
 30
0.0
 70
    32
  0
VERTEX
  5
11D0
  8
0
 10
103.3414420895092
 20
122.5117192857289
 30
0.0
 70
    32
  0
VERTEX
  5
11D1
  8
0
 10
103.3186702372185
 20
122.62334561494561
 30
0.0
 70
    32
  0
VERTEX
  5
11D2
  8
0
 10
103.2967070904853
 20
122.7355725550667
 30
0.0
 70
    32
  0
VERTEX
  5
11D3
  8
0
 10
103.2860373451114
 20
122.7918985513011
 30
0.0
 70
    32
  0
VERTEX
  5
11D4
  8
0
 10
103.2755799072373
 20
122.84835935199391
 30
0.0
 70
    32
  0
VERTEX
  5
11D5
  8
0
 10
103.25531475538121
 20
122.96166444655501
 30
0.0
 70
    32
  0
VERTEX
  5
11D6
  8
0
 10
103.23593641407059
 20
123.0754455895008
 30
0.0
 70
    32
  0
VERTEX
  5
11D7
  8
0
 10
103.2265871652797
 20
123.13250131845631
 30
0.0
 70
    32
  0
VERTEX
  5
11D8
  8
0
 10
103.21746827999409
 20
123.189659968169
 30
0.0
 70
    32
  0
VERTEX
  5
11D9
  8
0
 10
103.1999322797699
 20
123.3042643454352
 30
0.0
 70
    32
  0
VERTEX
  5
11DA
  8
0
 10
103.1833487895762
 20
123.4192152114847
 30
0.0
 70
    32
  0
VERTEX
  5
11DB
  8
0
 10
103.1754201614484
 20
123.4768069467551
 30
0.0
 70
    32
  0
VERTEX
  5
11DC
  8
0
 10
103.16773656319501
 20
123.5344689488298
 30
0.0
 70
    32
  0
VERTEX
  5
11DD
  8
0
 10
103.1531126696616
 20
123.64998201087219
 30
0.0
 70
    32
  0
VERTEX
  5
11DE
  8
0
 10
103.1394924450608
 20
123.7657110847213
 30
0.0
 70
    32
  0
VERTEX
  5
11DF
  8
0
 10
103.1268895326711
 20
123.8816125201481
 30
0.0
 70
    32
  0
VERTEX
  5
11E0
  8
0
 10
103.1153159260431
 20
123.997641438299
 30
0.0
 70
    32
  0
VERTEX
  5
11E1
  8
0
 10
103.1047818868004
 20
124.1137517693065
 30
0.0
 70
    32
  0
VERTEX
  5
11E2
  8
0
 10
103.0999074162968
 20
124.1718227848955
 30
0.0
 70
    32
  0
VERTEX
  5
11E3
  8
0
 10
103.0952958569204
 20
124.2298964267481
 30
0.0
 70
    32
  0
VERTEX
  5
11E4
  8
0
 10
103.0868643833266
 20
124.3460274901587
 30
0.0
 70
    32
  0
VERTEX
  5
11E5
  8
0
 10
103.0794920557243
 20
124.4620963949929
 30
0.0
 70
    32
  0
VERTEX
  5
11E6
  8
0
 10
103.0731814585012
 20
124.5780541293949
 30
0.0
 70
    32
  0
VERTEX
  5
11E7
  8
0
 10
103.067933137388
 20
124.69385143711339
 30
0.0
 70
    32
  0
VERTEX
  5
11E8
  8
0
 10
103.0637455814459
 20
124.8094390258741
 30
0.0
 70
    32
  0
VERTEX
  5
11E9
  8
0
 10
103.0620485549905
 20
124.8671388143232
 30
0.0
 70
    32
  0
VERTEX
  5
11EA
  8
0
 10
103.06061522080461
 20
124.9247677805091
 30
0.0
 70
    32
  0
VERTEX
  5
11EB
  8
0
 10
103.0585364404303
 20
125.0397889801356
 30
0.0
 70
    32
  0
VERTEX
  5
11EC
  8
0
 10
103.0575016100553
 20
125.15445451867851
 30
0.0
 70
    32
  0
VERTEX
  5
11ED
  8
0
 10
103.0573727516279
 20
125.2116391048841
 30
0.0
 70
    32
  0
SEQEND
  5
11EE
  8
0
  0
LINE
  5
11EF
  8
0
 10
146.4687952111783
 20
115.61163910488411
 30
0.0
 11
146.4687952111783
 21
134.81163910488419
 31
0.0
  0
LINE
  5
11F2
  8
0
 10
160.36879521117839
 20
115.61163910488411
 30
0.0
 11
160.36879521117839
 21
134.81163910488419
 31
0.0
  0
POLYLINE
  5
11F3
  8
0
 66
     1
 10
0.0
 20
0.0
 30
0.0
 70
     8
  0
VERTEX
  5
11F4
  8
0
 10
77.680217670728894
 20
125.2116391048841
 30
0.0
 70
    32
  0
VERTEX
  5
11F5
  8
0
 10
77.680088812301506
 20
125.15445451867851
 30
0.0
 70
    32
  0
VERTEX
  5
11F6
  8
0
 10
77.679053981926472
 20
125.0397889801356
 30
0.0
 70
    32
  0
VERTEX
  5
11F7
  8
0
 10
77.676975201552182
 20
124.9247677805091
 30
0.0
 70
    32
  0
VERTEX
  5
11F8
  8
0
 10
77.675541867366292
 20
124.8671388143232
 30
0.0
 70
    32
  0
VERTEX
  5
11F9
  8
0
 10
77.673844840910874
 20
124.8094390258741
 30
0.0
 70
    32
  0
VERTEX
  5
11FA
  8
0
 10
77.669657284968764
 20
124.69385143711339
 30
0.0
 70
    32
  0
VERTEX
  5
11FB
  8
0
 10
77.664408963855578
 20
124.5780541293949
 30
0.0
 70
    32
  0
VERTEX
  5
11FC
  8
0
 10
77.65809836663243
 20
124.4620963949929
 30
0.0
 70
    32
  0
VERTEX
  5
11FD
  8
0
 10
77.650726039030133
 20
124.3460274901587
 30
0.0
 70
    32
  0
VERTEX
  5
11FE
  8
0
 10
77.642294565436316
 20
124.2298964267481
 30
0.0
 70
    32
  0
VERTEX
  5
11FF
  8
0
 10
77.637683006060001
 20
124.1718227848955
 30
0.0
 70
    32
  0
VERTEX
  5
1200
  8
0
 10
77.632808535556364
 20
124.1137517693065
 30
0.0
 70
    32
  0
VERTEX
  5
1201
  8
0
 10
77.622274496313707
 20
123.997641438299
 30
0.0
 70
    32
  0
VERTEX
  5
1202
  8
0
 10
77.610700889685688
 20
123.8816125201481
 30
0.0
 70
    32
  0
VERTEX
  5
1203
  8
0
 10
77.598097977295993
 20
123.7657110847213
 30
0.0
 70
    32
  0
VERTEX
  5
1204
  8
0
 10
77.584477752695193
 20
123.64998201087219
 30
0.0
 70
    32
  0
VERTEX
  5
1205
  8
0
 10
77.56985385916181
 20
123.5344689488298
 30
0.0
 70
    32
  0
VERTEX
  5
1206
  8
0
 10
77.562170260908374
 20
123.4768069467551
 30
0.0
 70
    32
  0
VERTEX
  5
1207
  8
0
 10
77.554241632780531
 20
123.4192152114847
 30
0.0
 70
    32
  0
VERTEX
  5
1208
  8
0
 10
77.537658142586906
 20
123.3042643454352
 30
0.0
 70
    32
  0
VERTEX
  5
1209
  8
0
 10
77.520122142362652
 20
123.189659968169
 30
0.0
 70
    32
  0
VERTEX
  5
120A
  8
0
 10
77.511003257077107
 20
123.13250131845631
 30
0.0
 70
    32
  0
VERTEX
  5
120B
  8
0
 10
77.501654008286195
 20
123.0754455895008
 30
0.0
 70
    32
  0
VERTEX
  5
120C
  8
0
 10
77.482275666975511
 20
122.96166444655501
 30
0.0
 70
    32
  0
VERTEX
  5
120D
  8
0
 10
77.462010515119445
 20
122.84835935199381
 30
0.0
 70
    32
  0
VERTEX
  5
120E
  8
0
 10
77.451553077245364
 20
122.7918985513011
 30
0.0
 70
    32
  0
VERTEX
  5
120F
  8
0
 10
77.440883331871476
 20
122.7355725550667
 30
0.0
 70
    32
  0
VERTEX
  5
1210
  8
0
 10
77.418920185138234
 20
122.62334561494561
 30
0.0
 70
    32
  0
VERTEX
  5
1211
  8
0
 10
77.396148332847531
 20
122.5117192857289
 30
0.0
 70
    32
  0
VERTEX
  5
1212
  8
0
 10
77.372596120217281
 20
122.4007334124251
 30
0.0
 70
    32
  0
VERTEX
  5
1213
  8
0
 10
77.348292873981336
 20
122.29042683718539
 30
0.0
 70
    32
  0
VERTEX
  5
1214
  8
0
 10
77.323268794454748
 20
122.18083731502161
 30
0.0
 70
    32
  0
VERTEX
  5
1215
  8
0
 10
77.310496091796438
 20
122.126322931256
 30
0.0
 70
    32
  0
VERTEX
  5
1216
  8
0
 10
77.297554143402238
 20
122.0719985120905
 30
0.0
 70
    32
  0
VERTEX
  5
1217
  8
0
 10
77.271175149660095
 20
121.96392432740041
 30
0.0
 70
    32
  0
VERTEX
  5
1218
  8
0
 10
77.244162524208363
 20
121.85664533918469
 30
0.0
 70
    32
  0
VERTEX
  5
1219
  8
0
 10
77.216548758481508
 20
121.75019623341031
 30
0.0
 70
    32
  0
VERTEX
  5
121A
  8
0
 10
77.18836703294329
 20
121.64461135595739
 30
0.0
 70
    32
  0
VERTEX
  5
121B
  8
0
 10
77.159651133509215
 20
121.53992461916729
 30
0.0
 70
    32
  0
VERTEX
  5
121C
  8
0
 10
77.145103571385164
 20
121.48792851135821
 30
0.0
 70
    32
  0
VERTEX
  5
121D
  8
0
 10
77.130435366765312
 20
121.4361694162006
 30
0.0
 70
    32
  0
VERTEX
  5
121E
  8
0
 10
77.100754474492589
 20
121.3333785424213
 30
0.0
 70
    32
  0
VERTEX
  5
121F
  8
0
 10
77.070643547934935
 20
121.2315841230247
 30
0.0
 70
    32
  0
VERTEX
  5
1220
  8
0
 10
77.040137942184742
 20
121.1308175461417
 30
0.0
 70
    32
  0
VERTEX
  5
1221
  8
0
 10
77.009273190995657
 20
121.0311094006784
 30
0.0
 70
    32
  0
VERTEX
  5
1222
  8
0
 10
76.978084922279322
 20
120.9324894181792
 30
0.0
 70
    32
  0
VERTEX
  5
1223
  8
0
 10
76.962380607718885
 20
120.8835965311735
 30
0.0
 70
    32
  0
VERTEX
  5
1224
  8
0
 10
76.946608774489448
 20
120.8349864180428
 30
0.0
 70
    32
  0
VERTEX
  5
1225
  8
0
 10
76.914880314054244
 20
120.7386282554608
 30
0.0
 70
    32
  0
VERTEX
  5
1226
  8
0
 10
76.882934961336616
 20
120.6434417932236
 30
0.0
 70
    32
  0
VERTEX
  5
1227
  8
0
 10
76.850808021050113
 20
120.5494531720333
 30
0.0
 70
    32
  0
VERTEX
  5
1228
  8
0
 10
76.818534745276907
 20
120.456688138389
 30
0.0
 70
    32
  0
VERTEX
  5
1229
  8
0
 10
76.786150279023616
 20
120.3651720047183
 30
0.0
 70
    32
  0
VERTEX
  5
122A
  8
0
 10
76.769927285506697
 20
120.31989004551249
 30
0.0
 70
    32
  0
VERTEX
  5
122B
  8
0
 10
76.753689589120256
 20
120.2749295631145
 30
0.0
 70
    32
  0
VERTEX
  5
122C
  8
0
 10
76.721187393108437
 20
120.1859850025962
 30
0.0
 70
    32
  0
VERTEX
  5
122D
  8
0
 10
76.688678088318454
 20
120.0983618294799
 30
0.0
 70
    32
  0
VERTEX
  5
122E
  8
0
 10
76.656195681297959
 20
120.0120827904591
 30
0.0
 70
    32
  0
VERTEX
  5
122F
  8
0
 10
76.623773717732661
 20
119.92716979801099
 30
0.0
 70
    32
  0
VERTEX
  5
1230
  8
0
 10
76.591445212972644
 20
119.8436438577682
 30
0.0
 70
    32
  0
VERTEX
  5
1231
  8
0
 10
76.575326162987608
 20
119.8024073310185
 30
0.0
 70
    32
  0
VERTEX
  5
1232
  8
0
 10
76.559242583259447
 20
119.7615249975225
 30
0.0
 70
    32
  0
VERTEX
  5
1233
  8
0
 10
76.527197577733205
 20
119.68083219755169
 30
0.0
 70
    32
  0
VERTEX
  5
1234
  8
0
 10
76.495341211283744
 20
119.6015833219892
 30
0.0
 70
    32
  0
VERTEX
  5
1235
  8
0
 10
76.479493242771525
 20
119.56250561649929
 30
0.0
 70
    32
  0
VERTEX
  5
1236
  8
0
 10
76.463676310815629
 20
119.5237280970337
 30
0.0
 70
    32
  0
VERTEX
  5
1237
  8
0
 10
76.431980670561529
 20
119.4466760053014
 30
0.0
 70
    32
  0
VERTEX
  5
1238
  8
0
 10
76.400224930400952
 20
119.370324553431
 30
0.0
 70
    32
  0
VERTEX
  5
1239
  8
0
 10
76.384334636286667
 20
119.33242677918091
 30
0.0
 70
    32
  0
VERTEX
  5
123A
  8
0
 10
76.368441487210362
 20
119.2947223067345
 30
0.0
 70
    32
  0
VERTEX
  5
123B
  8
0
 10
76.336662985136968
 20
119.2199169143024
 30
0.0
 70
    32
  0
VERTEX
  5
123C
  8
0
 10
76.304922236298239
 20
119.14595505000921
 30
0.0
 70
    32
  0
VERTEX
  5
123D
  8
0
 10
76.27325214249862
 20
119.0728823577074
 30
0.0
 70
    32
  0
VERTEX
  5
123E
  8
0
 10
76.24168561809239
 20
119.0007434001518
 30
0.0
 70
    32
  0
VERTEX
  5
123F
  8
0
 10
76.210255514137486
 20
118.929581611301
 30
0.0
 70
    32
  0
VERTEX
  5
1240
  8
0
 10
76.194601850136337
 20
118.89438040856589
 30
0.0
 70
    32
  0
VERTEX
  5
1241
  8
0
 10
76.17899454399992
 20
118.859439251742
 30
0.0
 70
    32
  0
VERTEX
  5
1242
  8
0
 10
76.147935210592536
 20
118.79035736707959
 30
0.0
 70
    32
  0
VERTEX
  5
1243
  8
0
 10
76.117109735452516
 20
118.7223757492315
 30
0.0
 70
    32
  0
VERTEX
  5
1244
  8
0
 10
76.08654998988942
 20
118.65553290066271
 30
0.0
 70
    32
  0
VERTEX
  5
1245
  8
0
 10
76.056287428466533
 20
118.5898660016898
 30
0.0
 70
    32
  0
VERTEX
  5
1246
  8
0
 10
76.026353032804138
 20
118.5254108975906
 30
0.0
 70
    32
  0
VERTEX
  5
1247
  8
0
 10
76.011518461294145
 20
118.49364865589079
 30
0.0
 70
    32
  0
VERTEX
  5
1248
  8
0
 10
75.996777367826382
 20
118.4622023217423
 30
0.0
 70
    32
  0
VERTEX
  5
1249
  8
0
 10
75.967590665101852
 20
118.4002741625297
 30
0.0
 70
    32
  0
VERTEX
  5
124A
  8
0
 10
75.938822770311504
 20
118.33965943057061
 30
0.0
 70
    32
  0
VERTEX
  5
124B
  8
0
 10
75.910503073201539
 20
118.28039018805219
 30
0.0
 70
    32
  0
VERTEX
  5
124C
  8
0
 10
75.882660439262622
 20
118.22249748161551
 30
0.0
 70
    32
  0
VERTEX
  5
124D
  8
0
 10
75.855323143353985
 20
118.16601127881221
 30
0.0
 70
    32
  0
VERTEX
  5
124E
  8
0
 10
75.841852655708578
 20
118.1383046712581
 30
0.0
 70
    32
  0
VERTEX
  5
124F
  8
0
 10
75.82851880551641
 20
118.1109604082347
 30
0.0
 70
    32
  0
VERTEX
  5
1250
  8
0
 10
75.802274329244938
 20
118.05737250349139
 30
0.0
 70
    32
  0
VERTEX
  5
1251
  8
0
 10
75.776615842522801
 20
118.00527395128429
 30
0.0
 70
    32
  0
VERTEX
  5
1252
  8
0
 10
75.751568641946093
 20
117.9546898439157
 30
0.0
 70
    32
  0
VERTEX
  5
1253
  8
0
 10
75.727157140303802
 20
117.9056439366346
 30
0.0
 70
    32
  0
VERTEX
  5
1254
  8
0
 10
75.70340481800622
 20
117.85815861030569
 30
0.0
 70
    32
  0
VERTEX
  5
1255
  8
0
 10
75.691782920796811
 20
117.8350077753399
 30
0.0
 70
    32
  0
VERTEX
  5
1256
  8
0
 10
75.68033354947687
 20
117.8122535907164
 30
0.0
 70
    32
  0
VERTEX
  5
1257
  8
0
 10
75.657960467672865
 20
117.7679398329677
 30
0.0
 70
    32
  0
VERTEX
  5
1258
  8
0
 10
75.63630597170561
 20
117.72523548290511
 30
0.0
 70
    32
  0
VERTEX
  5
1259
  8
0
 10
75.615390583558678
 20
117.6841595727784
 30
0.0
 70
    32
  0
VERTEX
  5
125A
  8
0
 10
75.595233909227375
 20
117.64472999068801
 30
0.0
 70
    32
  0
VERTEX
  5
125B
  8
0
 10
75.575854575147503
 20
117.6069633944325
 30
0.0
 70
    32
  0
VERTEX
  5
125C
  8
0
 10
75.566461948913457
 20
117.5887085655735
 30
0.0
 70
    32
  0
VERTEX
  5
125D
  8
0
 10
75.557270168833483
 20
117.5708751326095
 30
0.0
 70
    32
  0
VERTEX
  5
125E
  8
0
 10
75.539497184124912
 20
117.5364791733144
 30
0.0
 70
    32
  0
VERTEX
  5
125F
  8
0
 10
75.522550971452176
 20
117.5037880408324
 30
0.0
 70
    32
  0
VERTEX
  5
1260
  8
0
 10
75.514392377968079
 20
117.4880852900081
 30
0.0
 70
    32
  0
VERTEX
  5
1261
  8
0
 10
75.506445693538581
 20
117.4728127607614
 30
0.0
 70
    32
  0
VERTEX
  5
1262
  8
0
 10
75.491194286962582
 20
117.4435628140496
 30
0.0
 70
    32
  0
VERTEX
  5
1263
  8
0
 10
75.47680843001001
 20
117.41604610046861
 30
0.0
 70
    32
  0
VERTEX
  5
1264
  8
0
 10
75.469943381640007
 20
117.4029397356845
 30
0.0
 70
    32
  0
VERTEX
  5
1265
  8
0
 10
75.46329851724596
 20
117.3902689120835
 30
0.0
 70
    32
  0
VERTEX
  5
1266
  8
0
 10
75.450673641236335
 20
117.3662359173118
 30
0.0
 70
    32
  0
VERTEX
  5
1267
  8
0
 10
75.438941586073994
 20
117.3439501642205
 30
0.0
 70
    32
  0
VERTEX
  5
1268
  8
0
 10
75.428108888404097
 20
117.32341320830029
 30
0.0
 70
    32
  0
VERTEX
  5
1269
  8
0
 10
75.418180891045438
 20
117.3046252216685
 30
0.0
 70
    32
  0
VERTEX
  5
126A
  8
0
 10
75.409161700849211
 20
117.2875849175781
 30
0.0
 70
    32
  0
VERTEX
  5
126B
  8
0
 10
75.404993842095166
 20
117.27971932381109
 30
0.0
 70
    32
  0
VERTEX
  5
126C
  8
0
 10
75.401054141509803
 20
117.2722894634686
 30
0.0
 70
    32
  0
VERTEX
  5
126D
  8
0
 10
75.393859714230757
 20
117.2587344067413
 30
0.0
 70
    32
  0
VERTEX
  5
126E
  8
0
 10
75.387578566479988
 20
117.2469136133566
 30
0.0
 70
    32
  0
VERTEX
  5
126F
  8
0
 10
75.382209469024872
 20
117.23681921933689
 30
0.0
 70
    32
  0
VERTEX
  5
1270
  8
0
 10
75.377749801407276
 20
117.2284415952506
 30
0.0
 70
    32
  0
VERTEX
  5
1271
  8
0
 10
75.374195545978409
 20
117.2217693237416
 30
0.0
 70
    32
  0
VERTEX
  5
1272
  8
0
 10
75.372756310758007
 20
117.2190686358222
 30
0.0
 70
    32
  0
VERTEX
  5
1273
  8
0
 10
75.371541290586094
 20
117.21678919017521
 30
0.0
 70
    32
  0
VERTEX
  5
1274
  8
0
 10
75.369780239974304
 20
117.2134861864658
 30
0.0
 70
    32
  0
VERTEX
  5
1275
  8
0
 10
75.368904235929961
 20
117.21184352816221
 30
0.0
 70
    32
  0
VERTEX
  5
1276
  8
0
 10
75.368795211178394
 20
117.2116391048841
 30
0.0
 70
    32
  0
SEQEND
  5
1277
  8
0
  0
POLYLINE
  5
1278
  8
0
 66
     1
 10
0.0
 20
0.0
 30
0.0
 70
     8
  0
VERTEX
  5
1279
  8
0
 10
75.368795211178394
 20
133.2116391048842
 30
0.0
 70
    32
  0
VERTEX
  5
127A
  8
0
 10
75.368904235929961
 20
133.21143468160611
 30
0.0
 70
    32
  0
VERTEX
  5
127B
  8
0
 10
75.369780239974304
 20
133.20979202330241
 30
0.0
 70
    32
  0
VERTEX
  5
127C
  8
0
 10
75.371541290586094
 20
133.20648901959311
 30
0.0
 70
    32
  0
VERTEX
  5
127D
  8
0
 10
75.372756310758007
 20
133.20420957394609
 30
0.0
 70
    32
  0
VERTEX
  5
127E
  8
0
 10
75.374195545978409
 20
133.20150888602669
 30
0.0
 70
    32
  0
VERTEX
  5
127F
  8
0
 10
75.377749801407276
 20
133.1948366145177
 30
0.0
 70
    32
  0
VERTEX
  5
1280
  8
0
 10
75.382209469024872
 20
133.1864589904313
 30
0.0
 70
    32
  0
VERTEX
  5
1281
  8
0
 10
75.387578566479988
 20
133.1763645964117
 30
0.0
 70
    32
  0
VERTEX
  5
1282
  8
0
 10
75.393859714230757
 20
133.1645438030269
 30
0.0
 70
    32
  0
VERTEX
  5
1283
  8
0
 10
75.401054141509803
 20
133.15098874629959
 30
0.0
 70
    32
  0
VERTEX
  5
1284
  8
0
 10
75.404993842095166
 20
133.14355888595719
 30
0.0
 70
    32
  0
VERTEX
  5
1285
  8
0
 10
75.409161700849211
 20
133.13569329219021
 30
0.0
 70
    32
  0
VERTEX
  5
1286
  8
0
 10
75.418180891045438
 20
133.1186529880998
 30
0.0
 70
    32
  0
VERTEX
  5
1287
  8
0
 10
75.428108888404097
 20
133.09986500146789
 30
0.0
 70
    32
  0
VERTEX
  5
1288
  8
0
 10
75.438941586073994
 20
133.07932804554781
 30
0.0
 70
    32
  0
VERTEX
  5
1289
  8
0
 10
75.450673641236335
 20
133.0570422924564
 30
0.0
 70
    32
  0
VERTEX
  5
128A
  8
0
 10
75.46329851724596
 20
133.03300929768491
 30
0.0
 70
    32
  0
VERTEX
  5
128B
  8
0
 10
75.469943381640007
 20
133.02033847408379
 30
0.0
 70
    32
  0
VERTEX
  5
128C
  8
0
 10
75.47680843001001
 20
133.00723210929971
 30
0.0
 70
    32
  0
VERTEX
  5
128D
  8
0
 10
75.491194286962582
 20
132.9797153957187
 30
0.0
 70
    32
  0
VERTEX
  5
128E
  8
0
 10
75.506445693538581
 20
132.95046544900691
 30
0.0
 70
    32
  0
VERTEX
  5
128F
  8
0
 10
75.514392377968079
 20
132.9351929197602
 30
0.0
 70
    32
  0
VERTEX
  5
1290
  8
0
 10
75.522550971452176
 20
132.91949016893591
 30
0.0
 70
    32
  0
VERTEX
  5
1291
  8
0
 10
75.539497184124912
 20
132.88679903645379
 30
0.0
 70
    32
  0
VERTEX
  5
1292
  8
0
 10
75.557270168833483
 20
132.85240307715881
 30
0.0
 70
    32
  0
VERTEX
  5
1293
  8
0
 10
75.566461948913457
 20
132.8345696441948
 30
0.0
 70
    32
  0
VERTEX
  5
1294
  8
0
 10
75.575854575147503
 20
132.8163148153358
 30
0.0
 70
    32
  0
VERTEX
  5
1295
  8
0
 10
75.595233909227375
 20
132.77854821908031
 30
0.0
 70
    32
  0
VERTEX
  5
1296
  8
0
 10
75.615390583558678
 20
132.7391186369899
 30
0.0
 70
    32
  0
VERTEX
  5
1297
  8
0
 10
75.63630597170561
 20
132.69804272686321
 30
0.0
 70
    32
  0
VERTEX
  5
1298
  8
0
 10
75.657960467672865
 20
132.65533837680059
 30
0.0
 70
    32
  0
VERTEX
  5
1299
  8
0
 10
75.68033354947687
 20
132.6110246190519
 30
0.0
 70
    32
  0
VERTEX
  5
129A
  8
0
 10
75.691782920796811
 20
132.5882704344283
 30
0.0
 70
    32
  0
VERTEX
  5
129B
  8
0
 10
75.70340481800622
 20
132.56511959946261
 30
0.0
 70
    32
  0
VERTEX
  5
129C
  8
0
 10
75.727157140303802
 20
132.51763427313369
 30
0.0
 70
    32
  0
VERTEX
  5
129D
  8
0
 10
75.751568641946093
 20
132.46858836585261
 30
0.0
 70
    32
  0
VERTEX
  5
129E
  8
0
 10
75.776615842522801
 20
132.41800425848399
 30
0.0
 70
    32
  0
VERTEX
  5
129F
  8
0
 10
75.802274329244938
 20
132.36590570627689
 30
0.0
 70
    32
  0
VERTEX
  5
12A0
  8
0
 10
75.82851880551641
 20
132.3123178015336
 30
0.0
 70
    32
  0
VERTEX
  5
12A1
  8
0
 10
75.841852655708578
 20
132.2849735385102
 30
0.0
 70
    32
  0
VERTEX
  5
12A2
  8
0
 10
75.855323143353985
 20
132.25726693095601
 30
0.0
 70
    32
  0
VERTEX
  5
12A3
  8
0
 10
75.882660439262622
 20
132.20078072815281
 30
0.0
 70
    32
  0
VERTEX
  5
12A4
  8
0
 10
75.910503073201539
 20
132.14288802171609
 30
0.0
 70
    32
  0
VERTEX
  5
12A5
  8
0
 10
75.938822770311504
 20
132.08361877919771
 30
0.0
 70
    32
  0
VERTEX
  5
12A6
  8
0
 10
75.967590665101852
 20
132.0230040472386
 30
0.0
 70
    32
  0
VERTEX
  5
12A7
  8
0
 10
75.996777367826382
 20
131.9610758880261
 30
0.0
 70
    32
  0
VERTEX
  5
12A8
  8
0
 10
76.011518461294145
 20
131.9296295538775
 30
0.0
 70
    32
  0
VERTEX
  5
12A9
  8
0
 10
76.026353032804138
 20
131.89786731217771
 30
0.0
 70
    32
  0
VERTEX
  5
12AA
  8
0
 10
76.056287428466533
 20
131.83341220807841
 30
0.0
 70
    32
  0
VERTEX
  5
12AB
  8
0
 10
76.086549989889477
 20
131.76774530910561
 30
0.0
 70
    32
  0
VERTEX
  5
12AC
  8
0
 10
76.117109735452516
 20
131.70090246053681
 30
0.0
 70
    32
  0
VERTEX
  5
12AD
  8
0
 10
76.147935210592536
 20
131.63292084268869
 30
0.0
 70
    32
  0
VERTEX
  5
12AE
  8
0
 10
76.17899454399992
 20
131.56383895802631
 30
0.0
 70
    32
  0
VERTEX
  5
12AF
  8
0
 10
76.194601850136337
 20
131.52889780120239
 30
0.0
 70
    32
  0
VERTEX
  5
12B0
  8
0
 10
76.210255514137486
 20
131.49369659846721
 30
0.0
 70
    32
  0
VERTEX
  5
12B1
  8
0
 10
76.24168561809239
 20
131.42253480961639
 30
0.0
 70
    32
  0
VERTEX
  5
12B2
  8
0
 10
76.27325214249862
 20
131.35039585206081
 30
0.0
 70
    32
  0
VERTEX
  5
12B3
  8
0
 10
76.304922236298239
 20
131.27732315975911
 30
0.0
 70
    32
  0
VERTEX
  5
12B4
  8
0
 10
76.336662985136968
 20
131.2033612954659
 30
0.0
 70
    32
  0
VERTEX
  5
12B5
  8
0
 10
76.368441487210362
 20
131.1285559030338
 30
0.0
 70
    32
  0
VERTEX
  5
12B6
  8
0
 10
76.384334636286667
 20
131.09085143058741
 30
0.0
 70
    32
  0
VERTEX
  5
12B7
  8
0
 10
76.400224930400952
 20
131.05295365633731
 30
0.0
 70
    32
  0
VERTEX
  5
12B8
  8
0
 10
76.431980670561529
 20
130.97660220446679
 30
0.0
 70
    32
  0
VERTEX
  5
12B9
  8
0
 10
76.463676310815629
 20
130.89955011273449
 30
0.0
 70
    32
  0
VERTEX
  5
12BA
  8
0
 10
76.479493242771525
 20
130.8607725932689
 30
0.0
 70
    32
  0
VERTEX
  5
12BB
  8
0
 10
76.495341211283744
 20
130.8216948877791
 30
0.0
 70
    32
  0
VERTEX
  5
12BC
  8
0
 10
76.527197577733205
 20
130.74244601221659
 30
0.0
 70
    32
  0
VERTEX
  5
12BD
  8
0
 10
76.559242583259447
 20
130.6617532122458
 30
0.0
 70
    32
  0
VERTEX
  5
12BE
  8
0
 10
76.575326162987608
 20
130.6208708787498
 30
0.0
 70
    32
  0
VERTEX
  5
12BF
  8
0
 10
76.591445212972644
 20
130.57963435200011
 30
0.0
 70
    32
  0
VERTEX
  5
12C0
  8
0
 10
76.623773717732661
 20
130.49610841175729
 30
0.0
 70
    32
  0
VERTEX
  5
12C1
  8
0
 10
76.656195681297959
 20
130.41119541930919
 30
0.0
 70
    32
  0
VERTEX
  5
12C2
  8
0
 10
76.688678088318454
 20
130.32491638028841
 30
0.0
 70
    32
  0
VERTEX
  5
12C3
  8
0
 10
76.721187393108437
 20
130.23729320717209
 30
0.0
 70
    32
  0
VERTEX
  5
12C4
  8
0
 10
76.753689589120256
 20
130.1483486466538
 30
0.0
 70
    32
  0
VERTEX
  5
12C5
  8
0
 10
76.76992728550664
 20
130.10338816425579
 30
0.0
 70
    32
  0
VERTEX
  5
12C6
  8
0
 10
76.786150279023616
 20
130.05810620504991
 30
0.0
 70
    32
  0
VERTEX
  5
12C7
  8
0
 10
76.818534745276907
 20
129.9665900713793
 30
0.0
 70
    32
  0
VERTEX
  5
12C8
  8
0
 10
76.850808021050113
 20
129.87382503773489
 30
0.0
 70
    32
  0
VERTEX
  5
12C9
  8
0
 10
76.882934961336616
 20
129.7798364165447
 30
0.0
 70
    32
  0
VERTEX
  5
12CA
  8
0
 10
76.914880314054244
 20
129.6846499543075
 30
0.0
 70
    32
  0
VERTEX
  5
12CB
  8
0
 10
76.946608774489448
 20
129.58829179172551
 30
0.0
 70
    32
  0
VERTEX
  5
12CC
  8
0
 10
76.962380607718885
 20
129.53968167859489
 30
0.0
 70
    32
  0
VERTEX
  5
12CD
  8
0
 10
76.978084922279322
 20
129.4907887915891
 30
0.0
 70
    32
  0
VERTEX
  5
12CE
  8
0
 10
77.009273190995657
 20
129.3921688090899
 30
0.0
 70
    32
  0
VERTEX
  5
12CF
  8
0
 10
77.040137942184742
 20
129.2924606636266
 30
0.0
 70
    32
  0
VERTEX
  5
12D0
  8
0
 10
77.070643547934935
 20
129.19169408674361
 30
0.0
 70
    32
  0
VERTEX
  5
12D1
  8
0
 10
77.100754474492589
 20
129.089899667347
 30
0.0
 70
    32
  0
VERTEX
  5
12D2
  8
0
 10
77.130435366765312
 20
128.9871087935677
 30
0.0
 70
    32
  0
VERTEX
  5
12D3
  8
0
 10
77.145103571385164
 20
128.93534969841011
 30
0.0
 70
    32
  0
VERTEX
  5
12D4
  8
0
 10
77.159651133509215
 20
128.88335359060099
 30
0.0
 70
    32
  0
VERTEX
  5
12D5
  8
0
 10
77.18836703294329
 20
128.7786668538109
 30
0.0
 70
    32
  0
VERTEX
  5
12D6
  8
0
 10
77.216548758481508
 20
128.67308197635799
 30
0.0
 70
    32
  0
VERTEX
  5
12D7
  8
0
 10
77.244162524208363
 20
128.56663287058359
 30
0.0
 70
    32
  0
VERTEX
  5
12D8
  8
0
 10
77.271175149660095
 20
128.45935388236791
 30
0.0
 70
    32
  0
VERTEX
  5
12D9
  8
0
 10
77.297554143402238
 20
128.3512796976778
 30
0.0
 70
    32
  0
VERTEX
  5
12DA
  8
0
 10
77.310496091796438
 20
128.29695527851231
 30
0.0
 70
    32
  0
VERTEX
  5
12DB
  8
0
 10
77.323268794454805
 20
128.24244089474669
 30
0.0
 70
    32
  0
VERTEX
  5
12DC
  8
0
 10
77.348292873981336
 20
128.13285137258291
 30
0.0
 70
    32
  0
VERTEX
  5
12DD
  8
0
 10
77.372596120217281
 20
128.02254479734319
 30
0.0
 70
    32
  0
VERTEX
  5
12DE
  8
0
 10
77.396148332847531
 20
127.9115589240394
 30
0.0
 70
    32
  0
VERTEX
  5
12DF
  8
0
 10
77.418920185138234
 20
127.79993259482271
 30
0.0
 70
    32
  0
VERTEX
  5
12E0
  8
0
 10
77.440883331871476
 20
127.6877056547016
 30
0.0
 70
    32
  0
VERTEX
  5
12E1
  8
0
 10
77.451553077245364
 20
127.6313796584672
 30
0.0
 70
    32
  0
VERTEX
  5
12E2
  8
0
 10
77.462010515119445
 20
127.57491885777441
 30
0.0
 70
    32
  0
VERTEX
  5
12E3
  8
0
 10
77.482275666975511
 20
127.46161376321329
 30
0.0
 70
    32
  0
VERTEX
  5
12E4
  8
0
 10
77.501654008286195
 20
127.3478326202675
 30
0.0
 70
    32
  0
VERTEX
  5
12E5
  8
0
 10
77.511003257077107
 20
127.29077689131201
 30
0.0
 70
    32
  0
VERTEX
  5
12E6
  8
0
 10
77.520122142362652
 20
127.2336182415993
 30
0.0
 70
    32
  0
VERTEX
  5
12E7
  8
0
 10
77.537658142586906
 20
127.1190138643331
 30
0.0
 70
    32
  0
VERTEX
  5
12E8
  8
0
 10
77.554241632780531
 20
127.0040629982836
 30
0.0
 70
    32
  0
VERTEX
  5
12E9
  8
0
 10
77.562170260908374
 20
126.94647126301309
 30
0.0
 70
    32
  0
VERTEX
  5
12EA
  8
0
 10
77.569853859161867
 20
126.8888092609385
 30
0.0
 70
    32
  0
VERTEX
  5
12EB
  8
0
 10
77.584477752695193
 20
126.77329619889611
 30
0.0
 70
    32
  0
VERTEX
  5
12EC
  8
0
 10
77.598097977295993
 20
126.657567125047
 30
0.0
 70
    32
  0
VERTEX
  5
12ED
  8
0
 10
77.610700889685688
 20
126.5416656896202
 30
0.0
 70
    32
  0
VERTEX
  5
12EE
  8
0
 10
77.622274496313707
 20
126.4256367714693
 30
0.0
 70
    32
  0
VERTEX
  5
12EF
  8
0
 10
77.632808535556364
 20
126.3095264404617
 30
0.0
 70
    32
  0
VERTEX
  5
12F0
  8
0
 10
77.637683006060001
 20
126.2514554248728
 30
0.0
 70
    32
  0
VERTEX
  5
12F1
  8
0
 10
77.642294565436316
 20
126.1933817830202
 30
0.0
 70
    32
  0
VERTEX
  5
12F2
  8
0
 10
77.650726039030133
 20
126.07725071960959
 30
0.0
 70
    32
  0
VERTEX
  5
12F3
  8
0
 10
77.65809836663243
 20
125.9611818147754
 30
0.0
 70
    32
  0
VERTEX
  5
12F4
  8
0
 10
77.664408963855578
 20
125.8452240803734
 30
0.0
 70
    32
  0
VERTEX
  5
12F5
  8
0
 10
77.669657284968764
 20
125.7294267726549
 30
0.0
 70
    32
  0
VERTEX
  5
12F6
  8
0
 10
77.673844840910874
 20
125.6138391838942
 30
0.0
 70
    32
  0
VERTEX
  5
12F7
  8
0
 10
77.675541867366292
 20
125.5561393954451
 30
0.0
 70
    32
  0
VERTEX
  5
12F8
  8
0
 10
77.676975201552182
 20
125.4985104292592
 30
0.0
 70
    32
  0
VERTEX
  5
12F9
  8
0
 10
77.679053981926472
 20
125.3834892296327
 30
0.0
 70
    32
  0
VERTEX
  5
12FA
  8
0
 10
77.680088812301506
 20
125.26882369108981
 30
0.0
 70
    32
  0
VERTEX
  5
12FB
  8
0
 10
77.680217670728894
 20
125.2116391048841
 30
0.0
 70
    32
  0
SEQEND
  5
12FC
  8
0
  0
LINE
  5
142A
  8
1
 10
90.368795211178394
 20
186.21163910488411
 30
0.0
 11
90.368795211178394
 21
226.21163910488411
 31
0.0
  0
LINE
  5
142B
  8
1
 10
15.368795211178391
 20
206.2116391048842
 30
0.0
 11
165.36879521117831
 21
206.2116391048842
 31
0.0
  0
ARC
  5
142C
  8
0
 10
21.96879521117836
 20
196.61163910488409
 30
0.0
 40
1.5999999999999801
 50
180.0
 51
270.0
  0
ARC
  5
142D
  8
0
 10
21.96879521117836
 20
215.81163910488419
 30
0.0
 40
1.599999999999981
 50
90.0
 51
180.0
  0
LINE
  5
142E
  8
0
 10
32.668795211178413
 20
217.4116391048841
 30
0.0
 11
21.96879521117836
 21
217.4116391048841
 31
0.0
  0
LINE
  5
142F
  8
0
 10
21.96879521117836
 20
195.01163910488421
 30
0.0
 11
32.668795211178413
 21
195.01163910488421
 31
0.0
  0
ARC
  5
1430
  8
0
 10
32.668795211178413
 20
196.61163910488409
 30
0.0
 40
1.5999999999999941
 50
270.0
 51
0.0
  0
ARC
  5
1431
  8
0
 10
32.668795211178413
 20
215.81163910488419
 30
0.0
 40
1.5999999999999901
 50
0.0
 51
90.0
  0
LINE
  5
1432
  8
0
 10
146.4687952111783
 20
214.2116391048842
 30
0.0
 11
103.0573727516278
 21
214.2116391048842
 31
0.0
  0
LINE
  5
1433
  8
0
 10
103.0573727516279
 20
198.21163910488411
 30
0.0
 11
146.4687952111783
 21
198.21163910488411
 31
0.0
  0
ARC
  5
1434
  8
0
 10
148.0687952111783
 20
196.61163910488409
 30
0.0
 40
1.599999999999965
 50
180.0
 51
270.0
  0
ARC
  5
1435
  8
0
 10
148.0687952111783
 20
215.81163910488419
 30
0.0
 40
1.599999999999961
 50
90.0
 51
180.0
  0
LINE
  5
1436
  8
0
 10
158.76879521117829
 20
217.4116391048841
 30
0.0
 11
148.0687952111783
 21
217.4116391048841
 31
0.0
  0
LINE
  5
1437
  8
0
 10
148.0687952111783
 20
195.01163910488421
 30
0.0
 11
158.76879521117829
 21
195.01163910488421
 31
0.0
  0
ARC
  5
1438
  8
0
 10
158.76879521117829
 20
196.61163910488409
 30
0.0
 40
1.5999999999999881
 50
270.0
 51
0.0
  0
ARC
  5
1439
  8
0
 10
158.76879521117829
 20
215.81163910488419
 30
0.0
 40
1.5999999999999941
 50
0.0
 51
90.0
  0
LINE
  5
143A
  8
0
 10
77.680217670728894
 20
214.2116391048842
 30
0.0
 11
34.268795211178428
 21
214.2116391048842
 31
0.0
  0
LINE
  5
143B
  8
0
 10
34.268795211178428
 20
198.2116391048842
 30
0.0
 11
77.680217670728894
 21
198.21163910488411
 31
0.0
  0
CIRCLE
  5
143D
  8
0
 10
90.368795211178394
 20
206.2116391048842
 30
0.0
 40
15.0
  0
LINE
  5
143E
  8
0
 10
20.368795211178391
 20
196.61163910488409
 30
0.0
 11
20.368795211178391
 21
215.81163910488419
 31
0.0
  0
LINE
  5
1441
  8
0
 10
34.268795211178372
 20
196.61163910488409
 30
0.0
 11
34.268795211178372
 21
215.81163910488419
 31
0.0
  0
LINE
  5
1442
  8
0
 10
146.4687952111783
 20
196.61163910488409
 30
0.0
 11
146.4687952111783
 21
215.81163910488419
 31
0.0
  0
LINE
  5
1445
  8
0
 10
160.36879521117839
 20
196.61163910488409
 30
0.0
 11
160.36879521117839
 21
215.81163910488419
 31
0.0
  0
LINE
  5
1465
  8
2
 10
234.01579521117841
 20
97.411639104884173
 30
0.0
 11
225.36879521117839
 21
102.4039868825668
 31
0.0
  0
LINE
  5
1466
  8
2
 10
225.36879521117839
 20
102.4039868825668
 30
0.0
 11
216.7217952111784
 21
97.411639104884173
 31
0.0
  0
LINE
  5
1467
  8
2
 10
234.01579521117841
 20
47.564639104884172
 30
0.0
 11
234.01579521117841
 21
97.411639104884173
 31
0.0
  0
LINE
  5
1468
  8
2
 10
216.7217952111784
 20
97.411639104884173
 30
0.0
 11
216.7217952111784
 21
47.564639104884172
 31
0.0
  0
LINE
  5
1469
  8
2
 10
235.36879521117839
 20
46.211639104884171
 30
0.0
 11
234.01579521117841
 21
47.564639104884172
 31
0.0
  0
LINE
  5
146A
  8
2
 10
216.7217952111784
 20
47.564639104884172
 30
0.0
 11
215.36879521117839
 21
46.211639104884171
 31
0.0
  0
LINE
  5
146B
  8
2
 10
216.7217952111784
 20
97.411639104884173
 30
0.0
 11
234.01579521117841
 21
97.411639104884173
 31
0.0
  0
LINE
  5
146C
  8
2
 10
216.7217952111784
 20
47.564639104884172
 30
0.0
 11
234.01579521117841
 21
47.564639104884172
 31
0.0
  0
LINE
  5
14F3
  8
2
 10
235.36879521117839
 20
46.211639104884171
 30
0.0
 11
235.36879521117839
 21
86.211639104884185
 31
0.0
  0
LINE
  5
14F4
  8
2
 10
235.36879521117839
 20
86.211639104884185
 30
0.0
 11
215.36879521117839
 21
86.211639104884185
 31
0.0
  0
LINE
  5
14F5
  8
2
 10
215.36879521117839
 20
46.211639104884171
 30
0.0
 11
215.36879521117839
 21
86.211639104884185
 31
0.0
  0
LINE
  5
14F6
  8
1
 10
209.16879521117841
 20
125.2116391048841
 30
0.0
 11
241.56879521117841
 21
125.2116391048841
 31
0.0
  0
LINE
  5
14F7
  8
1
 10
225.36879521117839
 20
146.21163910488411
 30
0.0
 11
225.36879521117839
 21
41.211639104884171
 31
0.0
  0
LINE
  5
14F8
  8
0
 10
240.36879521117839
 20
140.01163910488421
 30
0.0
 11
239.16879521117841
 21
141.21163910488411
 31
0.0
  0
LINE
  5
14F9
  8
0
 10
211.56879521117841
 20
141.21163910488411
 30
0.0
 11
210.36879521117839
 21
140.01163910488421
 31
0.0
  0
LINE
  5
14FA
  8
0
 10
239.16879521117841
 20
46.211639104884163
 30
0.0
 11
240.36879521117839
 21
47.411639104884159
 31
0.0
  0
LINE
  5
14FB
  8
0
 10
210.36879521117839
 20
47.411639104884159
 30
0.0
 11
211.56879521117841
 21
46.211639104884163
 31
0.0
  0
LINE
  5
14FC
  8
0
 10
240.36879521117839
 20
47.411639104884173
 30
0.0
 11
240.36879521117839
 21
140.01163910488421
 31
0.0
  0
LINE
  5
14FD
  8
0
 10
210.36879521117839
 20
140.01163910488421
 30
0.0
 11
210.36879521117839
 21
47.411639104884173
 31
0.0
  0
LINE
  5
14FE
  8
0
 10
211.56879521117841
 20
141.21163910488411
 30
0.0
 11
239.16879521117841
 21
141.21163910488411
 31
0.0
  0
LINE
  5
14FF
  8
0
 10
211.56879521117841
 20
46.211639104884171
 30
0.0
 11
239.16879521117841
 21
46.211639104884171
 31
0.0
  0
LINE
  5
1500
  8
0
 10
210.36879521117839
 20
140.01163910488421
 30
0.0
 11
240.36879521117839
 21
140.01163910488421
 31
0.0
  0
LINE
  5
1501
  8
0
 10
210.36879521117839
 20
47.411639104884173
 30
0.0
 11
240.36879521117839
 21
47.411639104884173
 31
0.0
  0
CIRCLE
  5
1502
  8
0
 10
225.36879521117839
 20
125.2116391048841
 30
0.0
 40
11.199999999999999
  0
LINE
  5
15BC
  8
2
 10
100.36879521117839
 20
86.211639104884185
 30
0.0
 11
99.015795211178386
 21
88.555103847524947
 31
0.0
  0
LINE
  5
15BD
  8
2
 10
80.368795211178281
 20
86.211639104884185
 30
0.0
 11
81.721795211178289
 21
88.555103847524947
 31
0.0
  0
LINE
  5
15BE
  8
2
 10
235.36879521117839
 20
86.211639104884185
 30
0.0
 11
234.01579521117841
 21
88.555103847524947
 31
0.0
  0
LINE
  5
15BF
  8
2
 10
215.36879521117831
 20
86.211639104884185
 30
0.0
 11
216.72179521117829
 21
88.555103847524947
 31
0.0
  0
ENDSEC
  0
EOF
