  0
SECTION
  2
HEADER
  9
$ACADVER
  1
AC1009
  9
$INSBASE
 10
0.0
 20
0.0
 30
0.0
  9
$EXTMIN
 10
0.0
 20
-2.960436562073669
 30
0.0
  9
$EXTMAX
 10
243.16879521117829
 20
266.21163910488423
 30
0.0
  9
$LIMMIN
 10
0.0
 20
0.0
  9
$LIMMAX
 10
420.0
 20
297.0
  9
$ORTHOMODE
 70
     1
  9
$REGENMODE
 70
     1
  9
$FILLMODE
 70
     1
  9
$QTEXTMODE
 70
     0
  9
$MIRRTEXT
 70
     0
  9
$DRAGMODE
 70
     2
  9
$LTSCALE
 40
5.0
  9
$OSMODE
 70
    37
  9
$ATTMODE
 70
     1
  9
$TEXTSIZE
 40
2.5
  9
$TRACEWID
 40
1.0
  9
$TEXTSTYLE
  7
STANDARD
  9
$CLAYER
  8
0
  9
$CELTYPE
  6
BYLAYER
  9
$CECOLOR
 62
   256
  9
$DIMSCALE
 40
1.0
  9
$DIMASZ
 40
2.5
  9
$DIMEXO
 40
0.625
  9
$DIMDLI
 40
3.75
  9
$DIMRND
 40
0.0
  9
$DIMDLE
 40
0.0
  9
$DIMEXE
 40
1.25
  9
$DIMTP
 40
0.0
  9
$DIMTM
 40
0.0
  9
$DIMTXT
 40
2.5
  9
$DIMCEN
 40
2.5
  9
$DIMTSZ
 40
0.0
  9
$DIMTOL
 70
     0
  9
$DIMLIM
 70
     0
  9
$DIMTIH
 70
     0
  9
$DIMTOH
 70
     0
  9
$DIMSE1
 70
     0
  9
$DIMSE2
 70
     0
  9
$DIMTAD
 70
     1
  9
$DIMZIN
 70
     8
  9
$DIMBLK
  1

  9
$DIMASO
 70
     1
  9
$DIMSHO
 70
     1
  9
$DIMPOST
  1

  9
$DIMAPOST
  1

  9
$DIMALT
 70
     0
  9
$DIMALTD
 70
     3
  9
$DIMALTF
 40
0.03937007874016
  9
$DIMLFAC
 40
1.0
  9
$DIMTOFL
 70
     1
  9
$DIMTVP
 40
0.0
  9
$DIMTIX
 70
     0
  9
$DIMSOXD
 70
     0
  9
$DIMSAH
 70
     0
  9
$DIMBLK1
  1

  9
$DIMBLK2
  1

  9
$DIMSTYLE
  2
ISO-25
  9
$DIMCLRD
 70
     0
  9
$DIMCLRE
 70
     0
  9
$DIMCLRT
 70
     0
  9
$DIMTFAC
 40
1.0
  9
$DIMGAP
 40
0.625
  9
$LUNITS
 70
     2
  9
$LUPREC
 70
     4
  9
$SKETCHINC
 40
1.0
  9
$FILLETRAD
 40
0.0
  9
$AUNITS
 70
     0
  9
$AUPREC
 70
     0
  9
$MENU
  1
.
  9
$ELEVATION
 40
0.0
  9
$PELEVATION
 40
0.0
  9
$THICKNESS
 40
0.0
  9
$LIMCHECK
 70
     0
  9
$BLIPMODE
 70
     0
  9
$CHAMFERA
 40
0.0
  9
$CHAMFERB
 40
0.0
  9
$SKPOLY
 70
     0
  9
$TDCREATE
 40
2454979.4917406249
  9
$TDUPDATE
 40
2456776.5877342359
  9
$TDINDWG
 40
0.1752068866
  9
$TDUSRTIMER
 40
0.175206713
  9
$USRTIMER
 70
     1
  9
$ANGBASE
 50
0.0
  9
$ANGDIR
 70
     0
  9
$PDMODE
 70
     0
  9
$PDSIZE
 40
0.0
  9
$PLINEWID
 40
0.0
  9
$COORDS
 70
     1
  9
$SPLFRAME
 70
     0
  9
$SPLINETYPE
 70
     6
  9
$SPLINESEGS
 70
     8
  9
$ATTDIA
 70
     0
  9
$ATTREQ
 70
     1
  9
$HANDLING
 70
     1
  9
$HANDSEED
  5
2247
  9
$SURFTAB1
 70
     6
  9
$SURFTAB2
 70
     6
  9
$SURFTYPE
 70
     6
  9
$SURFU
 70
     6
  9
$SURFV
 70
     6
  9
$UCSNAME
  2

  9
$UCSORG
 10
0.0
 20
0.0
 30
0.0
  9
$UCSXDIR
 10
1.0
 20
0.0
 30
0.0
  9
$UCSYDIR
 10
0.0
 20
1.0
 30
0.0
  9
$PUCSNAME
  2

  9
$PUCSORG
 10
0.0
 20
0.0
 30
0.0
  9
$PUCSXDIR
 10
1.0
 20
0.0
 30
0.0
  9
$PUCSYDIR
 10
0.0
 20
1.0
 30
0.0
  9
$USERI1
 70
     0
  9
$USERI2
 70
     0
  9
$USERI3
 70
     0
  9
$USERI4
 70
     0
  9
$USERI5
 70
     0
  9
$USERR1
 40
0.0
  9
$USERR2
 40
0.0
  9
$USERR3
 40
0.0
  9
$USERR4
 40
0.0
  9
$USERR5
 40
0.0
  9
$WORLDVIEW
 70
     1
  9
$SHADEDGE
 70
     3
  9
$SHADEDIF
 70
    70
  9
$TILEMODE
 70
     1
  9
$MAXACTVP
 70
    64
  9
$PLIMCHECK
 70
     0
  9
$PEXTMIN
 10
0.0
 20
0.0
 30
0.0
  9
$PEXTMAX
 10
0.0
 20
0.0
 30
0.0
  9
$PLIMMIN
 10
0.0
 20
0.0
  9
$PLIMMAX
 10
12.0
 20
9.0
  9
$UNITMODE
 70
     0
  9
$VISRETAIN
 70
     1
  9
$PLINEGEN
 70
     0
  9
$PSLTSCALE
 70
     1
  0
ENDSEC
  0
SECTION
  2
TABLES
  0
TABLE
  2
VPORT
 70
     1
  0
VPORT
  2
*ACTIVE
 70
     0
 10
0.0
 20
0.0
 11
1.0
 21
1.0
 12
314.18636995827541
 22
180.0
 13
0.0
 23
0.0
 14
10.0
 24
10.0
 15
10.0
 25
10.0
 16
0.0
 26
0.0
 36
1.0
 17
0.0
 27
0.0
 37
0.0
 40
360.0
 41
1.7454798331015291
 42
50.0
 43
0.0
 44
0.0
 50
0.0
 51
0.0
 71
     0
 72
  1000
 73
     1
 74
     3
 75
     0
 76
     0
 77
     0
 78
     0
  0
ENDTAB
  0
TABLE
  2
LTYPE
 70
     2
  0
LTYPE
  2
CONTINUOUS
 70
     0
  3
Solid line
 72
    65
 73
     0
 40
0.0
  0
LTYPE
  2
CENTER
 70
     0
  3
____ _ ____ _ ____ _ ____ _ ____ _ ____ _ ____
 72
    65
 73
     4
 40
2.0
 49
1.25
 49
-0.25
 49
0.25
 49
-0.25
  0
ENDTAB
  0
TABLE
  2
LAYER
 70
     3
  0
LAYER
  2
0
 70
     0
 62
     7
  6
CONTINUOUS
  0
LAYER
  2
1
 70
     0
 62
     1
  6
CENTER
  0
LAYER
  2
3
 70
     0
 62
     3
  6
CONTINUOUS
  0
ENDTAB
  0
TABLE
  2
STYLE
 70
     2
  0
STYLE
  2
STANDARD
 70
     0
 40
0.0
 41
1.0
 50
0.0
 71
     0
 42
2.5
  3
txt
  4

  0
STYLE
  2
STANDARD1
 70
     0
 40
0.0
 41
1.0
 50
0.0
 71
     0
 42
3.0
  3
txt
  4

  0
ENDTAB
  0
TABLE
  2
VIEW
 70
     0
  0
ENDTAB
  0
TABLE
  2
UCS
 70
     0
  0
ENDTAB
  0
TABLE
  2
APPID
 70
     5
  0
APPID
  2
ACAD
 70
     0
  0
APPID
  2
ACAD_MLEADERVER
 70
     0
  0
APPID
  2
ACAD_NAV_VCDISPLAY
 70
     0
  0
APPID
  2
ACAD_EXEMPT_FROM_CAD_STANDARDS
 70
     0
  0
APPID
  2
ACADANNOTATIVE
 70
     0
  0
ENDTAB
  0
TABLE
  2
DIMSTYLE
 70
     2
  0
DIMSTYLE
  2
ISO-25
 70
     0
  3

  4

  5

  6

  7

 40
1.0
 41
2.5
 42
0.625
 43
3.75
 44
1.25
 45
0.0
 46
0.0
 47
0.0
 48
0.0
140
2.5
141
2.5
142
0.0
143
0.03937007874016
144
1.0
145
0.0
146
1.0
147
0.625
 71
     0
 72
     0
 73
     0
 74
     0
 75
     0
 76
     0
 77
     1
 78
     8
170
     0
171
     3
172
     1
173
     0
174
     0
175
     0
176
     0
177
     0
178
     0
  0
DIMSTYLE
  2
STANDARD
 70
     0
  3

  4

  5

  6

  7

 40
1.0
 41
0.18
 42
0.0625
 43
0.38
 44
0.18
 45
0.0
 46
0.0
 47
0.0
 48
0.0
140
0.18
141
0.09
142
0.0
143
25.399999999999999
144
1.0
145
0.0
146
1.0
147
0.09
 71
     0
 72
     0
 73
     1
 74
     1
 75
     0
 76
     0
 77
     0
 78
     0
170
     0
171
     2
172
     0
173
     0
174
     0
175
     0
176
     0
177
     0
178
     0
  0
ENDTAB
  0
ENDSEC
  0
SECTION
  2
BLOCKS
  0
BLOCK
  8
0
  2
$MODEL_SPACE
 70
     0
 10
0.0
 20
0.0
 30
0.0
  3
$MODEL_SPACE
  1

  0
ENDBLK
  5
21
  8
0
  0
BLOCK
 67
     1
  8
0
  2
$PAPER_SPACE
 70
     0
 10
0.0
 20
0.0
 30
0.0
  3
$PAPER_SPACE
  1

  0
ENDBLK
  5
53
 67
     1
  8
0
  0
ENDSEC
  0
SECTION
  2
ENTITIES
  0
TEXT
  5
749
  8
0
 62
     3
 10
0.0
 20
0.0
 30
0.0
 40
10.0
  1
TBKM20X70
  7
STANDARD1
  0
LINE
  5
1FDB
  8
1
 10
90.368795211178394
 20
186.21163910488411
 30
0.0
 11
90.368795211178394
 21
61.211639104884171
 31
0.0
  0
LINE
  5
1FDC
  8
1
 10
15.368795211178339
 20
165.21163910488411
 30
0.0
 11
165.36879521117839
 21
165.21163910488411
 31
0.0
  0
LINE
  5
1FDD
  8
0
 10
83.168795211178349
 20
78.595058351153199
 30
0.0
 11
83.168795211178349
 21
71.711639104884171
 31
0.0
  0
LINE
  5
1FDE
  8
0
 10
97.568795211178454
 20
71.711639104884171
 30
0.0
 11
97.568795211178454
 21
78.595058351153199
 31
0.0
  0
ARC
  5
1FDF
  8
0
 10
90.368795211178394
 20
79.211639104884171
 30
0.0
 40
12.999999999999989
 50
233.4050690444316
 51
306.59493095556837
  0
LINE
  5
1FE0
  8
0
 10
82.618795211178394
 20
71.711639104884171
 30
0.0
 11
82.618795211178394
 21
68.774326232310131
 31
0.0
  0
LINE
  5
1FE1
  8
0
 10
98.118795211178394
 20
68.774326232310131
 30
0.0
 11
98.118795211178394
 21
71.711639104884171
 31
0.0
  0
LINE
  5
1FE2
  8
0
 10
98.118795211178394
 20
68.774326232310131
 30
0.0
 11
82.618795211178394
 21
68.774326232310131
 31
0.0
  0
LINE
  5
1FE3
  8
0
 10
98.118795211178394
 20
71.711639104884171
 30
0.0
 11
82.618795211178394
 21
71.711639104884171
 31
0.0
  0
LINE
  5
1FE4
  8
0
 10
34.268795211178372
 20
157.2116391048842
 30
0.0
 11
75.381856444618734
 21
157.2116391048842
 31
0.0
  0
LINE
  5
1FE5
  8
0
 10
75.380765041572658
 20
173.21163910488411
 30
0.0
 11
34.268795211178372
 21
173.21163910488411
 31
0.0
  0
LINE
  5
1FE6
  8
0
 10
105.3568253807841
 20
157.2116391048842
 30
0.0
 11
146.46879521117839
 21
157.2116391048842
 31
0.0
  0
LINE
  5
1FE7
  8
0
 10
146.46879521117839
 20
173.21163910488411
 30
0.0
 11
105.355733977738
 21
173.21163910488411
 31
0.0
  0
LINE
  5
1FE8
  8
0
 10
80.368795211178394
 20
136.21163910488411
 30
0.0
 11
80.368795211178394
 21
80.211639104884156
 31
0.0
  0
LINE
  5
1FE9
  8
0
 10
100.36879521117839
 20
80.211639104884156
 30
0.0
 11
100.36879521117839
 21
136.21163910488411
 31
0.0
  0
LINE
  5
1FEA
  8
0
 10
97.568795211178454
 20
78.595058351153199
 30
0.0
 11
100.36879521117839
 21
80.211639104884156
 31
0.0
  0
LINE
  5
1FEB
  8
0
 10
80.368795211178394
 20
80.211639104884156
 30
0.0
 11
83.168795211178349
 21
78.595058351153199
 31
0.0
  0
LINE
  5
1FEC
  8
0
 10
97.568795211178454
 20
78.595058351153199
 30
0.0
 11
83.168795211178349
 21
78.595058351153199
 31
0.0
  0
LINE
  5
1FED
  8
0
 10
100.36879521117839
 20
80.211639104884156
 30
0.0
 11
80.368795211178394
 21
80.211639104884156
 31
0.0
  0
LINE
  5
1FEE
  8
0
 10
20.368795211178391
 20
176.4116391048841
 30
0.0
 11
20.368795211178391
 21
154.01163910488421
 31
0.0
  0
ARC
  5
1FEF
  8
0
 10
21.9687952111783
 20
154.0116391048841
 30
0.0
 40
1.599999999999945
 50
180.0
 51
270.0
  0
ARC
  5
1FF0
  8
0
 10
21.9687952111783
 20
176.41163910488419
 30
0.0
 40
1.5999999999999359
 50
90.0
 51
180.0
  0
LINE
  5
1FF1
  8
0
 10
148.06879521117841
 20
152.41163910488419
 30
0.0
 11
158.76879521117829
 21
152.41163910488419
 31
0.0
  0
LINE
  5
1FF2
  8
0
 10
158.76879521117829
 20
178.0116391048841
 30
0.0
 11
148.06879521117841
 21
178.0116391048841
 31
0.0
  0
LINE
  5
1FF3
  8
0
 10
160.36879521117839
 20
176.4116391048841
 30
0.0
 11
160.36879521117839
 21
154.01163910488421
 31
0.0
  0
ARC
  5
1FF4
  8
0
 10
158.76879521117829
 20
154.0116391048841
 30
0.0
 40
1.599999999999965
 50
270.0
 51
0.0
  0
ARC
  5
1FF5
  8
0
 10
158.7687952111784
 20
176.41163910488419
 30
0.0
 40
1.5999999999999519
 50
0.0
 51
90.0
  0
LINE
  5
1FF6
  8
0
 10
146.46879521117839
 20
176.4116391048841
 30
0.0
 11
146.46879521117839
 21
154.01163910488421
 31
0.0
  0
ARC
  5
1FF7
  8
0
 10
148.06879521117841
 20
154.01163910488421
 30
0.0
 40
1.6000000000000081
 50
180.0
 51
270.0
  0
ARC
  5
1FF8
  8
0
 10
148.06879521117841
 20
176.4116391048841
 30
0.0
 40
1.5999999999999941
 50
90.0
 51
180.0
  0
LINE
  5
1FF9
  8
0
 10
34.268795211178372
 20
176.41163910488419
 30
0.0
 11
34.268795211178372
 21
154.0116391048841
 31
0.0
  0
ARC
  5
1FFA
  8
0
 10
32.668795211178463
 20
154.0116391048841
 30
0.0
 40
1.5999999999999519
 50
270.0
 51
0.0
  0
ARC
  5
1FFB
  8
0
 10
32.668795211178463
 20
176.41163910488419
 30
0.0
 40
1.599999999999969
 50
0.0
 51
90.0
  0
LINE
  5
1FFC
  8
0
 10
21.9687952111783
 20
152.41163910488419
 30
0.0
 11
32.668795211178463
 21
152.41163910488419
 31
0.0
  0
LINE
  5
1FFD
  8
0
 10
32.668795211178463
 20
178.0116391048841
 30
0.0
 11
21.9687952111783
 21
178.0116391048841
 31
0.0
  0
LINE
  5
1FFE
  8
0
 10
104.6616884299918
 20
136.21163910488411
 30
0.0
 11
105.36879521117839
 21
136.9187458860707
 31
0.0
  0
LINE
  5
1FFF
  8
0
 10
75.368795211178394
 20
136.9187458860707
 30
0.0
 11
76.075901992364933
 21
136.21163910488411
 31
0.0
  0
LINE
  5
2000
  8
0
 10
104.6616884299918
 20
136.21163910488411
 30
0.0
 11
76.075901992364933
 21
136.21163910488411
 31
0.0
  0
LINE
  5
2001
  8
0
 10
76.075901992364933
 20
181.21163910488411
 30
0.0
 11
75.368795211178394
 21
180.50453232369759
 31
0.0
  0
LINE
  5
2002
  8
0
 10
105.36879521117839
 20
180.50453232369759
 30
0.0
 11
104.6616884299918
 21
181.21163910488411
 31
0.0
  0
LINE
  5
2003
  8
0
 10
104.6616884299918
 20
181.21163910488411
 30
0.0
 11
76.075901992364933
 21
181.21163910488411
 31
0.0
  0
LINE
  5
2004
  8
0
 10
75.368795211178394
 20
180.50453232369759
 30
0.0
 11
75.368795211178394
 21
173.18913315645301
 31
0.0
  0
LINE
  5
2005
  8
0
 10
75.368795211178394
 20
157.23619542939079
 30
0.0
 11
75.368795211178394
 21
136.9187458860707
 31
0.0
  0
LINE
  5
2006
  8
0
 10
105.36879521117839
 20
136.9187458860707
 30
0.0
 11
105.36879521117839
 21
157.2341450533153
 31
0.0
  0
LINE
  5
2007
  8
0
 10
105.36879521117839
 20
173.18708278037749
 30
0.0
 11
105.36879521117839
 21
180.50453232369759
 31
0.0
  0
LINE
  5
2008
  8
0
 10
105.36879521117839
 20
136.9187458860707
 30
0.0
 11
75.368795211178394
 21
136.9187458860707
 31
0.0
  0
POLYLINE
  5
2009
  8
0
 66
     1
 10
0.0
 20
0.0
 30
0.0
  0
VERTEX
  5
2219
  8
0
 10
105.3687952093516
 20
173.2116391014589
 30
0.0
  0
VERTEX
  5
221A
  8
0
 10
105.3630951710762
 20
173.2009464144945
 30
0.0
  0
VERTEX
  5
221B
  8
0
 10
105.2841740451974
 20
173.05182569464739
 30
0.0
  0
VERTEX
  5
221C
  8
0
 10
105.1133001956932
 20
172.72166089169571
 30
0.0
  0
VERTEX
  5
221D
  8
0
 10
104.8707002742825
 20
172.233408857538
 30
0.0
  0
VERTEX
  5
221E
  8
0
 10
104.5668916479553
 20
171.58234883206671
 30
0.0
  0
VERTEX
  5
221F
  8
0
 10
104.204529078855
 20
170.7277547361208
 30
0.0
  0
VERTEX
  5
2220
  8
0
 10
103.8297889254324
 20
169.70589674938859
 30
0.0
  0
VERTEX
  5
2221
  8
0
 10
103.4754556307935
 20
168.4956225632931
 30
0.0
  0
VERTEX
  5
2222
  8
0
 10
103.2002633997057
 20
167.12124007712649
 30
0.0
  0
VERTEX
  5
2223
  8
0
 10
103.0725985056328
 20
165.83342535770149
 30
0.0
  0
VERTEX
  5
2224
  8
0
 10
103.078893690285
 20
164.47231282468931
 30
0.0
  0
VERTEX
  5
2225
  8
0
 10
103.1931797872175
 20
163.3502311017445
 30
0.0
  0
VERTEX
  5
2226
  8
0
 10
103.39872672569641
 20
162.24868192108431
 30
0.0
  0
VERTEX
  5
2227
  8
0
 10
103.6760288069149
 20
161.20134410681999
 30
0.0
  0
VERTEX
  5
2228
  8
0
 10
104.0013031998439
 20
160.2271357132681
 30
0.0
  0
VERTEX
  5
2229
  8
0
 10
104.3805371259965
 20
159.26782623035069
 30
0.0
  0
VERTEX
  5
222A
  8
0
 10
104.7477055100338
 20
158.447538175527
 30
0.0
  0
VERTEX
  5
222B
  8
0
 10
105.0576953175713
 20
157.8113832758205
 30
0.0
  0
VERTEX
  5
222C
  8
0
 10
105.277934669066
 20
157.38332898233921
 30
0.0
  0
VERTEX
  5
222D
  8
0
 10
105.36394672815381
 20
157.2207337108095
 30
0.0
  0
VERTEX
  5
222E
  8
0
 10
105.3687952094909
 20
157.21163910804819
 30
0.0
  0
SEQEND
  5
222F
  8
0
  0
LINE
  5
200A
  8
0
 10
105.36879521117839
 20
180.50453232369759
 30
0.0
 11
75.368795211178394
 21
180.50453232369759
 31
0.0
  0
POLYLINE
  5
200B
  8
0
 66
     1
 10
0.0
 20
0.0
 30
0.0
  0
VERTEX
  5
2230
  8
0
 10
75.368795213005114
 20
157.2116391083093
 30
0.0
  0
VERTEX
  5
2231
  8
0
 10
75.374495251280564
 20
157.22233179527379
 30
0.0
  0
VERTEX
  5
2232
  8
0
 10
75.453416377159328
 20
157.37145251512089
 30
0.0
  0
VERTEX
  5
2233
  8
0
 10
75.624290226663561
 20
157.70161731807261
 30
0.0
  0
VERTEX
  5
2234
  8
0
 10
75.866890148074276
 20
158.18986935223029
 30
0.0
  0
VERTEX
  5
2235
  8
0
 10
76.170698774401444
 20
158.8409293777016
 30
0.0
  0
VERTEX
  5
2236
  8
0
 10
76.533061343501799
 20
159.6955234736476
 30
0.0
  0
VERTEX
  5
2237
  8
0
 10
76.907801496924321
 20
160.7173814603797
 30
0.0
  0
VERTEX
  5
2238
  8
0
 10
77.262134791563312
 20
161.92765564647519
 30
0.0
  0
VERTEX
  5
2239
  8
0
 10
77.537327022651084
 20
163.3020381326418
 30
0.0
  0
VERTEX
  5
223A
  8
0
 10
77.66499191672392
 20
164.5898528520668
 30
0.0
  0
VERTEX
  5
223B
  8
0
 10
77.658696732071803
 20
165.950965385079
 30
0.0
  0
VERTEX
  5
223C
  8
0
 10
77.544410635139215
 20
167.07304710802379
 30
0.0
  0
VERTEX
  5
223D
  8
0
 10
77.338863696660383
 20
168.174596288684
 30
0.0
  0
VERTEX
  5
223E
  8
0
 10
77.06156161544186
 20
169.2219341029483
 30
0.0
  0
VERTEX
  5
223F
  8
0
 10
76.736287222512829
 20
170.19614249650019
 30
0.0
  0
VERTEX
  5
2240
  8
0
 10
76.357053296360277
 20
171.15545197941759
 30
0.0
  0
VERTEX
  5
2241
  8
0
 10
75.989884912322964
 20
171.97574003424131
 30
0.0
  0
VERTEX
  5
2242
  8
0
 10
75.679895104785487
 20
172.61189493394781
 30
0.0
  0
VERTEX
  5
2243
  8
0
 10
75.459655753290804
 20
173.0399492274291
 30
0.0
  0
VERTEX
  5
2244
  8
0
 10
75.373643694202997
 20
173.20254449895879
 30
0.0
  0
VERTEX
  5
2245
  8
0
 10
75.368795212865848
 20
173.2116391017201
 30
0.0
  0
SEQEND
  5
2246
  8
0
  0
LINE
  5
200C
  8
1
 10
207.56879521117841
 20
165.21163910488411
 30
0.0
 11
243.16879521117829
 21
165.21163910488411
 31
0.0
  0
LINE
  5
200D
  8
1
 10
225.36879521117839
 20
186.21163910488411
 30
0.0
 11
225.36879521117839
 21
61.211639104884171
 31
0.0
  0
LINE
  5
200E
  8
0
 10
218.16879521117829
 20
78.595058351153227
 30
0.0
 11
218.16879521117829
 21
71.711639104884171
 31
0.0
  0
LINE
  5
200F
  8
0
 10
232.56879521117841
 20
71.711639104884171
 30
0.0
 11
232.56879521117841
 21
78.595058351153227
 31
0.0
  0
LINE
  5
2010
  8
0
 10
233.11879521117839
 20
71.711639104884171
 30
0.0
 11
217.61879521117839
 21
71.711639104884171
 31
0.0
  0
LINE
  5
2011
  8
0
 10
217.61879521117839
 20
71.711639104884171
 30
0.0
 11
217.61879521117839
 21
68.774326232310102
 31
0.0
  0
LINE
  5
2012
  8
0
 10
233.11879521117839
 20
68.774326232310102
 30
0.0
 11
233.11879521117839
 21
71.711639104884171
 31
0.0
  0
LINE
  5
2013
  8
0
 10
233.11879521117839
 20
68.774326232310102
 30
0.0
 11
217.61879521117839
 21
68.774326232310131
 31
0.0
  0
ARC
  5
2014
  8
0
 10
225.36879521117839
 20
79.211639104884171
 30
0.0
 40
12.999999999999989
 50
233.40506904442751
 51
306.59493095557241
  0
LINE
  5
2015
  8
0
 10
215.36879521117839
 20
136.21163910488411
 30
0.0
 11
215.36879521117839
 21
80.211639104884156
 31
0.0
  0
LINE
  5
2016
  8
0
 10
235.36879521117839
 20
80.211639104884156
 30
0.0
 11
235.36879521117839
 21
136.21163910488411
 31
0.0
  0
LINE
  5
2017
  8
0
 10
232.56879521117841
 20
78.595058351153227
 30
0.0
 11
218.16879521117829
 21
78.595058351153227
 31
0.0
  0
LINE
  5
2018
  8
0
 10
235.36879521117839
 20
80.211639104884156
 30
0.0
 11
215.36879521117839
 21
80.211639104884156
 31
0.0
  0
LINE
  5
2019
  8
0
 10
232.56879521117841
 20
78.595058351153227
 30
0.0
 11
235.36879521117839
 21
80.211639104884156
 31
0.0
  0
LINE
  5
201A
  8
0
 10
215.36879521117839
 20
80.211639104884156
 30
0.0
 11
218.16879521117829
 21
78.595058351153227
 31
0.0
  0
LINE
  5
201B
  8
0
 10
239.66168842999181
 20
181.21163910488411
 30
0.0
 11
211.075901992365
 21
181.21163910488411
 31
0.0
  0
LINE
  5
201C
  8
0
 10
211.075901992365
 20
181.21163910488411
 30
0.0
 11
210.36879521117839
 21
180.50453232369759
 31
0.0
  0
LINE
  5
201D
  8
0
 10
240.36879521117839
 20
180.50453232369759
 30
0.0
 11
239.66168842999181
 21
181.21163910488411
 31
0.0
  0
LINE
  5
201E
  8
0
 10
239.66168842999181
 20
136.21163910488411
 30
0.0
 11
211.075901992365
 21
136.21163910488411
 31
0.0
  0
LINE
  5
201F
  8
0
 10
239.66168842999181
 20
136.21163910488411
 30
0.0
 11
240.36879521117839
 21
136.9187458860707
 31
0.0
  0
LINE
  5
2020
  8
0
 10
210.36879521117839
 20
136.9187458860707
 30
0.0
 11
211.075901992365
 21
136.21163910488411
 31
0.0
  0
LINE
  5
2021
  8
0
 10
240.36879521117839
 20
136.9187458860707
 30
0.0
 11
210.36879521117839
 21
136.9187458860707
 31
0.0
  0
LINE
  5
2022
  8
0
 10
240.36879521117839
 20
180.50453232369759
 30
0.0
 11
210.36879521117839
 21
180.50453232369759
 31
0.0
  0
LINE
  5
2023
  8
0
 10
210.36879521117839
 20
180.50453232369759
 30
0.0
 11
210.36879521117839
 21
136.9187458860707
 31
0.0
  0
LINE
  5
2024
  8
0
 10
240.36879521117839
 20
136.9187458860707
 30
0.0
 11
240.36879521117839
 21
180.50453232369759
 31
0.0
  0
CIRCLE
  5
2025
  8
0
 10
225.36879521117839
 20
165.21163910488411
 30
0.0
 40
12.79999999999999
  0
LINE
  5
2026
  8
1
 10
90.368795211178394
 20
226.21163910488411
 30
0.0
 11
90.368795211178394
 21
266.21163910488423
 31
0.0
  0
LINE
  5
2027
  8
1
 10
15.368795211178391
 20
246.2116391048842
 30
0.0
 11
165.36879521117839
 21
246.2116391048842
 31
0.0
  0
LINE
  5
2028
  8
0
 10
34.268795211178372
 20
238.2116391048842
 30
0.0
 11
77.678677271629908
 21
238.2116391048842
 31
0.0
  0
LINE
  5
2029
  8
0
 10
77.680217670728894
 20
254.2116391048842
 30
0.0
 11
34.268795211178372
 21
254.2116391048842
 31
0.0
  0
LINE
  5
202A
  8
0
 10
103.05891315072689
 20
238.2116391048842
 30
0.0
 11
146.46879521117839
 21
238.2116391048842
 31
0.0
  0
LINE
  5
202B
  8
0
 10
146.46879521117839
 20
254.2116391048842
 30
0.0
 11
103.0573727516279
 21
254.2116391048842
 31
0.0
  0
LINE
  5
202C
  8
0
 10
148.06879521117841
 20
233.41163910488419
 30
0.0
 11
158.76879521117829
 21
233.41163910488419
 31
0.0
  0
LINE
  5
202D
  8
0
 10
158.76879521117829
 20
259.01163910488418
 30
0.0
 11
148.06879521117841
 21
259.01163910488418
 31
0.0
  0
LINE
  5
202E
  8
0
 10
160.36879521117839
 20
257.41163910488422
 30
0.0
 11
160.36879521117839
 21
235.01163910496101
 31
0.0
  0
ARC
  5
202F
  8
0
 10
158.76879521117829
 20
235.01163910488421
 30
0.0
 40
1.5999999999999841
 50
270.0
 51
0.0
  0
ARC
  5
2030
  8
0
 10
158.76879521117829
 20
257.41163910488422
 30
0.0
 40
1.5999999999999801
 50
0.0
 51
90.0
  0
LINE
  5
2031
  8
0
 10
34.268795211178372
 20
257.41163910488422
 30
0.0
 11
34.268795211178372
 21
235.01163910496089
 31
0.0
  0
ARC
  5
2032
  8
0
 10
32.668795211178463
 20
235.0116391048841
 30
0.0
 40
1.5999999999999761
 50
270.0
 51
0.0
  0
ARC
  5
2033
  8
0
 10
32.668795211178463
 20
257.41163910488422
 30
0.0
 40
1.5999999999999761
 50
0.0
 51
90.0
  0
LINE
  5
2034
  8
0
 10
21.9687952111783
 20
233.41163910488419
 30
0.0
 11
32.668795211178463
 21
233.41163910488419
 31
0.0
  0
LINE
  5
2035
  8
0
 10
32.668795211178463
 20
259.01163910488418
 30
0.0
 11
21.9687952111783
 21
259.01163910488418
 31
0.0
  0
LINE
  5
2036
  8
0
 10
20.368795211178391
 20
257.41163910488422
 30
0.0
 11
20.368795211178391
 21
235.01163910496101
 31
0.0
  0
ARC
  5
2037
  8
0
 10
21.9687952111783
 20
235.0116391048841
 30
0.0
 40
1.599999999999965
 50
180.0
 51
270.0
  0
ARC
  5
2038
  8
0
 10
21.9687952111783
 20
257.41163910488422
 30
0.0
 40
1.599999999999969
 50
90.0
 51
180.0
  0
LINE
  5
2039
  8
0
 10
146.46879521117839
 20
257.41163910488422
 30
0.0
 11
146.46879521117839
 21
235.01163910496101
 31
0.0
  0
ARC
  5
203A
  8
0
 10
148.06879521117841
 20
235.01163910488421
 30
0.0
 40
1.6000000000000081
 50
180.0
 51
270.0
  0
ARC
  5
203B
  8
0
 10
148.06879521117841
 20
257.41163910488422
 30
0.0
 40
1.6000000000000141
 50
90.0
 51
180.0
  0
CIRCLE
  5
203C
  8
0
 10
90.368795211178394
 20
246.2116391048842
 30
0.0
 40
15.0
  0
LINE
  5
2090
  8
3
 10
98.835295211178504
 20
79.326272467081864
 30
0.0
 11
98.835295211178391
 21
126.2116391048842
 31
0.0
  0
LINE
  5
2091
  8
0
 10
100.36879521117839
 20
126.2116391048842
 30
0.0
 11
80.368795211178394
 21
126.2116391048842
 31
0.0
  0
LINE
  5
2092
  8
3
 10
81.902295211178398
 20
79.326272467081864
 30
0.0
 11
81.902295211178398
 21
126.2116391048842
 31
0.0
  0
LINE
  5
2093
  8
3
 10
81.902295211178398
 20
126.2116391048842
 30
0.0
 11
80.368795211178394
 21
128.8677390182911
 31
0.0
  0
LINE
  5
2094
  8
3
 10
98.835295211178391
 20
126.2116391048842
 30
0.0
 11
100.36879521117839
 21
128.86773901829099
 31
0.0
  0
LINE
  5
2095
  8
3
 10
233.83529521117839
 20
79.326272467081864
 30
0.0
 11
233.83529521117839
 21
126.2116391048842
 31
0.0
  0
LINE
  5
2096
  8
0
 10
235.36879521117839
 20
126.2116391048842
 30
0.0
 11
215.36879521117839
 21
126.2116391048842
 31
0.0
  0
LINE
  5
2097
  8
3
 10
216.9022952111784
 20
79.326272467081864
 30
0.0
 11
216.9022952111784
 21
126.2116391048842
 31
0.0
  0
LINE
  5
2098
  8
3
 10
216.9022952111784
 20
126.2116391048842
 30
0.0
 11
215.36879521117839
 21
128.8677390182911
 31
0.0
  0
LINE
  5
2099
  8
3
 10
233.83529521117839
 20
126.2116391048842
 30
0.0
 11
235.36879521117839
 21
128.86773901829099
 31
0.0
  0
ENDSEC
  0
EOF
