  0
SECTION
  2
HEADER
  9
$ACADVER
  1
AC1009
  9
$INSBASE
 10
82.638099999999994
 20
103.82319099999999
 30
0.0
  9
$EXTMIN
 10
0.0
 20
-1.4802182810368341
 30
0.0
  9
$EXTMAX
 10
101.7310036877185
 20
43.61875438585902
 30
0.0
  9
$LIMMIN
 10
0.0
 20
0.0
  9
$LIMMAX
 10
187.5
 20
135.0
  9
$ORTHOMODE
 70
     1
  9
$REGENMODE
 70
     1
  9
$FILLMODE
 70
     1
  9
$QTEXTMODE
 70
     0
  9
$MIRRTEXT
 70
     0
  9
$DRAGMODE
 70
     2
  9
$LTSCALE
 40
5.0
  9
$OSMODE
 70
  3071
  9
$ATTMODE
 70
     1
  9
$TEXTSIZE
 40
0.06
  9
$TRACEWID
 40
0.05
  9
$TEXTSTYLE
  7
STANDARD
  9
$CLAYER
  8
0
  9
$CELTYPE
  6
BYLAYER
  9
$CECOLOR
 62
   256
  9
$DIMSCALE
 40
0.5
  9
$DIMASZ
 40
3.0
  9
$DIMEXO
 40
2.0
  9
$DIMDLI
 40
10.0
  9
$DIMRND
 40
0.0
  9
$DIMDLE
 40
0.0
  9
$DIMEXE
 40
2.0
  9
$DIMTP
 40
0.0
  9
$DIMTM
 40
0.0
  9
$DIMTXT
 40
3.0
  9
$DIMCEN
 40
0.0
  9
$DIMTSZ
 40
0.0
  9
$DIMTOL
 70
     0
  9
$DIMLIM
 70
     0
  9
$DIMTIH
 70
     0
  9
$DIMTOH
 70
     0
  9
$DIMSE1
 70
     0
  9
$DIMSE2
 70
     0
  9
$DIMTAD
 70
     1
  9
$DIMZIN
 70
     0
  9
$DIMBLK
  1

  9
$DIMASO
 70
     0
  9
$DIMSHO
 70
     0
  9
$DIMPOST
  1

  9
$DIMAPOST
  1

  9
$DIMALT
 70
     0
  9
$DIMALTD
 70
     2
  9
$DIMALTF
 40
25.399999999999999
  9
$DIMLFAC
 40
1.0
  9
$DIMTOFL
 70
     1
  9
$DIMTVP
 40
1.6000000000000001
  9
$DIMTIX
 70
     1
  9
$DIMSOXD
 70
     0
  9
$DIMSAH
 70
     0
  9
$DIMBLK1
  1

  9
$DIMBLK2
  1

  9
$DIMSTYLE
  2
STANDARD
  9
$DIMCLRD
 70
     0
  9
$DIMCLRE
 70
     0
  9
$DIMCLRT
 70
     0
  9
$DIMTFAC
 40
1.0
  9
$DIMGAP
 40
0.09
  9
$LUNITS
 70
     2
  9
$LUPREC
 70
     4
  9
$SKETCHINC
 40
0.1
  9
$FILLETRAD
 40
0.4
  9
$AUNITS
 70
     0
  9
$AUPREC
 70
     4
  9
$MENU
  1
E:\r13\win\SUPPORT\ACAD
  9
$ELEVATION
 40
0.0
  9
$PELEVATION
 40
0.0
  9
$THICKNESS
 40
0.0
  9
$LIMCHECK
 70
     0
  9
$BLIPMODE
 70
     0
  9
$CHAMFERA
 40
0.0
  9
$CHAMFERB
 40
0.0
  9
$SKPOLY
 70
     0
  9
$TDCREATE
 40
2449840.591099537
  9
$TDUPDATE
 40
2456602.612967107
  9
$TDINDWG
 40
0.023035706
  9
$TDUSRTIMER
 40
2456598.334423067
  9
$USRTIMER
 70
     1
  9
$ANGBASE
 50
0.0
  9
$ANGDIR
 70
     0
  9
$PDMODE
 70
     0
  9
$PDSIZE
 40
0.0
  9
$PLINEWID
 40
0.0
  9
$COORDS
 70
     1
  9
$SPLFRAME
 70
     0
  9
$SPLINETYPE
 70
     6
  9
$SPLINESEGS
 70
     8
  9
$ATTDIA
 70
     0
  9
$ATTREQ
 70
     1
  9
$HANDLING
 70
     1
  9
$HANDSEED
  5
59D
  9
$SURFTAB1
 70
     6
  9
$SURFTAB2
 70
     6
  9
$SURFTYPE
 70
     6
  9
$SURFU
 70
     6
  9
$SURFV
 70
     6
  9
$UCSNAME
  2

  9
$UCSORG
 10
0.0
 20
0.0
 30
0.0
  9
$UCSXDIR
 10
1.0
 20
0.0
 30
0.0
  9
$UCSYDIR
 10
0.0
 20
1.0
 30
0.0
  9
$PUCSNAME
  2

  9
$PUCSORG
 10
0.0
 20
0.0
 30
0.0
  9
$PUCSXDIR
 10
1.0
 20
0.0
 30
0.0
  9
$PUCSYDIR
 10
0.0
 20
1.0
 30
0.0
  9
$USERI1
 70
     3
  9
$USERI2
 70
     1
  9
$USERI3
 70
     0
  9
$USERI4
 70
     0
  9
$USERI5
 70
     0
  9
$USERR1
 40
0.5
  9
$USERR2
 40
3.0
  9
$USERR3
 40
3.0
  9
$USERR4
 40
3.0
  9
$USERR5
 40
10.0
  9
$WORLDVIEW
 70
     1
  9
$SHADEDGE
 70
     3
  9
$SHADEDIF
 70
    70
  9
$TILEMODE
 70
     1
  9
$MAXACTVP
 70
    16
  9
$PLIMCHECK
 70
     0
  9
$PEXTMIN
 10
1.0000000000000000E+020
 20
1.0000000000000000E+020
 30
1.0000000000000000E+020
  9
$PEXTMAX
 10
-1.0000000000000000E+020
 20
-1.0000000000000000E+020
 30
-1.0000000000000000E+020
  9
$PLIMMIN
 10
0.0
 20
0.0
  9
$PLIMMAX
 10
12.0
 20
9.0
  9
$UNITMODE
 70
     0
  9
$VISRETAIN
 70
     0
  9
$PLINEGEN
 70
     0
  9
$PSLTSCALE
 70
     0
  0
ENDSEC
  0
SECTION
  2
TABLES
  0
TABLE
  2
VPORT
 70
     1
  0
VPORT
  2
*ACTIVE
 70
     0
 10
0.0
 20
0.0
 11
1.0
 21
1.0
 12
93.747139195326156
 22
95.708553997498456
 13
0.0
 23
0.0
 14
5.0
 24
5.0
 15
10.0
 25
10.0
 16
0.0
 26
0.0
 36
1.0
 17
0.0
 27
0.0
 37
0.0
 40
196.1527818239488
 41
1.831871345029239
 42
50.0
 43
0.0
 44
0.0
 50
0.0
 51
0.0
 71
     0
 72
   100
 73
     1
 74
     0
 75
     0
 76
     0
 77
     0
 78
     0
  0
ENDTAB
  0
TABLE
  2
LTYPE
 70
     3
  0
LTYPE
  2
CONTINUOUS
 70
     0
  3
Solid Line
 72
    65
 73
     0
 40
0.0
  0
LTYPE
  2
CENTER
 70
     0
  3
____ _ ____ _ ____ _ ____ _ ____ _ ____ _ ____
 72
    65
 73
     4
 40
2.0
 49
1.25
 49
-0.25
 49
0.25
 49
-0.25
  0
LTYPE
  2
PHANTOM2
 70
     0
  3
___ _ _ ___ _ _ ___ _ _ ___ _ _
 72
    65
 73
     6
 40
1.25
 49
0.625
 49
-0.125
 49
0.125
 49
-0.125
 49
0.125
 49
-0.125
  0
ENDTAB
  0
TABLE
  2
LAYER
 70
     3
  0
LAYER
  2
0
 70
     0
 62
     7
  6
CONTINUOUS
  0
LAYER
  2
1
 70
     0
 62
     1
  6
CENTER
  0
LAYER
  2
3
 70
     0
 62
     3
  6
CONTINUOUS
  0
ENDTAB
  0
TABLE
  2
STYLE
 70
     2
  0
STYLE
  2
STANDARD
 70
     0
 40
0.0
 41
1.0
 50
0.0
 71
     0
 42
0.06
  3
TXT
  4
BIGFONT
  0
STYLE
  2
STANDARD1
 70
     0
 40
0.0
 41
1.0
 50
0.0
 71
     0
 42
3.0
  3
txt
  4

  0
ENDTAB
  0
TABLE
  2
VIEW
 70
     0
  0
ENDTAB
  0
TABLE
  2
UCS
 70
     0
  0
ENDTAB
  0
TABLE
  2
APPID
 70
     3
  0
APPID
  2
ACAD
 70
     0
  0
APPID
  2
ACAD_MLEADERVER
 70
     0
  0
APPID
  2
ACAD_NAV_VCDISPLAY
 70
     0
  0
ENDTAB
  0
TABLE
  2
DIMSTYLE
 70
     1
  0
DIMSTYLE
  2
STANDARD
 70
     0
  3

  4

  5

  6

  7

 40
1.0
 41
0.18
 42
0.0625
 43
0.38
 44
0.18
 45
0.0
 46
0.0
 47
0.0
 48
0.0
140
0.18
141
0.09
142
0.0
143
25.399999999999999
144
1.0
145
0.0
146
1.0
147
0.09
 71
     0
 72
     0
 73
     1
 74
     1
 75
     0
 76
     0
 77
     0
 78
     0
170
     0
171
     2
172
     0
173
     0
174
     0
175
     0
176
     0
177
     0
178
     0
  0
ENDTAB
  0
ENDSEC
  0
SECTION
  2
BLOCKS
  0
BLOCK
  8
0
  2
$MODEL_SPACE
 70
     0
 10
0.0
 20
0.0
 30
0.0
  3
$MODEL_SPACE
  1

  0
ENDBLK
  5
C5
  8
0
  0
BLOCK
 67
     1
  8
0
  2
$PAPER_SPACE
 70
     0
 10
0.0
 20
0.0
 30
0.0
  3
$PAPER_SPACE
  1

  0
ENDBLK
  5
C3
 67
     1
  8
0
  0
ENDSEC
  0
SECTION
  2
ENTITIES
  0
LINE
  5
25E
  8
0
 10
44.125617714767763
 20
30.61875438585901
 30
0.0
 11
45.051222837189151
 21
31.544359508280401
 31
0.0
  0
LINE
  5
25F
  8
0
 10
45.051222837189151
 20
37.693149263437633
 30
0.0
 11
44.125617714767763
 21
38.618754385859013
 31
0.0
  0
ARC
  5
260
  8
0
 10
44.125617714767763
 20
38.237754385859013
 30
0.0
 40
0.3810000000000002
 50
90.0
 51
180.0
  0
ARC
  5
261
  8
0
 10
44.125617714767763
 20
30.99975438585901
 30
0.0
 40
0.3810000000000002
 50
179.99999999999889
 51
270.0
  0
ARC
  5
262
  8
0
 10
45.230827959610536
 20
31.364754385859019
 30
0.0
 40
0.2540000000000035
 50
90.0
 51
135.0
  0
ARC
  5
263
  8
0
 10
45.230827959610536
 20
37.872754385859032
 30
0.0
 40
0.2540000000000035
 50
225.0
 51
270.0
  0
LINE
  5
264
  8
0
 10
45.230827959610536
 20
31.61875438585901
 30
0.0
 11
45.74461771476777
 21
31.61875438585901
 31
0.0
  0
LINE
  5
265
  8
0
 10
45.74461771476777
 20
37.618754385859013
 30
0.0
 11
45.230827959610536
 21
37.61875438585902
 31
0.0
  0
LINE
  5
2DA
  8
0
 10
44.125617714767763
 20
30.61875438585901
 30
0.0
 11
44.125617714767763
 21
38.618754385859013
 31
0.0
  0
LINE
  5
2DC
  8
0
 10
43.744617714767763
 20
30.99975438585901
 30
0.0
 11
43.744617714767763
 21
38.237754385859013
 31
0.0
  0
LINE
  5
31B
  8
0
 10
45.051222837189151
 20
31.544359508280401
 30
0.0
 11
45.051222837189151
 21
37.693149263437633
 31
0.0
  0
LINE
  5
31C
  8
0
 10
45.230827959610536
 20
37.61875438585902
 30
0.0
 11
45.230827959610536
 21
31.61875438585901
 31
0.0
  0
CIRCLE
  5
36E
  8
0
 10
14.25552854959704
 20
34.618754385859013
 30
0.0
 40
3.9999999999999938
  0
CIRCLE
  5
370
  8
3
 10
14.25552854959704
 20
34.618754385859013
 30
0.0
 40
5.0529999999999973
  0
CIRCLE
  5
372
  8
0
 10
14.25552854959704
 20
34.618754385859013
 30
0.0
 40
6.0000000000000027
  0
CIRCLE
  5
395
  8
0
 10
92.731003687718527
 20
34.618754385859013
 30
0.0
 40
4.2679490000000007
  0
CIRCLE
  5
396
  8
3
 10
92.731003687718527
 20
34.618754385859013
 30
0.0
 40
5.0529999999999973
  0
ARC
  5
397
  8
0
 10
92.731003687718527
 20
34.618754385859013
 30
0.0
 40
3.0734000000003121
 50
107.4528740610745
 51
132.54712593896139
  0
LINE
  5
398
  8
0
 10
90.652781697474751
 20
36.882993975493747
 30
0.0
 11
89.731003687718527
 21
36.350805193427902
 31
0.0
  0
LINE
  5
399
  8
0
 10
89.731003687718527
 20
36.350805193427902
 30
0.0
 11
89.731003687718527
 21
35.286427629294749
 31
0.0
  0
ARC
  5
39A
  8
0
 10
92.731003687718527
 20
34.618754385859013
 30
0.0
 40
3.073399999999999
 50
167.4528740610655
 51
192.5471259389353
  0
LINE
  5
39B
  8
0
 10
89.731003687718527
 20
33.951081142423277
 30
0.0
 11
89.731003687718527
 21
32.886703578290138
 31
0.0
  0
LINE
  5
39C
  8
0
 10
89.731003687718527
 20
32.886703578290138
 30
0.0
 11
90.652781697476001
 21
32.354514796223548
 31
0.0
  0
ARC
  5
39D
  8
0
 10
92.731003687718527
 20
34.618754385859013
 30
0.0
 40
3.0734000000003121
 50
227.4528740610655
 51
252.54712593896269
  0
LINE
  5
39E
  8
0
 10
91.809225677962246
 20
31.686841552787111
 30
0.0
 11
92.731003687718527
 21
31.15465277072126
 31
0.0
  0
LINE
  5
39F
  8
0
 10
92.731003687718527
 20
31.15465277072126
 30
0.0
 11
93.652781697476001
 21
31.686841552787818
 31
0.0
  0
ARC
  5
3A0
  8
0
 10
92.731003687718527
 20
34.618754385859013
 30
0.0
 40
3.0734000000003112
 50
287.45287406106462
 51
312.5471259389621
  0
LINE
  5
3A1
  8
0
 10
94.809225677962246
 20
32.354514796224301
 30
0.0
 11
95.731003687718527
 21
32.886703578290138
 31
0.0
  0
LINE
  5
3A2
  8
0
 10
95.731003687718527
 20
32.886703578290138
 30
0.0
 11
95.731003687718527
 21
33.951081142423277
 31
0.0
  0
ARC
  5
3A3
  8
0
 10
92.731003687718527
 20
34.618754385859013
 30
0.0
 40
3.0734000000000141
 50
347.45287406106632
 51
12.54712593893457
  0
LINE
  5
3A4
  8
0
 10
95.731003687718527
 20
35.286427629294757
 30
0.0
 11
95.731003687718527
 21
36.350805193427931
 31
0.0
  0
LINE
  5
3A5
  8
0
 10
95.731003687718527
 20
36.350805193427931
 30
0.0
 11
94.809225677960555
 21
36.882993975494742
 31
0.0
  0
ARC
  5
3A6
  8
0
 10
92.731003687718527
 20
34.618754385859013
 30
0.0
 40
3.073400000000003
 50
47.452874061074198
 51
72.547125938935565
  0
LINE
  5
3A7
  8
0
 10
93.652781697476001
 20
37.550667218930201
 30
0.0
 11
92.731003687718527
 21
38.08285600099677
 31
0.0
  0
LINE
  5
3A8
  8
0
 10
92.731003687718527
 20
38.08285600099677
 30
0.0
 11
91.809225677960541
 21
37.550667218929931
 31
0.0
  0
CIRCLE
  5
3AB
  8
0
 10
92.731003687718527
 20
34.618754385859013
 30
0.0
 40
6.0000000000000142
  0
ARC
  5
3AC
  8
0
 10
92.731003687718527
 20
34.618754385859013
 30
0.0
 40
3.0734000000000141
 50
12.54712593893457
 51
47.45287406106501
  0
ARC
  5
3AD
  8
0
 10
92.731003687718527
 20
34.618754385859013
 30
0.0
 40
3.0734000000000128
 50
312.54712593893549
 51
347.45287406106632
  0
ARC
  5
3AE
  8
0
 10
92.731003687718527
 20
34.618754385859013
 30
0.0
 40
3.073400000000003
 50
252.54712593893561
 51
287.45287406106769
  0
ARC
  5
3AF
  8
0
 10
92.731003687718527
 20
34.618754385859013
 30
0.0
 40
3.073400000000007
 50
72.547125938935366
 51
107.45287406106441
  0
ARC
  5
3B0
  8
0
 10
92.731003687718527
 20
34.618754385859013
 30
0.0
 40
3.0733999999999968
 50
192.54712593893521
 51
227.45287406106559
  0
ARC
  5
3B1
  8
0
 10
92.731003687718527
 20
34.618754385859013
 30
0.0
 40
3.0733999999999999
 50
132.5471259389349
 51
167.4528740610655
  0
LINE
  5
3C6
  8
1
 10
101.7310036877185
 20
34.618754385859013
 30
0.0
 11
83.731003687718527
 21
34.618754385859013
 31
0.0
  0
LINE
  5
3C7
  8
1
 10
14.25552854959704
 20
25.61875438585901
 30
0.0
 11
14.25552854959704
 21
43.618754385858999
 31
0.0
  0
LINE
  5
3C8
  8
1
 10
92.731003687718527
 20
25.618754385858988
 30
0.0
 11
92.731003687718527
 21
43.61875438585902
 31
0.0
  0
LINE
  5
3CB
  8
0
 10
70.74461771476777
 20
38.886703385859008
 30
0.0
 11
70.74461771476777
 21
30.350805385859001
 31
0.0
  0
LINE
  5
3CC
  8
0
 10
69.74461771476777
 20
40.618754385858999
 30
0.0
 11
46.74461771476777
 21
40.618754385858999
 31
0.0
  0
LINE
  5
3CD
  8
0
 10
69.74461771476777
 20
40.618754385858999
 30
0.0
 11
69.74461771476777
 21
28.61875438585901
 31
0.0
  0
LINE
  5
3CE
  8
0
 10
45.74461771476777
 20
38.886703385859008
 30
0.0
 11
45.74461771476777
 21
30.350805385859001
 31
0.0
  0
LINE
  5
3CF
  8
0
 10
46.74461771476777
 20
40.618754385858999
 30
0.0
 11
46.74461771476777
 21
28.61875438585901
 31
0.0
  0
LINE
  5
3D0
  8
0
 10
46.74461771476777
 20
40.618754385858999
 30
0.0
 11
45.74461771476777
 21
38.886703385859008
 31
0.0
  0
LINE
  5
3D1
  8
0
 10
69.74461771476777
 20
40.618754385858999
 30
0.0
 11
70.74461771476777
 21
38.886703385859008
 31
0.0
  0
LINE
  5
3D2
  8
3
 10
70.291368714767742
 20
39.67175438585901
 30
0.0
 11
46.197866714767741
 21
39.67175438585901
 31
0.0
  0
LINE
  5
3D3
  8
3
 10
70.291368714767742
 20
29.565754385859009
 30
0.0
 11
46.197866714767741
 21
29.565754385859009
 31
0.0
  0
LINE
  5
3D4
  8
0
 10
69.74461771476777
 20
28.61875438585901
 30
0.0
 11
70.74461771476777
 21
30.350805385859001
 31
0.0
  0
LINE
  5
3D5
  8
0
 10
46.74461771476777
 20
28.61875438585901
 30
0.0
 11
45.74461771476777
 21
30.350805385859001
 31
0.0
  0
LINE
  5
3D6
  8
0
 10
69.74461771476777
 20
28.61875438585901
 30
0.0
 11
46.74461771476777
 21
28.61875438585901
 31
0.0
  0
CIRCLE
  5
3DB
  8
0
 10
14.25552854959704
 20
34.618754385859013
 30
0.0
 40
4.267963208573673
  0
LINE
  5
3E1
  8
1
 10
73.74461771476777
 20
34.618754385859013
 30
0.0
 11
40.74461771476777
 21
34.618754385859013
 31
0.0
  0
LINE
  5
3E2
  8
1
 10
23.255528549597042
 20
34.618754385859013
 30
0.0
 11
5.2555285495970452
 21
34.618754385859013
 31
0.0
  0
TEXT
  5
4F9
  8
0
 62
     3
 10
0.0
 20
0.0
 30
0.0
 40
5.0
  1
TBU-12025-DS
  7
STANDARD1
  0
ENDSEC
  0
EOF
