  0
SECTION
  2
HEADER
  9
$ACADVER
  1
AC1009
  9
$INSBASE
 10
0.0
 20
0.0
 30
0.0
  9
$EXTMIN
 10
0.0
 20
-1.4802182810368341
 30
0.0
  9
$EXTMAX
 10
123.35659566826411
 20
41.711951545020099
 30
0.0
  9
$LIMMIN
 10
0.0
 20
0.0
  9
$LIMMAX
 10
187.5
 20
135.0
  9
$ORTHOMODE
 70
     1
  9
$REGENMODE
 70
     1
  9
$FILLMODE
 70
     1
  9
$QTEXTMODE
 70
     0
  9
$MIRRTEXT
 70
     0
  9
$DRAGMODE
 70
     2
  9
$LTSCALE
 40
5.0
  9
$OSMODE
 70
  3071
  9
$ATTMODE
 70
     1
  9
$TEXTSIZE
 40
0.06
  9
$TRACEWID
 40
0.05
  9
$TEXTSTYLE
  7
STANDARD
  9
$CLAYER
  8
0
  9
$CELTYPE
  6
BYLAYER
  9
$CECOLOR
 62
   256
  9
$DIMSCALE
 40
0.5
  9
$DIMASZ
 40
3.0
  9
$DIMEXO
 40
2.0
  9
$DIMDLI
 40
10.0
  9
$DIMRND
 40
0.0
  9
$DIMDLE
 40
0.0
  9
$DIMEXE
 40
2.0
  9
$DIMTP
 40
0.0
  9
$DIMTM
 40
0.0
  9
$DIMTXT
 40
3.0
  9
$DIMCEN
 40
0.0
  9
$DIMTSZ
 40
0.0
  9
$DIMTOL
 70
     0
  9
$DIMLIM
 70
     0
  9
$DIMTIH
 70
     0
  9
$DIMTOH
 70
     0
  9
$DIMSE1
 70
     0
  9
$DIMSE2
 70
     0
  9
$DIMTAD
 70
     1
  9
$DIMZIN
 70
     0
  9
$DIMBLK
  1

  9
$DIMASO
 70
     0
  9
$DIMSHO
 70
     0
  9
$DIMPOST
  1

  9
$DIMAPOST
  1

  9
$DIMALT
 70
     0
  9
$DIMALTD
 70
     2
  9
$DIMALTF
 40
25.399999999999999
  9
$DIMLFAC
 40
1.0
  9
$DIMTOFL
 70
     1
  9
$DIMTVP
 40
1.6000000000000001
  9
$DIMTIX
 70
     1
  9
$DIMSOXD
 70
     0
  9
$DIMSAH
 70
     0
  9
$DIMBLK1
  1

  9
$DIMBLK2
  1

  9
$DIMSTYLE
  2
STANDARD
  9
$DIMCLRD
 70
     0
  9
$DIMCLRE
 70
     0
  9
$DIMCLRT
 70
     0
  9
$DIMTFAC
 40
1.0
  9
$DIMGAP
 40
0.09
  9
$LUNITS
 70
     2
  9
$LUPREC
 70
     4
  9
$SKETCHINC
 40
0.1
  9
$FILLETRAD
 40
0.4
  9
$AUNITS
 70
     0
  9
$AUPREC
 70
     4
  9
$MENU
  1
E:\r13\win\SUPPORT\ACAD
  9
$ELEVATION
 40
0.0
  9
$PELEVATION
 40
0.0
  9
$THICKNESS
 40
0.0
  9
$LIMCHECK
 70
     0
  9
$BLIPMODE
 70
     0
  9
$CHAMFERA
 40
0.0
  9
$CHAMFERB
 40
0.0
  9
$SKPOLY
 70
     0
  9
$TDCREATE
 40
2449840.591157407
  9
$TDUPDATE
 40
2456602.6124118981
  9
$TDINDWG
 40
0.013775463
  9
$TDUSRTIMER
 40
2456598.33512206
  9
$USRTIMER
 70
     1
  9
$ANGBASE
 50
0.0
  9
$ANGDIR
 70
     0
  9
$PDMODE
 70
     0
  9
$PDSIZE
 40
0.0
  9
$PLINEWID
 40
0.0
  9
$COORDS
 70
     1
  9
$SPLFRAME
 70
     0
  9
$SPLINETYPE
 70
     6
  9
$SPLINESEGS
 70
     8
  9
$ATTDIA
 70
     0
  9
$ATTREQ
 70
     1
  9
$HANDLING
 70
     1
  9
$HANDSEED
  5
589
  9
$SURFTAB1
 70
     6
  9
$SURFTAB2
 70
     6
  9
$SURFTYPE
 70
     6
  9
$SURFU
 70
     6
  9
$SURFV
 70
     6
  9
$UCSNAME
  2

  9
$UCSORG
 10
0.0
 20
0.0
 30
0.0
  9
$UCSXDIR
 10
1.0
 20
0.0
 30
0.0
  9
$UCSYDIR
 10
0.0
 20
1.0
 30
0.0
  9
$PUCSNAME
  2

  9
$PUCSORG
 10
0.0
 20
0.0
 30
0.0
  9
$PUCSXDIR
 10
1.0
 20
0.0
 30
0.0
  9
$PUCSYDIR
 10
0.0
 20
1.0
 30
0.0
  9
$USERI1
 70
     3
  9
$USERI2
 70
     1
  9
$USERI3
 70
     0
  9
$USERI4
 70
     0
  9
$USERI5
 70
     0
  9
$USERR1
 40
0.5
  9
$USERR2
 40
3.0
  9
$USERR3
 40
3.0
  9
$USERR4
 40
3.0
  9
$USERR5
 40
10.0
  9
$WORLDVIEW
 70
     1
  9
$SHADEDGE
 70
     3
  9
$SHADEDIF
 70
    70
  9
$TILEMODE
 70
     1
  9
$MAXACTVP
 70
    16
  9
$PLIMCHECK
 70
     0
  9
$PEXTMIN
 10
1.0000000000000000E+020
 20
1.0000000000000000E+020
 30
1.0000000000000000E+020
  9
$PEXTMAX
 10
-1.0000000000000000E+020
 20
-1.0000000000000000E+020
 30
-1.0000000000000000E+020
  9
$PLIMMIN
 10
0.0
 20
0.0
  9
$PLIMMAX
 10
12.0
 20
9.0
  9
$UNITMODE
 70
     0
  9
$VISRETAIN
 70
     0
  9
$PLINEGEN
 70
     0
  9
$PSLTSCALE
 70
     0
  0
ENDSEC
  0
SECTION
  2
TABLES
  0
TABLE
  2
VPORT
 70
     1
  0
VPORT
  2
*ACTIVE
 70
     0
 10
0.0
 20
0.0
 11
1.0
 21
1.0
 12
93.747139195326156
 22
95.708553997498456
 13
0.0
 23
0.0
 14
5.0
 24
5.0
 15
10.0
 25
10.0
 16
0.0
 26
0.0
 36
1.0
 17
0.0
 27
0.0
 37
0.0
 40
196.1527818239488
 41
1.831871345029239
 42
50.0
 43
0.0
 44
0.0
 50
0.0
 51
0.0
 71
     0
 72
   100
 73
     1
 74
     0
 75
     0
 76
     0
 77
     0
 78
     0
  0
ENDTAB
  0
TABLE
  2
LTYPE
 70
     3
  0
LTYPE
  2
CONTINUOUS
 70
     0
  3
Solid Line
 72
    65
 73
     0
 40
0.0
  0
LTYPE
  2
CENTER
 70
     0
  3
____ _ ____ _ ____ _ ____ _ ____ _ ____ _ ____
 72
    65
 73
     4
 40
2.0
 49
1.25
 49
-0.25
 49
0.25
 49
-0.25
  0
LTYPE
  2
PHANTOM2
 70
     0
  3
___ _ _ ___ _ _ ___ _ _ ___ _ _
 72
    65
 73
     6
 40
1.25
 49
0.625
 49
-0.125
 49
0.125
 49
-0.125
 49
0.125
 49
-0.125
  0
ENDTAB
  0
TABLE
  2
LAYER
 70
     3
  0
LAYER
  2
0
 70
     0
 62
     7
  6
CONTINUOUS
  0
LAYER
  2
1
 70
     0
 62
     1
  6
CENTER
  0
LAYER
  2
3
 70
     0
 62
     3
  6
CONTINUOUS
  0
ENDTAB
  0
TABLE
  2
STYLE
 70
     2
  0
STYLE
  2
STANDARD
 70
     0
 40
0.0
 41
1.0
 50
0.0
 71
     0
 42
0.06
  3
TXT
  4
BIGFONT
  0
STYLE
  2
STANDARD1
 70
     0
 40
0.0
 41
1.0
 50
0.0
 71
     0
 42
3.0
  3
txt
  4

  0
ENDTAB
  0
TABLE
  2
VIEW
 70
     0
  0
ENDTAB
  0
TABLE
  2
UCS
 70
     0
  0
ENDTAB
  0
TABLE
  2
APPID
 70
     3
  0
APPID
  2
ACAD
 70
     0
  0
APPID
  2
ACAD_MLEADERVER
 70
     0
  0
APPID
  2
ACAD_NAV_VCDISPLAY
 70
     0
  0
ENDTAB
  0
TABLE
  2
DIMSTYLE
 70
     1
  0
DIMSTYLE
  2
STANDARD
 70
     0
  3

  4

  5

  6

  7

 40
1.0
 41
0.18
 42
0.0625
 43
0.38
 44
0.18
 45
0.0
 46
0.0
 47
0.0
 48
0.0
140
0.18
141
0.09
142
0.0
143
25.399999999999999
144
1.0
145
0.0
146
1.0
147
0.09
 71
     0
 72
     0
 73
     1
 74
     1
 75
     0
 76
     0
 77
     0
 78
     0
170
     0
171
     2
172
     0
173
     0
174
     0
175
     0
176
     0
177
     0
178
     0
  0
ENDTAB
  0
ENDSEC
  0
SECTION
  2
BLOCKS
  0
BLOCK
  8
0
  2
$MODEL_SPACE
 70
     0
 10
0.0
 20
0.0
 30
0.0
  3
$MODEL_SPACE
  1

  0
ENDBLK
  5
E2
  8
0
  0
BLOCK
 67
     1
  8
0
  2
$PAPER_SPACE
 70
     0
 10
0.0
 20
0.0
 30
0.0
  3
$PAPER_SPACE
  1

  0
ENDBLK
  5
E0
 67
     1
  8
0
  0
ENDSEC
  0
SECTION
  2
ENTITIES
  0
LINE
  5
260
  8
0
 10
49.65183859364106
 20
25.211951545020099
 30
0.0
 11
51.07744371606244
 21
26.637556667441491
 31
0.0
  0
LINE
  5
261
  8
0
 10
51.07744371606244
 20
34.786346422598712
 30
0.0
 11
49.65183859364106
 21
36.211951545020099
 31
0.0
  0
ARC
  5
262
  8
0
 10
49.65183859364106
 20
35.57695154502008
 30
0.0
 40
0.6350000000000052
 50
90.0
 51
180.0
  0
ARC
  5
263
  8
0
 10
49.65183859364106
 20
25.84695154502009
 30
0.0
 40
0.6350000000000052
 50
180.0
 51
270.0
  0
ARC
  5
264
  8
0
 10
51.257048838483819
 20
26.45795154502008
 30
0.0
 40
0.2539999999999984
 50
90.0
 51
135.00000000000111
  0
ARC
  5
265
  8
0
 10
51.257048838483819
 20
34.96595154502009
 30
0.0
 40
0.2540000000000049
 50
225.0
 51
270.0
  0
LINE
  5
266
  8
0
 10
51.257048838483819
 20
26.711951545020099
 30
0.0
 11
52.016838593641069
 21
26.711951545020099
 31
0.0
  0
LINE
  5
267
  8
0
 10
52.016838593641069
 20
34.711951545020099
 30
0.0
 11
51.257048838483819
 21
34.711951545020099
 31
0.0
  0
LINE
  5
2CA
  8
0
 10
49.65183859364106
 20
25.211951545020131
 30
0.0
 11
49.65183859364106
 21
36.211951545020099
 31
0.0
  0
LINE
  5
2CC
  8
0
 10
49.016838593641069
 20
25.84695154502009
 30
0.0
 11
49.016838593641069
 21
35.57695154502008
 31
0.0
  0
LINE
  5
301
  8
0
 10
51.077443716062483
 20
26.637556667441508
 30
0.0
 11
51.07744371606244
 21
34.786346422598712
 31
0.0
  0
LINE
  5
304
  8
0
 10
51.257048838483819
 20
34.711951545020099
 30
0.0
 11
51.257048838483819
 21
26.711951545020071
 31
0.0
  0
CIRCLE
  5
355
  8
0
 10
20.028319425170341
 20
30.711951545020099
 30
0.0
 40
5.5
  0
CIRCLE
  5
356
  8
0
 10
20.028319425170341
 20
30.711951545020099
 30
0.0
 40
6.0947439999999906
  0
CIRCLE
  5
357
  8
3
 10
20.028319425170341
 20
30.711951545020099
 30
0.0
 40
6.9175000000000182
  0
CIRCLE
  5
358
  8
0
 10
20.028319425170341
 20
30.711951545020099
 30
0.0
 40
8.0
  0
CIRCLE
  5
37C
  8
0
 10
112.35659566826411
 20
30.711951545020099
 30
0.0
 40
6.0947439999999906
  0
CIRCLE
  5
37D
  8
3
 10
112.35659566826411
 20
30.711951545020099
 30
0.0
 40
6.9175000000000182
  0
ARC
  5
37E
  8
0
 10
112.35659566826411
 20
30.711951545020099
 30
0.0
 40
4.1021000000000081
 50
107.1899063004924
 51
132.81009369951011
  0
LINE
  5
37F
  8
0
 10
109.5689293001234
 20
33.721293770480202
 30
0.0
 11
108.35659566826411
 21
33.02135262177859
 31
0.0
  0
LINE
  5
380
  8
0
 10
108.35659566826411
 20
33.02135262177859
 30
0.0
 11
108.35659566826411
 21
31.621470324375419
 31
0.0
  0
ARC
  5
381
  8
0
 10
112.35659566826411
 20
30.711951545020099
 30
0.0
 40
4.1021000000000001
 50
167.1899063004912
 51
192.8100936995103
  0
LINE
  5
382
  8
0
 10
108.35659566826411
 20
29.802432765664779
 30
0.0
 11
108.35659566826411
 21
28.40255046826158
 31
0.0
  0
LINE
  5
383
  8
0
 10
108.35659566826411
 20
28.40255046826158
 30
0.0
 11
109.5689293001234
 21
27.702609319560001
 31
0.0
  0
ARC
  5
384
  8
0
 10
112.35659566826411
 20
30.711951545020099
 30
0.0
 40
4.1021000000000019
 50
227.1899063004922
 51
252.8100936995113
  0
LINE
  5
385
  8
0
 10
111.1442620364049
 20
26.79309054020468
 30
0.0
 11
112.35659566826411
 21
26.09314939150309
 31
0.0
  0
LINE
  5
386
  8
0
 10
112.35659566826411
 20
26.09314939150309
 30
0.0
 11
113.5689293001234
 21
26.79309054020468
 31
0.0
  0
ARC
  5
387
  8
0
 10
112.35659566826411
 20
30.711951545020099
 30
0.0
 40
4.1020999999999921
 50
287.18990630049228
 51
312.81009369951028
  0
LINE
  5
388
  8
0
 10
115.1442620364049
 20
27.702609319560001
 30
0.0
 11
116.35659566826411
 21
28.402550468261609
 31
0.0
  0
LINE
  5
389
  8
0
 10
116.35659566826411
 20
28.402550468261609
 30
0.0
 11
116.35659566826411
 21
29.802432765664779
 31
0.0
  0
ARC
  5
38A
  8
0
 10
112.35659566826411
 20
30.711951545020099
 30
0.0
 40
4.102099999999985
 50
347.1899063004912
 51
12.810093699508711
  0
LINE
  5
38B
  8
0
 10
116.35659566826411
 20
31.621470324375419
 30
0.0
 11
116.35659566826411
 21
33.02135262177859
 31
0.0
  0
LINE
  5
38C
  8
0
 10
116.35659566826411
 20
33.02135262177859
 30
0.0
 11
115.1442620364049
 21
33.721293770480202
 31
0.0
  0
ARC
  5
38D
  8
0
 10
112.35659566826411
 20
30.711951545020099
 30
0.0
 40
4.1021000000000027
 50
47.189906300489767
 51
72.810093699507718
  0
LINE
  5
38E
  8
0
 10
113.5689293001234
 20
34.630812549835532
 30
0.0
 11
112.35659566826401
 21
35.330753698537187
 31
0.0
  0
LINE
  5
38F
  8
0
 10
112.35659566826401
 20
35.330753698537187
 30
0.0
 11
111.1442620364049
 21
34.630812549835532
 31
0.0
  0
CIRCLE
  5
392
  8
0
 10
112.35659566826411
 20
30.711951545020099
 30
0.0
 40
8.0000000000000142
  0
ARC
  5
393
  8
0
 10
112.35659566826421
 20
30.711951545020099
 30
0.0
 40
4.1020999999999876
 50
312.81009369951022
 51
347.1899063004912
  0
ARC
  5
394
  8
0
 10
112.35659566826421
 20
30.711951545020099
 30
0.0
 40
4.102099999999993
 50
12.81009369950876
 51
47.189906300489703
  0
ARC
  5
395
  8
0
 10
112.35659566826421
 20
30.711951545020099
 30
0.0
 40
4.1020999999999956
 50
252.81009369951121
 51
287.18990630049228
  0
ARC
  5
396
  8
0
 10
112.35659566826421
 20
30.711951545020099
 30
0.0
 40
4.1021000000000027
 50
72.810093699507718
 51
107.1899063004922
  0
ARC
  5
397
  8
0
 10
112.35659566826421
 20
30.711951545020099
 30
0.0
 40
4.1021000000000019
 50
132.81009369951019
 51
167.1899063004912
  0
ARC
  5
398
  8
0
 10
112.35659566826421
 20
30.711951545020099
 30
0.0
 40
4.1020999999999956
 50
192.8100936995103
 51
227.18990630049211
  0
CIRCLE
  5
399
  8
0
 10
112.35659566826421
 20
30.711951545020099
 30
0.0
 40
1.186123411348873
  0
LINE
  5
3AD
  8
1
 10
123.35659566826411
 20
30.711951545020099
 30
0.0
 11
101.35659566826411
 21
30.711951545020099
 31
0.0
  0
LINE
  5
3AE
  8
1
 10
20.028319425170341
 20
19.711951545020099
 30
0.0
 11
20.028319425170341
 21
41.711951545020099
 31
0.0
  0
LINE
  5
3AF
  8
1
 10
112.35659566826421
 20
19.711951545020082
 30
0.0
 11
112.35659566826421
 21
41.711951545020099
 31
0.0
  0
LINE
  5
3B2
  8
0
 10
87.016838593641069
 20
36.806695545020091
 30
0.0
 11
87.016838593641069
 21
24.617207545020111
 31
0.0
  0
LINE
  5
3B3
  8
0
 10
85.916838593641046
 20
38.711951545020099
 30
0.0
 11
85.916838593641046
 21
22.711951545020099
 31
0.0
  0
LINE
  5
3B4
  8
0
 10
85.916838593641046
 20
38.711951545020099
 30
0.0
 11
53.116838593641027
 21
38.711951545020099
 31
0.0
  0
LINE
  5
3B5
  8
3
 10
86.541820593641035
 20
37.629451545020117
 30
0.0
 11
52.491856593641053
 21
37.629451545020117
 31
0.0
  0
LINE
  5
3B6
  8
0
 10
85.916838593641046
 20
38.711951545020099
 30
0.0
 11
87.016838593641069
 21
36.806695545020091
 31
0.0
  0
LINE
  5
3B7
  8
0
 10
52.016838593641069
 20
36.806695545020091
 30
0.0
 11
52.016838593641069
 21
24.617207545020111
 31
0.0
  0
LINE
  5
3B8
  8
0
 10
53.116838593641027
 20
38.711951545020099
 30
0.0
 11
53.116838593641027
 21
22.711951545020099
 31
0.0
  0
LINE
  5
3B9
  8
0
 10
53.116838593641027
 20
38.711951545020099
 30
0.0
 11
52.016838593641069
 21
36.806695545020091
 31
0.0
  0
LINE
  5
3BA
  8
0
 10
53.116838593641027
 20
22.711951545020099
 30
0.0
 11
52.016838593641069
 21
24.617207545020111
 31
0.0
  0
LINE
  5
3BB
  8
0
 10
85.916838593641046
 20
22.711951545020099
 30
0.0
 11
87.016838593641069
 21
24.617207545020111
 31
0.0
  0
LINE
  5
3BC
  8
3
 10
86.541820593641035
 20
23.794451545020092
 30
0.0
 11
52.491856593641053
 21
23.794451545020092
 31
0.0
  0
LINE
  5
3BD
  8
0
 10
85.916838593641046
 20
22.711951545020099
 30
0.0
 11
53.116838593641027
 21
22.711951545020099
 31
0.0
  0
LINE
  5
3C4
  8
1
 10
90.016838593641054
 20
30.711951545020099
 30
0.0
 11
46.016838593641069
 21
30.711951545020099
 31
0.0
  0
LINE
  5
3C5
  8
1
 10
31.028319425170341
 20
30.711951545020099
 30
0.0
 11
9.0283194251703378
 21
30.711951545020099
 31
0.0
  0
TEXT
  5
4E5
  8
0
 62
     3
 10
0.0
 20
0.0
 30
0.0
 40
5.0
  1
TBU-16035-DS
  7
STANDARD1
  0
ENDSEC
  0
EOF
