  0
SECTION
  2
HEADER
  9
$ACADVER
  1
AC1009
  9
$INSBASE
 10
82.638099999999994
 20
103.82319099999999
 30
0.0
  9
$EXTMIN
 10
0.0
 20
-1.4802182810368341
 30
0.0
  9
$EXTMAX
 10
138.16435955765451
 20
39.280176035357258
 30
0.0
  9
$LIMMIN
 10
0.0
 20
0.0
  9
$LIMMAX
 10
187.5
 20
135.0
  9
$ORTHOMODE
 70
     1
  9
$REGENMODE
 70
     1
  9
$FILLMODE
 70
     1
  9
$QTEXTMODE
 70
     0
  9
$MIRRTEXT
 70
     0
  9
$DRAGMODE
 70
     2
  9
$LTSCALE
 40
5.0
  9
$OSMODE
 70
    55
  9
$ATTMODE
 70
     1
  9
$TEXTSIZE
 40
0.06
  9
$TRACEWID
 40
0.05
  9
$TEXTSTYLE
  7
STANDARD
  9
$CLAYER
  8
0
  9
$CELTYPE
  6
BYLAYER
  9
$CECOLOR
 62
   256
  9
$DIMSCALE
 40
0.5
  9
$DIMASZ
 40
3.0
  9
$DIMEXO
 40
2.0
  9
$DIMDLI
 40
10.0
  9
$DIMRND
 40
0.0
  9
$DIMDLE
 40
0.0
  9
$DIMEXE
 40
2.0
  9
$DIMTP
 40
0.0
  9
$DIMTM
 40
0.0
  9
$DIMTXT
 40
3.0
  9
$DIMCEN
 40
0.0
  9
$DIMTSZ
 40
0.0
  9
$DIMTOL
 70
     0
  9
$DIMLIM
 70
     0
  9
$DIMTIH
 70
     0
  9
$DIMTOH
 70
     0
  9
$DIMSE1
 70
     0
  9
$DIMSE2
 70
     0
  9
$DIMTAD
 70
     1
  9
$DIMZIN
 70
     0
  9
$DIMBLK
  1

  9
$DIMASO
 70
     0
  9
$DIMSHO
 70
     0
  9
$DIMPOST
  1

  9
$DIMAPOST
  1

  9
$DIMALT
 70
     0
  9
$DIMALTD
 70
     2
  9
$DIMALTF
 40
25.399999999999999
  9
$DIMLFAC
 40
1.0
  9
$DIMTOFL
 70
     1
  9
$DIMTVP
 40
1.6000000000000001
  9
$DIMTIX
 70
     1
  9
$DIMSOXD
 70
     0
  9
$DIMSAH
 70
     0
  9
$DIMBLK1
  1

  9
$DIMBLK2
  1

  9
$DIMSTYLE
  2
STANDARD
  9
$DIMCLRD
 70
     0
  9
$DIMCLRE
 70
     0
  9
$DIMCLRT
 70
     0
  9
$DIMTFAC
 40
1.0
  9
$DIMGAP
 40
0.09
  9
$LUNITS
 70
     2
  9
$LUPREC
 70
     4
  9
$SKETCHINC
 40
0.1
  9
$FILLETRAD
 40
0.4
  9
$AUNITS
 70
     0
  9
$AUPREC
 70
     4
  9
$MENU
  1
E:\r13\win\SUPPORT\ACAD
  9
$ELEVATION
 40
0.0
  9
$PELEVATION
 40
0.0
  9
$THICKNESS
 40
0.0
  9
$LIMCHECK
 70
     0
  9
$BLIPMODE
 70
     0
  9
$CHAMFERA
 40
0.0
  9
$CHAMFERB
 40
0.0
  9
$SKPOLY
 70
     0
  9
$TDCREATE
 40
2449840.5913310191
  9
$TDUPDATE
 40
2456598.4283575928
  9
$TDINDWG
 40
0.0676727662
  9
$TDUSRTIMER
 40
0.0676727662
  9
$USRTIMER
 70
     1
  9
$ANGBASE
 50
0.0
  9
$ANGDIR
 70
     0
  9
$PDMODE
 70
     0
  9
$PDSIZE
 40
0.0
  9
$PLINEWID
 40
0.0
  9
$COORDS
 70
     1
  9
$SPLFRAME
 70
     0
  9
$SPLINETYPE
 70
     6
  9
$SPLINESEGS
 70
     8
  9
$ATTDIA
 70
     0
  9
$ATTREQ
 70
     1
  9
$HANDLING
 70
     1
  9
$HANDSEED
  5
5F1
  9
$SURFTAB1
 70
     6
  9
$SURFTAB2
 70
     6
  9
$SURFTYPE
 70
     6
  9
$SURFU
 70
     6
  9
$SURFV
 70
     6
  9
$UCSNAME
  2

  9
$UCSORG
 10
0.0
 20
0.0
 30
0.0
  9
$UCSXDIR
 10
1.0
 20
0.0
 30
0.0
  9
$UCSYDIR
 10
0.0
 20
1.0
 30
0.0
  9
$PUCSNAME
  2

  9
$PUCSORG
 10
0.0
 20
0.0
 30
0.0
  9
$PUCSXDIR
 10
1.0
 20
0.0
 30
0.0
  9
$PUCSYDIR
 10
0.0
 20
1.0
 30
0.0
  9
$USERI1
 70
     3
  9
$USERI2
 70
     1
  9
$USERI3
 70
     0
  9
$USERI4
 70
     0
  9
$USERI5
 70
     0
  9
$USERR1
 40
0.5
  9
$USERR2
 40
3.0
  9
$USERR3
 40
3.0
  9
$USERR4
 40
3.0
  9
$USERR5
 40
10.0
  9
$WORLDVIEW
 70
     1
  9
$SHADEDGE
 70
     3
  9
$SHADEDIF
 70
    70
  9
$TILEMODE
 70
     1
  9
$MAXACTVP
 70
    16
  9
$PLIMCHECK
 70
     0
  9
$PEXTMIN
 10
1.0000000000000000E+020
 20
1.0000000000000000E+020
 30
1.0000000000000000E+020
  9
$PEXTMAX
 10
-1.0000000000000000E+020
 20
-1.0000000000000000E+020
 30
-1.0000000000000000E+020
  9
$PLIMMIN
 10
0.0
 20
0.0
  9
$PLIMMAX
 10
12.0
 20
9.0
  9
$UNITMODE
 70
     0
  9
$VISRETAIN
 70
     0
  9
$PLINEGEN
 70
     0
  9
$PSLTSCALE
 70
     0
  0
ENDSEC
  0
SECTION
  2
TABLES
  0
TABLE
  2
VPORT
 70
     1
  0
VPORT
  2
*ACTIVE
 70
     0
 10
0.0
 20
0.0
 11
1.0
 21
1.0
 12
93.747139195326184
 22
98.525452793007162
 13
0.0
 23
0.0
 14
5.0
 24
5.0
 15
10.0
 25
10.0
 16
0.0
 26
0.0
 36
1.0
 17
0.0
 27
0.0
 37
0.0
 40
201.7865794149663
 41
1.7807262569832401
 42
50.0
 43
0.0
 44
0.0
 50
0.0
 51
0.0
 71
     0
 72
   100
 73
     1
 74
     0
 75
     0
 76
     0
 77
     0
 78
     2
  0
ENDTAB
  0
TABLE
  2
LTYPE
 70
     3
  0
LTYPE
  2
CONTINUOUS
 70
     0
  3
Solid Line
 72
    65
 73
     0
 40
0.0
  0
LTYPE
  2
CENTER
 70
     0
  3
____ _ ____ _ ____ _ ____ _ ____ _ ____ _ ____
 72
    65
 73
     4
 40
2.0
 49
1.25
 49
-0.25
 49
0.25
 49
-0.25
  0
LTYPE
  2
PHANTOM2
 70
     0
  3
___ _ _ ___ _ _ ___ _ _ ___ _ _
 72
    65
 73
     6
 40
1.25
 49
0.625
 49
-0.125
 49
0.125
 49
-0.125
 49
0.125
 49
-0.125
  0
ENDTAB
  0
TABLE
  2
LAYER
 70
     3
  0
LAYER
  2
0
 70
     0
 62
     7
  6
CONTINUOUS
  0
LAYER
  2
1
 70
     0
 62
     1
  6
CENTER
  0
LAYER
  2
3
 70
     0
 62
     3
  6
CONTINUOUS
  0
ENDTAB
  0
TABLE
  2
STYLE
 70
     2
  0
STYLE
  2
STANDARD
 70
     0
 40
0.0
 41
1.0
 50
0.0
 71
     0
 42
0.06
  3
TXT
  4
BIGFONT
  0
STYLE
  2
STANDARD1
 70
     0
 40
0.0
 41
1.0
 50
0.0
 71
     0
 42
3.0
  3
txt
  4

  0
ENDTAB
  0
TABLE
  2
VIEW
 70
     0
  0
ENDTAB
  0
TABLE
  2
UCS
 70
     0
  0
ENDTAB
  0
TABLE
  2
APPID
 70
     3
  0
APPID
  2
ACAD
 70
     0
  0
APPID
  2
ACAD_MLEADERVER
 70
     0
  0
APPID
  2
ACAD_NAV_VCDISPLAY
 70
     0
  0
ENDTAB
  0
TABLE
  2
DIMSTYLE
 70
     1
  0
DIMSTYLE
  2
STANDARD
 70
     0
  3

  4

  5

  6

  7

 40
1.0
 41
0.18
 42
0.0625
 43
0.38
 44
0.18
 45
0.0
 46
0.0
 47
0.0
 48
0.0
140
0.18
141
0.09
142
0.0
143
25.399999999999999
144
1.0
145
0.0
146
1.0
147
0.09
 71
     0
 72
     0
 73
     1
 74
     1
 75
     0
 76
     0
 77
     0
 78
     0
170
     0
171
     2
172
     0
173
     0
174
     0
175
     0
176
     0
177
     0
178
     0
  0
ENDTAB
  0
ENDSEC
  0
SECTION
  2
BLOCKS
  0
BLOCK
  8
0
  2
$MODEL_SPACE
 70
     0
 10
0.0
 20
0.0
 30
0.0
  3
$MODEL_SPACE
  1

  0
ENDBLK
  5
CB
  8
0
  0
BLOCK
 67
     1
  8
0
  2
$PAPER_SPACE
 70
     0
 10
0.0
 20
0.0
 30
0.0
  3
$PAPER_SPACE
  1

  0
ENDBLK
  5
C9
 67
     1
  8
0
  0
ENDSEC
  0
SECTION
  2
ENTITIES
  0
CIRCLE
  5
282
  8
0
 10
25.877768397433559
 20
26.280176035357261
 30
0.0
 40
7.0000000000000018
  0
CIRCLE
  5
283
  8
3
 10
25.877768397433559
 20
26.280176035357261
 30
0.0
 40
8.6469999999999914
  0
CIRCLE
  5
284
  8
0
 10
25.877768397433559
 20
26.280176035357261
 30
0.0
 40
7.9215389999999948
  0
CIRCLE
  5
285
  8
0
 10
25.877768397433559
 20
26.280176035357261
 30
0.0
 40
10.0
  0
LINE
  5
286
  8
0
 10
49.757523477506417
 20
19.280176035357261
 30
0.0
 11
50.57274205760222
 21
20.692176035357249
 31
0.0
  0
LINE
  5
287
  8
0
 10
50.57274205760222
 20
31.868176035357251
 30
0.0
 11
49.757523477506417
 21
33.280176035357258
 31
0.0
  0
ARC
  5
288
  8
0
 10
49.757523477506417
 20
32.645176035357252
 30
0.0
 40
0.6350000000000123
 50
90.0
 51
179.9999999999994
  0
ARC
  5
289
  8
0
 10
49.757523477506417
 20
19.915176035357259
 30
0.0
 40
0.6350000000000123
 50
180.00000000000139
 51
270.0
  0
LINE
  5
28A
  8
0
 10
52.008939398289499
 20
20.78010200515293
 30
0.0
 11
52.122523477506427
 21
20.7101851959215
 31
0.0
  0
LINE
  5
28B
  8
0
 10
52.122523477506427
 20
31.85016687479305
 30
0.0
 11
52.008939398289499
 21
31.780250065561589
 31
0.0
  0
ARC
  5
28C
  8
0
 10
50.792712510163483
 20
20.565176035357251
 30
0.0
 40
0.2539999999999978
 50
90.0
 51
150.00000000000219
  0
ARC
  5
28D
  8
0
 10
50.792712510163483
 20
31.995176035357261
 30
0.0
 40
0.2539999999999989
 50
209.9999999999996
 51
270.0
  0
ARC
  5
28E
  8
0
 10
51.873577559105058
 20
31.995176035357261
 30
0.0
 40
0.2539999999999978
 50
270.0
 51
302.20300303347523
  0
ARC
  5
28F
  8
0
 10
51.873577559105058
 20
20.565176035357251
 30
0.0
 40
0.2539999999999978
 50
57.796996966525001
 51
90.0
  0
LINE
  5
290
  8
0
 10
50.792712510163483
 20
20.819176035357248
 30
0.0
 11
51.873577559105058
 21
20.819176035357248
 31
0.0
  0
LINE
  5
291
  8
0
 10
51.873577559105058
 20
31.74117603535726
 30
0.0
 11
50.792712510163483
 21
31.74117603535726
 31
0.0
  0
LINE
  5
2F0
  8
0
 10
49.757523477506417
 20
19.280176035357261
 30
0.0
 11
49.757523477506417
 21
33.280176035357258
 31
0.0
  0
LINE
  5
2F2
  8
0
 10
49.122523477506427
 20
19.915176035357248
 30
0.0
 11
49.122523477506427
 21
32.645176035357267
 31
0.0
  0
LINE
  5
324
  8
0
 10
50.57274205760217
 20
20.692176035357289
 30
0.0
 11
50.57274205760222
 21
31.868176035357251
 31
0.0
  0
LINE
  5
328
  8
0
 10
50.792712510163483
 20
31.74117603535726
 30
0.0
 11
50.792712510163362
 21
20.819176035357248
 31
0.0
  0
LINE
  5
329
  8
0
 10
51.873577559105058
 20
20.819176035357248
 30
0.0
 11
51.873577559105058
 21
31.74117603535726
 31
0.0
  0
CIRCLE
  5
37C
  8
0
 10
125.16435955765439
 20
26.280176035357261
 30
0.0
 40
9.9999999999999858
  0
CIRCLE
  5
37D
  8
0
 10
125.16435955765439
 20
26.280176035357261
 30
0.0
 40
10.000000000000011
  0
CIRCLE
  5
37E
  8
0
 10
125.16435955765439
 20
26.280176035357261
 30
0.0
 40
10.0
  0
CIRCLE
  5
37F
  8
0
 10
125.16435955765439
 20
26.280176035357261
 30
0.0
 40
10.0
  0
CIRCLE
  5
380
  8
0
 10
125.16435955765439
 20
26.280176035357261
 30
0.0
 40
10.000000000000011
  0
CIRCLE
  5
381
  8
0
 10
125.16435955765439
 20
26.280176035357261
 30
0.0
 40
10.000000000000011
  0
CIRCLE
  5
382
  8
0
 10
125.16435955765439
 20
26.280176035357261
 30
0.0
 40
10.0
  0
CIRCLE
  5
383
  8
0
 10
125.16435955765451
 20
26.280176035357261
 30
0.0
 40
9.9999999999999858
  0
CIRCLE
  5
384
  8
0
 10
125.16435955765451
 20
26.280176035357261
 30
0.0
 40
10.0
  0
CIRCLE
  5
385
  8
0
 10
125.16435955765451
 20
26.280176035357261
 30
0.0
 40
10.0
  0
CIRCLE
  5
386
  8
0
 10
125.16435955765451
 20
26.280176035357261
 30
0.0
 40
10.000000000000011
  0
CIRCLE
  5
387
  8
0
 10
125.16435955765451
 20
26.280176035357261
 30
0.0
 40
10.000000000000011
  0
CIRCLE
  5
388
  8
0
 10
125.16435955765451
 20
26.280176035357261
 30
0.0
 40
10.0
  0
CIRCLE
  5
389
  8
0
 10
125.16435955765451
 20
26.280176035357261
 30
0.0
 40
10.0
  0
CIRCLE
  5
38A
  8
0
 10
125.16435955765451
 20
26.280176035357261
 30
0.0
 40
10.0
  0
CIRCLE
  5
38B
  8
0
 10
125.16435955765451
 20
26.280176035357261
 30
0.0
 40
9.9999999999999858
  0
CIRCLE
  5
38C
  8
0
 10
125.16435955765451
 20
26.280176035357261
 30
0.0
 40
10.0
  0
CIRCLE
  5
38D
  8
0
 10
125.16435955765451
 20
26.280176035357261
 30
0.0
 40
10.0
  0
CIRCLE
  5
38E
  8
0
 10
125.16435955765451
 20
26.280176035357261
 30
0.0
 40
9.9999999999999858
  0
CIRCLE
  5
38F
  8
0
 10
125.16435955765451
 20
26.280176035357261
 30
0.0
 40
9.9999999999999858
  0
LINE
  5
392
  8
0
 10
130.16435955765451
 20
27.431309667912561
 30
0.0
 11
130.16435955765451
 21
29.166927381305388
 31
0.0
  0
LINE
  5
394
  8
0
 10
130.16435955765451
 20
29.166927381305388
 30
0.0
 11
128.661270526598
 21
30.034736238001798
 31
0.0
  0
LINE
  5
395
  8
0
 10
126.6674485887109
 20
31.185869870557109
 30
0.0
 11
125.16435955765451
 21
32.053678727253512
 31
0.0
  0
LINE
  5
397
  8
0
 10
125.16435955765451
 20
32.053678727253512
 30
0.0
 11
123.661270526598
 21
31.185869870557109
 31
0.0
  0
LINE
  5
398
  8
0
 10
121.6674485887109
 20
30.034736238001798
 30
0.0
 11
120.16435955765451
 21
29.166927381305388
 31
0.0
  0
LINE
  5
39A
  8
0
 10
120.16435955765451
 20
29.166927381305388
 30
0.0
 11
120.16435955765451
 21
27.431309667912579
 31
0.0
  0
LINE
  5
39B
  8
0
 10
120.16435955765451
 20
25.12904240280195
 30
0.0
 11
120.16435955765451
 21
23.39342468940912
 31
0.0
  0
LINE
  5
39D
  8
0
 10
120.16435955765451
 20
23.39342468940912
 30
0.0
 11
121.6674485887109
 21
22.52561583271272
 31
0.0
  0
LINE
  5
39E
  8
0
 10
123.661270526598
 20
21.374482200157399
 30
0.0
 11
125.16435955765451
 21
20.506673343460999
 31
0.0
  0
LINE
  5
3A0
  8
0
 10
125.16435955765451
 20
20.506673343460999
 30
0.0
 11
126.6674485887109
 21
21.374482200157399
 31
0.0
  0
POLYLINE
  5
3A2
  8
0
 66
     1
 10
0.0
 20
0.0
 30
0.0
 70
   128
  0
VERTEX
  5
5A7
  8
0
 10
120.16435955765451
 20
23.39342468940912
 30
0.0
  0
VERTEX
  5
5A8
  8
0
 10
120.16435955765439
 20
23.39342468940912
 30
0.0
  0
SEQEND
  5
5A9
  8
0
  0
LINE
  5
3A3
  8
0
 10
120.16435955765439
 20
25.129042402801911
 30
0.0
 11
120.16435955765439
 21
23.39342468940912
 31
0.0
  0
POLYLINE
  5
3A7
  8
0
 66
     1
 10
0.0
 20
0.0
 30
0.0
 70
   128
  0
VERTEX
  5
5AA
  8
0
 10
120.16435955765451
 20
29.166927381305388
 30
0.0
  0
VERTEX
  5
5AB
  8
0
 10
120.16435955765439
 20
29.166927381305388
 30
0.0
  0
SEQEND
  5
5AC
  8
0
  0
LINE
  5
3A9
  8
0
 10
121.6674485887113
 20
30.034736238002061
 30
0.0
 11
120.16435955765439
 21
29.166927381305388
 31
0.0
  0
POLYLINE
  5
3AA
  8
0
 66
     1
 10
0.0
 20
0.0
 30
0.0
 70
   128
  0
VERTEX
  5
5AD
  8
0
 10
125.16435955765451
 20
32.053678727253512
 30
0.0
  0
VERTEX
  5
5AE
  8
0
 10
125.16435955765439
 20
32.053678727253512
 30
0.0
  0
SEQEND
  5
5AF
  8
0
  0
LINE
  5
3AC
  8
0
 10
126.6674485887108
 20
31.185869870557109
 30
0.0
 11
125.16435955765439
 21
32.053678727253512
 31
0.0
  0
POLYLINE
  5
3AD
  8
0
 66
     1
 10
0.0
 20
0.0
 30
0.0
 70
   128
  0
VERTEX
  5
5B0
  8
0
 10
130.16435955765451
 20
29.166927381305388
 30
0.0
  0
VERTEX
  5
5B1
  8
0
 10
130.16435955765439
 20
29.166927381305388
 30
0.0
  0
SEQEND
  5
5B2
  8
0
  0
LINE
  5
3AF
  8
0
 10
130.16435955765439
 20
27.431309667912579
 30
0.0
 11
130.16435955765439
 21
29.166927381305388
 31
0.0
  0
POLYLINE
  5
3B0
  8
0
 66
     1
 10
0.0
 20
0.0
 30
0.0
 70
   128
  0
VERTEX
  5
5B3
  8
0
 10
130.16435955765451
 20
23.39342468940913
 30
0.0
  0
VERTEX
  5
5B4
  8
0
 10
130.16435955765439
 20
23.39342468940913
 30
0.0
  0
SEQEND
  5
5B5
  8
0
  0
LINE
  5
3B1
  8
0
 10
128.661270526598
 20
22.52561583271272
 30
0.0
 11
130.16435955765451
 21
23.39342468940913
 31
0.0
  0
LINE
  5
3B3
  8
0
 10
128.66127052659749
 20
22.525615832712461
 30
0.0
 11
130.16435955765439
 21
23.39342468940913
 31
0.0
  0
POLYLINE
  5
3B4
  8
0
 66
     1
 10
0.0
 20
0.0
 30
0.0
 70
   128
  0
VERTEX
  5
5B6
  8
0
 10
125.16435955765451
 20
20.506673343460999
 30
0.0
  0
VERTEX
  5
5B7
  8
0
 10
125.16435955765439
 20
20.506673343460999
 30
0.0
  0
SEQEND
  5
5B8
  8
0
  0
LINE
  5
3B5
  8
0
 10
123.66127052659751
 20
21.374482200157662
 30
0.0
 11
125.16435955765439
 21
20.506673343460999
 31
0.0
  0
CIRCLE
  5
3B6
  8
0
 10
125.16435955765451
 20
26.280176035357261
 30
0.0
 40
1.1906249999999969
  0
CIRCLE
  5
3B7
  8
0
 10
125.16435955765451
 20
26.280176035357261
 30
0.0
 40
1.1906249999999969
  0
CIRCLE
  5
3B8
  8
0
 10
125.16435955765461
 20
26.280176035357261
 30
0.0
 40
7.9215389999999948
  0
LINE
  5
3BC
  8
0
 10
130.16435955765451
 20
23.39342468940913
 30
0.0
 11
130.16435955765451
 21
25.12904240280195
 31
0.0
  0
LINE
  5
3BF
  8
0
 10
120.16435955765439
 20
29.166927381305388
 30
0.0
 11
120.16435955765439
 21
27.431309667912579
 31
0.0
  0
LINE
  5
3C1
  8
0
 10
125.16435955765439
 20
32.053678727253512
 30
0.0
 11
123.6612705265979
 21
31.185869870557109
 31
0.0
  0
LINE
  5
3C3
  8
0
 10
130.16435955765439
 20
29.166927381305388
 30
0.0
 11
128.66127052659789
 21
30.034736238001798
 31
0.0
  0
LINE
  5
3C5
  8
0
 10
130.16435955765439
 20
23.39342468940913
 30
0.0
 11
130.16435955765439
 21
25.12904240280195
 31
0.0
  0
LINE
  5
3C7
  8
0
 10
125.16435955765439
 20
20.506673343460999
 30
0.0
 11
126.6674485887108
 21
21.374482200157399
 31
0.0
  0
LINE
  5
3C9
  8
0
 10
120.16435955765439
 20
23.39342468940912
 30
0.0
 11
121.6674485887108
 21
22.52561583271272
 31
0.0
  0
CIRCLE
  5
3CA
  8
0
 10
125.16435955765451
 20
26.280176035357261
 30
0.0
 40
5.1308000000000069
  0
CIRCLE
  5
3F0
  8
3
 10
125.16435955765439
 20
26.280176035357261
 30
0.0
 40
8.6469999999999914
  0
LINE
  5
40F
  8
0
 10
102.12252347750641
 20
18.358637035357258
 30
0.0
 11
102.12252347750641
 21
34.201715035357253
 31
0.0
  0
LINE
  5
410
  8
0
 10
100.9225234775064
 20
36.280176035357258
 30
0.0
 11
53.322523477506422
 21
36.280176035357258
 31
0.0
  0
LINE
  5
411
  8
3
 10
101.7036784775064
 20
34.927176035357249
 30
0.0
 11
52.54136847750641
 21
34.927176035357249
 31
0.0
  0
LINE
  5
412
  8
0
 10
100.9225234775064
 20
16.280176035357261
 30
0.0
 11
100.9225234775064
 21
36.280176035357258
 31
0.0
  0
LINE
  5
413
  8
0
 10
52.122523477506427
 20
18.358637035357258
 30
0.0
 11
52.122523477506427
 21
34.201715035357253
 31
0.0
  0
LINE
  5
414
  8
0
 10
100.9225234775064
 20
36.280176035357258
 30
0.0
 11
102.12252347750641
 21
34.201715035357253
 31
0.0
  0
LINE
  5
415
  8
0
 10
53.322523477506422
 20
16.280176035357261
 30
0.0
 11
53.322523477506422
 21
36.280176035357258
 31
0.0
  0
LINE
  5
416
  8
0
 10
53.322523477506422
 20
36.280176035357258
 30
0.0
 11
52.122523477506427
 21
34.201715035357253
 31
0.0
  0
LINE
  5
417
  8
0
 10
53.322523477506422
 20
16.280176035357261
 30
0.0
 11
52.122523477506427
 21
18.358637035357258
 31
0.0
  0
LINE
  5
418
  8
0
 10
100.9225234775064
 20
16.280176035357261
 30
0.0
 11
102.12252347750641
 21
18.358637035357258
 31
0.0
  0
LINE
  5
419
  8
3
 10
101.7036784775064
 20
17.633176035357248
 30
0.0
 11
52.54136847750641
 21
17.633176035357248
 31
0.0
  0
LINE
  5
41A
  8
0
 10
100.9225234775064
 20
16.280176035357261
 30
0.0
 11
53.322523477506422
 21
16.280176035357261
 31
0.0
  0
LINE
  5
41B
  8
1
 10
138.16435955765451
 20
26.280176035357261
 30
0.0
 11
112.16435955765451
 21
26.280176035357261
 31
0.0
  0
LINE
  5
41C
  8
1
 10
25.877768397433559
 20
13.280176035357259
 30
0.0
 11
25.877768397433559
 21
39.280176035357258
 31
0.0
  0
LINE
  5
41D
  8
1
 10
125.16435955765451
 20
13.28017603535727
 30
0.0
 11
125.16435955765451
 21
39.28017603535725
 31
0.0
  0
LINE
  5
42B
  8
1
 10
105.12252347750641
 20
26.280176035357261
 30
0.0
 11
46.122523477506427
 21
26.280176035357261
 31
0.0
  0
LINE
  5
42C
  8
1
 10
38.877768397433563
 20
26.280176035357261
 30
0.0
 11
12.877768397433551
 21
26.280176035357261
 31
0.0
  0
TEXT
  5
54A
  8
0
 62
     3
 10
0.0
 20
0.0
 30
0.0
 40
5.0
  1
TBU-20050-DS
  7
STANDARD1
  0
ENDSEC
  0
EOF
