  0
SECTION
  2
HEADER
  9
$ACADVER
  1
AC1009
  9
$INSBASE
 10
0.0
 20
0.0
 30
0.0
  9
$EXTMIN
 10
0.0
 20
-2.960436562073669
 30
0.0
  9
$EXTMAX
 10
288.029871947598
 20
147.3588200211754
 30
0.0
  9
$LIMMIN
 10
0.0
 20
0.0
  9
$LIMMAX
 10
187.5
 20
135.0
  9
$ORTHOMODE
 70
     1
  9
$REGENMODE
 70
     1
  9
$FILLMODE
 70
     1
  9
$QTEXTMODE
 70
     0
  9
$MIRRTEXT
 70
     0
  9
$DRAGMODE
 70
     2
  9
$LTSCALE
 40
5.0
  9
$OSMODE
 70
    55
  9
$ATTMODE
 70
     1
  9
$TEXTSIZE
 40
3.200000000000049
  9
$TRACEWID
 40
0.05
  9
$TEXTSTYLE
  7
STANDARD
  9
$CLAYER
  8
LINEAFINE
  9
$CELTYPE
  6
BYLAYER
  9
$CECOLOR
 62
   256
  9
$DIMSCALE
 40
0.5
  9
$DIMASZ
 40
3.0
  9
$DIMEXO
 40
2.0
  9
$DIMDLI
 40
0.38
  9
$DIMRND
 40
0.0
  9
$DIMDLE
 40
0.0
  9
$DIMEXE
 40
2.0
  9
$DIMTP
 40
0.0
  9
$DIMTM
 40
0.0
  9
$DIMTXT
 40
5.0
  9
$DIMCEN
 40
0.0
  9
$DIMTSZ
 40
0.0
  9
$DIMTOL
 70
     0
  9
$DIMLIM
 70
     0
  9
$DIMTIH
 70
     0
  9
$DIMTOH
 70
     0
  9
$DIMSE1
 70
     0
  9
$DIMSE2
 70
     0
  9
$DIMTAD
 70
     1
  9
$DIMZIN
 70
     8
  9
$DIMBLK
  1

  9
$DIMASO
 70
     0
  9
$DIMSHO
 70
     0
  9
$DIMPOST
  1

  9
$DIMAPOST
  1

  9
$DIMALT
 70
     0
  9
$DIMALTD
 70
     2
  9
$DIMALTF
 40
25.399999999999999
  9
$DIMLFAC
 40
1.0
  9
$DIMTOFL
 70
     1
  9
$DIMTVP
 40
1.6000000000000001
  9
$DIMTIX
 70
     0
  9
$DIMSOXD
 70
     0
  9
$DIMSAH
 70
     0
  9
$DIMBLK1
  1

  9
$DIMBLK2
  1

  9
$DIMSTYLE
  2
STANDARD
  9
$DIMCLRD
 70
     0
  9
$DIMCLRE
 70
     0
  9
$DIMCLRT
 70
     0
  9
$DIMTFAC
 40
1.0
  9
$DIMGAP
 40
0.5
  9
$LUNITS
 70
     2
  9
$LUPREC
 70
     4
  9
$SKETCHINC
 40
0.1
  9
$FILLETRAD
 40
0.0
  9
$AUNITS
 70
     0
  9
$AUPREC
 70
     4
  9
$MENU
  1
E:\r13\win\SUPPORT\ACAD
  9
$ELEVATION
 40
0.0
  9
$PELEVATION
 40
0.0
  9
$THICKNESS
 40
0.0
  9
$LIMCHECK
 70
     0
  9
$BLIPMODE
 70
     0
  9
$CHAMFERA
 40
0.0
  9
$CHAMFERB
 40
0.0
  9
$SKPOLY
 70
     0
  9
$TDCREATE
 40
2449840.649224537
  9
$TDUPDATE
 40
2456598.4288597219
  9
$TDINDWG
 40
0.0709998958
  9
$TDUSRTIMER
 40
0.0709998958
  9
$USRTIMER
 70
     1
  9
$ANGBASE
 50
0.0
  9
$ANGDIR
 70
     0
  9
$PDMODE
 70
     0
  9
$PDSIZE
 40
0.0
  9
$PLINEWID
 40
0.0
  9
$COORDS
 70
     1
  9
$SPLFRAME
 70
     0
  9
$SPLINETYPE
 70
     6
  9
$SPLINESEGS
 70
     8
  9
$ATTDIA
 70
     0
  9
$ATTREQ
 70
     1
  9
$HANDLING
 70
     1
  9
$HANDSEED
  5
27ED
  9
$SURFTAB1
 70
     6
  9
$SURFTAB2
 70
     6
  9
$SURFTYPE
 70
     6
  9
$SURFU
 70
     6
  9
$SURFV
 70
     6
  9
$UCSNAME
  2

  9
$UCSORG
 10
0.0
 20
0.0
 30
0.0
  9
$UCSXDIR
 10
1.0
 20
0.0
 30
0.0
  9
$UCSYDIR
 10
0.0
 20
1.0
 30
0.0
  9
$PUCSNAME
  2

  9
$PUCSORG
 10
0.0
 20
0.0
 30
0.0
  9
$PUCSXDIR
 10
1.0
 20
0.0
 30
0.0
  9
$PUCSYDIR
 10
0.0
 20
1.0
 30
0.0
  9
$USERI1
 70
     0
  9
$USERI2
 70
     1
  9
$USERI3
 70
     0
  9
$USERI4
 70
     0
  9
$USERI5
 70
     0
  9
$USERR1
 40
0.0
  9
$USERR2
 40
0.0
  9
$USERR3
 40
0.0
  9
$USERR4
 40
0.0
  9
$USERR5
 40
0.0
  9
$WORLDVIEW
 70
     1
  9
$SHADEDGE
 70
     3
  9
$SHADEDIF
 70
    70
  9
$TILEMODE
 70
     1
  9
$MAXACTVP
 70
    16
  9
$PLIMCHECK
 70
     0
  9
$PEXTMIN
 10
1.0000000000000000E+020
 20
1.0000000000000000E+020
 30
1.0000000000000000E+020
  9
$PEXTMAX
 10
-1.0000000000000000E+020
 20
-1.0000000000000000E+020
 30
-1.0000000000000000E+020
  9
$PLIMMIN
 10
0.0
 20
0.0
  9
$PLIMMAX
 10
12.0
 20
9.0
  9
$UNITMODE
 70
     0
  9
$VISRETAIN
 70
     0
  9
$PLINEGEN
 70
     0
  9
$PSLTSCALE
 70
     0
  0
ENDSEC
  0
SECTION
  2
TABLES
  0
TABLE
  2
VPORT
 70
     1
  0
VPORT
  2
*ACTIVE
 70
     0
 10
0.0
 20
0.0
 11
1.0
 21
1.0
 12
144.0149366444208
 22
107.1909109893829
 13
0.0
 23
0.0
 14
5.0
 24
5.0
 15
5.0
 25
5.0
 16
0.0
 26
0.0
 36
1.0
 17
0.0
 27
0.0
 37
0.0
 40
222.2440879163411
 41
1.7807262569832401
 42
50.0
 43
0.0
 44
0.0
 50
0.0
 51
0.0
 71
     0
 72
   500
 73
     1
 74
     0
 75
     0
 76
     0
 77
     0
 78
     2
  0
ENDTAB
  0
TABLE
  2
LTYPE
 70
     4
  0
LTYPE
  2
CONTINUOUS
 70
     0
  3
Solid Line
 72
    65
 73
     0
 40
0.0
  0
LTYPE
  2
CENTER
 70
     0
  3
____ _ ____ _ ____ _ ____ _ ____ _ ____ _ ____
 72
    65
 73
     4
 40
2.0
 49
1.25
 49
-0.25
 49
0.25
 49
-0.25
  0
LTYPE
  2
HIDDEN
 70
     0
  3
_ _ _ _ _ _ _ _ _ _ _ _ _ _ _ _ _ _ _ _ _ _ _
 72
    65
 73
     2
 40
0.375
 49
0.25
 49
-0.125
  0
LTYPE
  2
PHANTOM2
 70
     0
  3
___ _ _ ___ _ _ ___ _ _ ___ _ _
 72
    65
 73
     6
 40
1.25
 49
0.625
 49
-0.125
 49
0.125
 49
-0.125
 49
0.125
 49
-0.125
  0
ENDTAB
  0
TABLE
  2
LAYER
 70
     6
  0
LAYER
  2
0
 70
     0
 62
     7
  6
CONTINUOUS
  0
LAYER
  2
1
 70
     0
 62
     1
  6
CENTER
  0
LAYER
  2
2
 70
     0
 62
     2
  6
HIDDEN
  0
LAYER
  2
3
 70
     0
 62
     3
  6
CONTINUOUS
  0
LAYER
  2
DEFPOINTS
 70
     0
 62
     7
  6
CONTINUOUS
  0
LAYER
  2
LINEAFINE
 70
     0
 62
     4
  6
CONTINUOUS
  0
ENDTAB
  0
TABLE
  2
STYLE
 70
     2
  0
STYLE
  2
STANDARD
 70
     0
 40
0.0
 41
1.0
 50
0.0
 71
     0
 42
3.200000000000049
  3
TXT
  4
BIGFONT
  0
STYLE
  2
STANDARD1
 70
     0
 40
0.0
 41
1.0
 50
0.0
 71
     0
 42
3.0
  3
txt
  4

  0
ENDTAB
  0
TABLE
  2
VIEW
 70
     1
  0
VIEW
  2
ALL
 70
     0
 40
135.0
 10
110.4957983193277
 20
67.5
 41
0.0
 11
0.0
 21
0.0
 31
1.0
 12
0.0
 22
0.0
 32
0.0
 42
0.0
 43
0.0
 44
0.0
 50
0.0
 71
     0
  0
ENDTAB
  0
TABLE
  2
UCS
 70
     0
  0
ENDTAB
  0
TABLE
  2
APPID
 70
     3
  0
APPID
  2
ACAD
 70
     0
  0
APPID
  2
ACAD_MLEADERVER
 70
     0
  0
APPID
  2
ACAD_NAV_VCDISPLAY
 70
     0
  0
ENDTAB
  0
TABLE
  2
DIMSTYLE
 70
     1
  0
DIMSTYLE
  2
STANDARD
 70
     0
  3

  4

  5

  6

  7

 40
1.0
 41
0.18
 42
0.0625
 43
0.38
 44
0.18
 45
0.0
 46
0.0
 47
0.0
 48
0.0
140
0.18
141
0.09
142
0.0
143
25.399999999999999
144
1.0
145
0.0
146
1.0
147
0.09
 71
     0
 72
     0
 73
     1
 74
     1
 75
     0
 76
     0
 77
     0
 78
     0
170
     0
171
     2
172
     0
173
     0
174
     0
175
     0
176
     0
177
     0
178
     0
  0
ENDTAB
  0
ENDSEC
  0
SECTION
  2
BLOCKS
  0
BLOCK
  8
0
  2
$MODEL_SPACE
 70
     0
 10
0.0
 20
0.0
 30
0.0
  3
$MODEL_SPACE
  1

  0
ENDBLK
  5
D2
  8
0
  0
BLOCK
 67
     1
  8
0
  2
$PAPER_SPACE
 70
     0
 10
0.0
 20
0.0
 30
0.0
  3
$PAPER_SPACE
  1

  0
ENDBLK
  5
D0
 67
     1
  8
0
  0
ENDSEC
  0
SECTION
  2
ENTITIES
  0
LINE
  5
74F
  8
0
 10
73.009470867285813
 20
142.35882002117529
 30
0.0
 11
103.0094708672858
 21
142.35882002117529
 31
0.0
  0
LINE
  5
750
  8
0
 10
73.009470867285813
 20
112.3588200211753
 30
0.0
 11
103.0094708672858
 21
112.3588200211753
 31
0.0
  0
LINE
  5
751
  8
1
 10
68.009470867285813
 20
132.35882002117529
 30
0.0
 11
108.0094708672858
 21
132.35882002117529
 31
0.0
  0
ARC
  5
752
  8
1
 10
101.0094708672858
 20
54.85882002117534
 30
0.0
 40
13.0
 50
90.0
 51
180.0
  0
LINE
  5
753
  8
1
 10
70.509470867285813
 20
32.358820021175383
 30
0.0
 11
105.5094708672858
 21
32.358820021175347
 31
0.0
  0
LINE
  5
754
  8
0
 10
75.509470867285813
 20
19.85882002117534
 30
0.0
 11
100.5094708672858
 21
19.85882002117534
 31
0.0
  0
LINE
  5
755
  8
1
 10
74.358955681704288
 20
54.85882002117534
 30
0.0
 11
102.0488780484753
 21
54.85882002117534
 31
0.0
  0
ARC
  5
75A
  8
0
 10
96.909470867285833
 20
46.792420021175332
 30
0.0
 40
1.8999999999999999
 50
276.19968566778402
 51
96.199685667784095
  0
ARC
  5
75B
  8
0
 10
96.909470867285833
 20
53.50072002117534
 30
0.0
 40
1.8999999999999999
 50
280.67142040090789
 51
100.67142040090791
  0
ARC
  5
75C
  8
0
 10
96.909470867285819
 20
60.20902002117532
 30
0.0
 40
1.8999999999999999
 50
280.67142040090789
 51
100.67142040090791
  0
ARC
  5
75D
  8
0
 10
96.909470867285833
 20
66.917320021175314
 30
0.0
 40
1.8999999999999999
 50
280.67142040090789
 51
100.67142040090791
  0
ARC
  5
75E
  8
0
 10
96.909470867285819
 20
73.625620021175337
 30
0.0
 40
1.8999999999999999
 50
280.67142040090829
 51
100.67142040090791
  0
ARC
  5
75F
  8
0
 10
96.909470867285819
 20
80.333920021175345
 30
0.0
 40
1.8999999999999999
 50
280.67142040090789
 51
100.67142040090791
  0
ARC
  5
760
  8
0
 10
96.909470867285819
 20
87.042220021175353
 30
0.0
 40
1.8999999999999999
 50
280.67142040090789
 51
100.67142040090791
  0
ARC
  5
761
  8
0
 10
96.909470867285819
 20
93.750520021175319
 30
0.0
 40
1.8999999999999999
 50
280.67142040090789
 51
100.67142040090791
  0
ARC
  5
762
  8
0
 10
96.909470867285819
 20
100.4588200211753
 30
0.0
 40
1.8999999999999999
 50
280.67142040090789
 51
100.67142040090791
  0
LINE
  5
763
  8
0
 10
75.50947086728614
 20
102.3588200211754
 30
0.0
 11
100.5094708672861
 21
102.35882002117521
 31
0.0
  0
LINE
  5
764
  8
0
 10
101.0094708672858
 20
102.3588200211753
 30
0.0
 11
94.809470867285825
 21
102.3588200211753
 31
0.0
  0
LINE
  5
765
  8
0
 10
101.0094708672858
 20
104.3588200211753
 30
0.0
 11
75.009470867285813
 21
104.3588200211753
 31
0.0
  0
LINE
  5
766
  8
0
 10
78.009470867285813
 20
112.3588200211753
 30
0.0
 11
98.009470867285813
 21
112.3588200211753
 31
0.0
  0
LINE
  5
767
  8
0
 10
75.509470867285813
 20
44.858820021175397
 30
0.0
 11
100.5094708672858
 21
44.858820021175262
 31
0.0
  0
LINE
  5
768
  8
0
 10
97.261306135743553
 20
85.175079977185788
 30
0.0
 11
79.461306135743527
 21
81.820929977185827
 31
0.0
  0
ARC
  5
769
  8
0
 10
79.109470867285793
 20
83.688070021175335
 30
0.0
 40
1.8999999999999999
 50
100.67142040090791
 51
280.67142040090789
  0
LINE
  5
76A
  8
1
 10
88.009470867285813
 20
14.85882002117534
 30
0.0
 11
88.009470867285813
 21
147.35882002117529
 31
0.0
  0
LINE
  5
76B
  8
3
 10
16.150514948368929
 20
52.858820021175347
 30
0.0
 11
46.150514948368929
 21
52.858820021175347
 31
0.0
  0
LINE
  5
76C
  8
3
 10
16.150514948368929
 20
82.858820021175347
 30
0.0
 11
46.150514948368929
 21
82.858820021175347
 31
0.0
  0
LINE
  5
76F
  8
1
 10
75.009470867285813
 20
67.858820021175347
 30
0.0
 11
11.150514948368929
 21
67.858820021175305
 31
0.0
  0
LINE
  5
770
  8
1
 10
26.15051494836894
 20
47.85882002117534
 30
0.0
 11
26.15051494836894
 21
87.858820021175305
 31
0.0
  0
LINE
  5
771
  8
3
 10
16.150514948368929
 20
52.858820021175347
 30
0.0
 11
16.150514948368929
 21
82.858820021175347
 31
0.0
  0
POINT
  5
772
  8
3
 10
16.150514948368929
 20
57.858820021175347
 30
0.0
  0
POINT
  5
773
  8
3
 10
16.148655823296281
 20
57.506984752717607
 30
0.0
  0
POINT
  5
774
  8
3
 10
16.150514948368929
 20
67.858820021175347
 30
0.0
  0
POINT
  5
775
  8
3
 10
16.150514948368929
 20
77.858820021175347
 30
0.0
  0
POINT
  5
776
  8
3
 10
16.148655823296281
 20
77.506984752717614
 30
0.0
  0
LINE
  5
777
  8
0
 10
75.509470867285813
 20
44.85882002117534
 30
0.0
 11
75.509470867285813
 21
19.85882002117534
 31
0.0
  0
POINT
  5
77A
  8
0
 10
88.009470867285813
 20
19.858820021175429
 30
0.0
  0
POINT
  5
77B
  8
0
 10
88.009470867285813
 20
19.858820021175401
 30
0.0
  0
LINE
  5
77C
  8
3
 10
60.377808410302578
 20
74.306984752717568
 30
0.0
 11
63.219231887975411
 21
74.306984752717597
 31
0.0
  0
ARC
  5
77D
  8
3
 10
61.402805823296262
 20
58.606984752717601
 30
0.0
 40
1.8999999999999999
 50
190.6714204009084
 51
10.67142040090839
  0
LINE
  5
77E
  8
3
 10
59.915795867285851
 20
76.758820021175353
 30
0.0
 11
63.269945867285848
 21
58.958820021175342
 31
0.0
  0
LINE
  5
77F
  8
3
 10
62.42780323629006
 20
74.306984752717597
 30
0.0
 11
62.88981577930673
 21
76.758820021175353
 31
0.0
  0
LINE
  5
780
  8
3
 10
46.150514948368929
 20
52.858820021175347
 30
0.0
 11
46.150514948368929
 21
82.858820021175347
 31
0.0
  0
ARC
  5
781
  8
3
 10
56.148655823296281
 20
58.606984752717601
 30
0.0
 40
1.8999999999999999
 50
270.0
 51
353.90722834266381
  0
LINE
  5
782
  8
3
 10
56.148655823296281
 20
74.306984752717568
 30
0.0
 11
56.148655823296281
 21
54.506984752717607
 31
0.0
  0
LINE
  5
783
  8
3
 10
54.148655823296281
 20
80.506984752717614
 30
0.0
 11
54.148655823296281
 21
54.506984752717607
 31
0.0
  0
LINE
  5
784
  8
3
 10
56.148655823296217
 20
55.006984752717962
 30
0.0
 11
56.148655823296387
 21
80.006984752717955
 31
0.0
  0
LINE
  5
785
  8
3
 10
56.148655823296281
 20
56.706984752717602
 30
0.0
 11
56.148655823296281
 21
76.406984752717605
 31
0.0
  0
LINE
  5
786
  8
3
 10
54.148655823296281
 20
54.506984752717607
 30
0.0
 11
56.148655823296281
 21
54.506984752717607
 31
0.0
  0
POLYLINE
  5
787
  8
3
 10
46.898655823296281
 20
72.506984752717614
 30
0.0
 66
     1
 70
     8
  0
VERTEX
  8
3
  5
1BBD
 10
46.8987
 20
72.5070
 30
0.000000
  70
    32
  0
VERTEX
  8
3
  5
1BBE
 10
46.8802
 20
72.5055
 30
0.000000
  70
    32
  0
VERTEX
  8
3
  5
1BBF
 10
46.8619
 20
72.5010
 30
0.000000
  70
    32
  0
VERTEX
  8
3
  5
1BC0
 10
46.8435
 20
72.4934
 30
0.000000
  70
    32
  0
VERTEX
  8
3
  5
1BC1
 10
46.8251
 20
72.4829
 30
0.000000
  70
    32
  0
VERTEX
  8
3
  5
1BC2
 10
46.8068
 20
72.4694
 30
0.000000
  70
    32
  0
VERTEX
  8
3
  5
1BC3
 10
46.7886
 20
72.4529
 30
0.000000
  70
    32
  0
VERTEX
  8
3
  5
1BC4
 10
46.7704
 20
72.4334
 30
0.000000
  70
    32
  0
VERTEX
  8
3
  5
1BC5
 10
46.7523
 20
72.4109
 30
0.000000
  70
    32
  0
VERTEX
  8
3
  5
1BC6
 10
46.7343
 20
72.3855
 30
0.000000
  70
    32
  0
VERTEX
  8
3
  5
1BC7
 10
46.7164
 20
72.3571
 30
0.000000
  70
    32
  0
VERTEX
  8
3
  5
1BC8
 10
46.6986
 20
72.3259
 30
0.000000
  70
    32
  0
VERTEX
  8
3
  5
1BC9
 10
46.6809
 20
72.2917
 30
0.000000
  70
    32
  0
VERTEX
  8
3
  5
1BCA
 10
46.6634
 20
72.2546
 30
0.000000
  70
    32
  0
VERTEX
  8
3
  5
1BCB
 10
46.6460
 20
72.2147
 30
0.000000
  70
    32
  0
VERTEX
  8
3
  5
1BCC
 10
46.6287
 20
72.1719
 30
0.000000
  70
    32
  0
VERTEX
  8
3
  5
1BCD
 10
46.6116
 20
72.1264
 30
0.000000
  70
    32
  0
VERTEX
  8
3
  5
1BCE
 10
46.5947
 20
72.0780
 30
0.000000
  70
    32
  0
VERTEX
  8
3
  5
1BCF
 10
46.5780
 20
72.0269
 30
0.000000
  70
    32
  0
VERTEX
  8
3
  5
1BD0
 10
46.5614
 20
71.9731
 30
0.000000
  70
    32
  0
VERTEX
  8
3
  5
1BD1
 10
46.5451
 20
71.9166
 30
0.000000
  70
    32
  0
VERTEX
  8
3
  5
1BD2
 10
46.5290
 20
71.8574
 30
0.000000
  70
    32
  0
VERTEX
  8
3
  5
1BD3
 10
46.5131
 20
71.7956
 30
0.000000
  70
    32
  0
VERTEX
  8
3
  5
1BD4
 10
46.4974
 20
71.7313
 30
0.000000
  70
    32
  0
VERTEX
  8
3
  5
1BD5
 10
46.4820
 20
71.6643
 30
0.000000
  70
    32
  0
VERTEX
  8
3
  5
1BD6
 10
46.4668
 20
71.5949
 30
0.000000
  70
    32
  0
VERTEX
  8
3
  5
1BD7
 10
46.4519
 20
71.5230
 30
0.000000
  70
    32
  0
VERTEX
  8
3
  5
1BD8
 10
46.4372
 20
71.4487
 30
0.000000
  70
    32
  0
VERTEX
  8
3
  5
1BD9
 10
46.4229
 20
71.3720
 30
0.000000
  70
    32
  0
VERTEX
  8
3
  5
1BDA
 10
46.4088
 20
71.2930
 30
0.000000
  70
    32
  0
VERTEX
  8
3
  5
1BDB
 10
46.3950
 20
71.2117
 30
0.000000
  70
    32
  0
VERTEX
  8
3
  5
1BDC
 10
46.3815
 20
71.1282
 30
0.000000
  70
    32
  0
VERTEX
  8
3
  5
1BDD
 10
46.3683
 20
71.0425
 30
0.000000
  70
    32
  0
VERTEX
  8
3
  5
1BDE
 10
46.3555
 20
70.9547
 30
0.000000
  70
    32
  0
VERTEX
  8
3
  5
1BDF
 10
46.3429
 20
70.8648
 30
0.000000
  70
    32
  0
VERTEX
  8
3
  5
1BE0
 10
46.3307
 20
70.7728
 30
0.000000
  70
    32
  0
VERTEX
  8
3
  5
1BE1
 10
46.3189
 20
70.6790
 30
0.000000
  70
    32
  0
VERTEX
  8
3
  5
1BE2
 10
46.3074
 20
70.5831
 30
0.000000
  70
    32
  0
VERTEX
  8
3
  5
1BE3
 10
46.2963
 20
70.4855
 30
0.000000
  70
    32
  0
VERTEX
  8
3
  5
1BE4
 10
46.2855
 20
70.3860
 30
0.000000
  70
    32
  0
VERTEX
  8
3
  5
1BE5
 10
46.2751
 20
70.2848
 30
0.000000
  70
    32
  0
VERTEX
  8
3
  5
1BE6
 10
46.2650
 20
70.1820
 30
0.000000
  70
    32
  0
VERTEX
  8
3
  5
1BE7
 10
46.2554
 20
70.0775
 30
0.000000
  70
    32
  0
VERTEX
  8
3
  5
1BE8
 10
46.2461
 20
69.9715
 30
0.000000
  70
    32
  0
VERTEX
  8
3
  5
1BE9
 10
46.2372
 20
69.8640
 30
0.000000
  70
    32
  0
VERTEX
  8
3
  5
1BEA
 10
46.2287
 20
69.7550
 30
0.000000
  70
    32
  0
VERTEX
  8
3
  5
1BEB
 10
46.2207
 20
69.6448
 30
0.000000
  70
    32
  0
VERTEX
  8
3
  5
1BEC
 10
46.2130
 20
69.5332
 30
0.000000
  70
    32
  0
VERTEX
  8
3
  5
1BED
 10
46.2057
 20
69.4204
 30
0.000000
  70
    32
  0
VERTEX
  8
3
  5
1BEE
 10
46.1989
 20
69.3065
 30
0.000000
  70
    32
  0
VERTEX
  8
3
  5
1BEF
 10
46.1925
 20
69.1914
 30
0.000000
  70
    32
  0
VERTEX
  8
3
  5
1BF0
 10
46.1865
 20
69.0754
 30
0.000000
  70
    32
  0
VERTEX
  8
3
  5
1BF1
 10
46.1810
 20
68.9584
 30
0.000000
  70
    32
  0
VERTEX
  8
3
  5
1BF2
 10
46.1758
 20
68.8405
 30
0.000000
  70
    32
  0
VERTEX
  8
3
  5
1BF3
 10
46.1711
 20
68.7219
 30
0.000000
  70
    32
  0
VERTEX
  8
3
  5
1BF4
 10
46.1669
 20
68.6025
 30
0.000000
  70
    32
  0
VERTEX
  8
3
  5
1BF5
 10
46.1631
 20
68.4824
 30
0.000000
  70
    32
  0
VERTEX
  8
3
  5
1BF6
 10
46.1597
 20
68.3618
 30
0.000000
  70
    32
  0
VERTEX
  8
3
  5
1BF7
 10
46.1568
 20
68.2406
 30
0.000000
  70
    32
  0
VERTEX
  8
3
  5
1BF8
 10
46.1543
 20
68.1190
 30
0.000000
  70
    32
  0
VERTEX
  8
3
  5
1BF9
 10
46.1523
 20
67.9971
 30
0.000000
  70
    32
  0
VERTEX
  8
3
  5
1BFA
 10
46.1507
 20
67.8748
 30
0.000000
  70
    32
  0
VERTEX
  8
3
  5
1BFB
 10
46.1496
 20
67.7523
 30
0.000000
  70
    32
  0
VERTEX
  8
3
  5
1BFC
 10
46.1489
 20
67.6297
 30
0.000000
  70
    32
  0
VERTEX
  8
3
  5
1BFD
 10
46.1487
 20
67.5070
 30
0.000000
  70
    32
  0
VERTEX
  8
3
  5
1BFE
 10
46.1489
 20
67.3843
 30
0.000000
  70
    32
  0
VERTEX
  8
3
  5
1BFF
 10
46.1496
 20
67.2616
 30
0.000000
  70
    32
  0
VERTEX
  8
3
  5
1C00
 10
46.1507
 20
67.1392
 30
0.000000
  70
    32
  0
VERTEX
  8
3
  5
1C01
 10
46.1523
 20
67.0169
 30
0.000000
  70
    32
  0
VERTEX
  8
3
  5
1C02
 10
46.1543
 20
66.8949
 30
0.000000
  70
    32
  0
VERTEX
  8
3
  5
1C03
 10
46.1568
 20
66.7733
 30
0.000000
  70
    32
  0
VERTEX
  8
3
  5
1C04
 10
46.1597
 20
66.6522
 30
0.000000
  70
    32
  0
VERTEX
  8
3
  5
1C05
 10
46.1631
 20
66.5315
 30
0.000000
  70
    32
  0
VERTEX
  8
3
  5
1C06
 10
46.1669
 20
66.4115
 30
0.000000
  70
    32
  0
VERTEX
  8
3
  5
1C07
 10
46.1711
 20
66.2921
 30
0.000000
  70
    32
  0
VERTEX
  8
3
  5
1C08
 10
46.1758
 20
66.1734
 30
0.000000
  70
    32
  0
VERTEX
  8
3
  5
1C09
 10
46.1810
 20
66.0556
 30
0.000000
  70
    32
  0
VERTEX
  8
3
  5
1C0A
 10
46.1865
 20
65.9386
 30
0.000000
  70
    32
  0
VERTEX
  8
3
  5
1C0B
 10
46.1925
 20
65.8225
 30
0.000000
  70
    32
  0
VERTEX
  8
3
  5
1C0C
 10
46.1989
 20
65.7075
 30
0.000000
  70
    32
  0
VERTEX
  8
3
  5
1C0D
 10
46.2057
 20
65.5936
 30
0.000000
  70
    32
  0
VERTEX
  8
3
  5
1C0E
 10
46.2130
 20
65.4808
 30
0.000000
  70
    32
  0
VERTEX
  8
3
  5
1C0F
 10
46.2207
 20
65.3692
 30
0.000000
  70
    32
  0
VERTEX
  8
3
  5
1C10
 10
46.2287
 20
65.2589
 30
0.000000
  70
    32
  0
VERTEX
  8
3
  5
1C11
 10
46.2372
 20
65.1500
 30
0.000000
  70
    32
  0
VERTEX
  8
3
  5
1C12
 10
46.2461
 20
65.0425
 30
0.000000
  70
    32
  0
VERTEX
  8
3
  5
1C13
 10
46.2554
 20
64.9365
 30
0.000000
  70
    32
  0
VERTEX
  8
3
  5
1C14
 10
46.2650
 20
64.8320
 30
0.000000
  70
    32
  0
VERTEX
  8
3
  5
1C15
 10
46.2751
 20
64.7291
 30
0.000000
  70
    32
  0
VERTEX
  8
3
  5
1C16
 10
46.2855
 20
64.6279
 30
0.000000
  70
    32
  0
VERTEX
  8
3
  5
1C17
 10
46.2963
 20
64.5285
 30
0.000000
  70
    32
  0
VERTEX
  8
3
  5
1C18
 10
46.3074
 20
64.4308
 30
0.000000
  70
    32
  0
VERTEX
  8
3
  5
1C19
 10
46.3189
 20
64.3350
 30
0.000000
  70
    32
  0
VERTEX
  8
3
  5
1C1A
 10
46.3307
 20
64.2411
 30
0.000000
  70
    32
  0
VERTEX
  8
3
  5
1C1B
 10
46.3429
 20
64.1492
 30
0.000000
  70
    32
  0
VERTEX
  8
3
  5
1C1C
 10
46.3555
 20
64.0593
 30
0.000000
  70
    32
  0
VERTEX
  8
3
  5
1C1D
 10
46.3683
 20
63.9715
 30
0.000000
  70
    32
  0
VERTEX
  8
3
  5
1C1E
 10
46.3815
 20
63.8857
 30
0.000000
  70
    32
  0
VERTEX
  8
3
  5
1C1F
 10
46.3950
 20
63.8022
 30
0.000000
  70
    32
  0
VERTEX
  8
3
  5
1C20
 10
46.4088
 20
63.7209
 30
0.000000
  70
    32
  0
VERTEX
  8
3
  5
1C21
 10
46.4229
 20
63.6419
 30
0.000000
  70
    32
  0
VERTEX
  8
3
  5
1C22
 10
46.4372
 20
63.5653
 30
0.000000
  70
    32
  0
VERTEX
  8
3
  5
1C23
 10
46.4519
 20
63.4909
 30
0.000000
  70
    32
  0
VERTEX
  8
3
  5
1C24
 10
46.4668
 20
63.4191
 30
0.000000
  70
    32
  0
VERTEX
  8
3
  5
1C25
 10
46.4820
 20
63.3496
 30
0.000000
  70
    32
  0
VERTEX
  8
3
  5
1C26
 10
46.4974
 20
63.2827
 30
0.000000
  70
    32
  0
VERTEX
  8
3
  5
1C27
 10
46.5131
 20
63.2183
 30
0.000000
  70
    32
  0
VERTEX
  8
3
  5
1C28
 10
46.5290
 20
63.1565
 30
0.000000
  70
    32
  0
VERTEX
  8
3
  5
1C29
 10
46.5451
 20
63.0974
 30
0.000000
  70
    32
  0
VERTEX
  8
3
  5
1C2A
 10
46.5614
 20
63.0409
 30
0.000000
  70
    32
  0
VERTEX
  8
3
  5
1C2B
 10
46.5780
 20
62.9870
 30
0.000000
  70
    32
  0
VERTEX
  8
3
  5
1C2C
 10
46.5947
 20
62.9359
 30
0.000000
  70
    32
  0
VERTEX
  8
3
  5
1C2D
 10
46.6116
 20
62.8876
 30
0.000000
  70
    32
  0
VERTEX
  8
3
  5
1C2E
 10
46.6287
 20
62.8420
 30
0.000000
  70
    32
  0
VERTEX
  8
3
  5
1C2F
 10
46.6460
 20
62.7993
 30
0.000000
  70
    32
  0
VERTEX
  8
3
  5
1C30
 10
46.6634
 20
62.7593
 30
0.000000
  70
    32
  0
VERTEX
  8
3
  5
1C31
 10
46.6809
 20
62.7223
 30
0.000000
  70
    32
  0
VERTEX
  8
3
  5
1C32
 10
46.6986
 20
62.6881
 30
0.000000
  70
    32
  0
VERTEX
  8
3
  5
1C33
 10
46.7164
 20
62.6568
 30
0.000000
  70
    32
  0
VERTEX
  8
3
  5
1C34
 10
46.7343
 20
62.6285
 30
0.000000
  70
    32
  0
VERTEX
  8
3
  5
1C35
 10
46.7523
 20
62.6031
 30
0.000000
  70
    32
  0
VERTEX
  8
3
  5
1C36
 10
46.7704
 20
62.5806
 30
0.000000
  70
    32
  0
VERTEX
  8
3
  5
1C37
 10
46.7886
 20
62.5611
 30
0.000000
  70
    32
  0
VERTEX
  8
3
  5
1C38
 10
46.8068
 20
62.5446
 30
0.000000
  70
    32
  0
VERTEX
  8
3
  5
1C39
 10
46.8251
 20
62.5311
 30
0.000000
  70
    32
  0
VERTEX
  8
3
  5
1C3A
 10
46.8435
 20
62.5205
 30
0.000000
  70
    32
  0
VERTEX
  8
3
  5
1C3B
 10
46.8619
 20
62.5130
 30
0.000000
  70
    32
  0
VERTEX
  8
3
  5
1C3C
 10
46.8802
 20
62.5085
 30
0.000000
  70
    32
  0
VERTEX
  8
3
  5
1C3D
 10
46.8987
 20
62.5070
 30
0.000000
  70
    32
  0
SEQEND
  8
3
  5
1C3E
  0
LINE
  5
788
  8
3
 10
56.181515779306778
 20
76.055149484259886
 30
0.0
 11
59.535665779306782
 21
58.255149484259867
 31
0.0
  0
POLYLINE
  5
789
  8
3
 10
53.398655823296281
 20
62.506984752717614
 30
0.0
 66
     1
 70
     8
  0
VERTEX
  8
3
  5
1C3F
 10
53.3987
 20
62.5070
 30
0.000000
  70
    32
  0
VERTEX
  8
3
  5
1C40
 10
53.4171
 20
62.5085
 30
0.000000
  70
    32
  0
VERTEX
  8
3
  5
1C41
 10
53.4355
 20
62.5130
 30
0.000000
  70
    32
  0
VERTEX
  8
3
  5
1C42
 10
53.4538
 20
62.5205
 30
0.000000
  70
    32
  0
VERTEX
  8
3
  5
1C43
 10
53.4722
 20
62.5311
 30
0.000000
  70
    32
  0
VERTEX
  8
3
  5
1C44
 10
53.4905
 20
62.5446
 30
0.000000
  70
    32
  0
VERTEX
  8
3
  5
1C45
 10
53.5087
 20
62.5611
 30
0.000000
  70
    32
  0
VERTEX
  8
3
  5
1C46
 10
53.5269
 20
62.5806
 30
0.000000
  70
    32
  0
VERTEX
  8
3
  5
1C47
 10
53.5450
 20
62.6031
 30
0.000000
  70
    32
  0
VERTEX
  8
3
  5
1C48
 10
53.5630
 20
62.6285
 30
0.000000
  70
    32
  0
VERTEX
  8
3
  5
1C49
 10
53.5809
 20
62.6568
 30
0.000000
  70
    32
  0
VERTEX
  8
3
  5
1C4A
 10
53.5987
 20
62.6881
 30
0.000000
  70
    32
  0
VERTEX
  8
3
  5
1C4B
 10
53.6164
 20
62.7223
 30
0.000000
  70
    32
  0
VERTEX
  8
3
  5
1C4C
 10
53.6339
 20
62.7593
 30
0.000000
  70
    32
  0
VERTEX
  8
3
  5
1C4D
 10
53.6513
 20
62.7993
 30
0.000000
  70
    32
  0
VERTEX
  8
3
  5
1C4E
 10
53.6686
 20
62.8420
 30
0.000000
  70
    32
  0
VERTEX
  8
3
  5
1C4F
 10
53.6857
 20
62.8876
 30
0.000000
  70
    32
  0
VERTEX
  8
3
  5
1C50
 10
53.7026
 20
62.9359
 30
0.000000
  70
    32
  0
VERTEX
  8
3
  5
1C51
 10
53.7193
 20
62.9870
 30
0.000000
  70
    32
  0
VERTEX
  8
3
  5
1C52
 10
53.7359
 20
63.0409
 30
0.000000
  70
    32
  0
VERTEX
  8
3
  5
1C53
 10
53.7522
 20
63.0974
 30
0.000000
  70
    32
  0
VERTEX
  8
3
  5
1C54
 10
53.7683
 20
63.1565
 30
0.000000
  70
    32
  0
VERTEX
  8
3
  5
1C55
 10
53.7842
 20
63.2183
 30
0.000000
  70
    32
  0
VERTEX
  8
3
  5
1C56
 10
53.7999
 20
63.2827
 30
0.000000
  70
    32
  0
VERTEX
  8
3
  5
1C57
 10
53.8153
 20
63.3496
 30
0.000000
  70
    32
  0
VERTEX
  8
3
  5
1C58
 10
53.8305
 20
63.4191
 30
0.000000
  70
    32
  0
VERTEX
  8
3
  5
1C59
 10
53.8454
 20
63.4909
 30
0.000000
  70
    32
  0
VERTEX
  8
3
  5
1C5A
 10
53.8601
 20
63.5653
 30
0.000000
  70
    32
  0
VERTEX
  8
3
  5
1C5B
 10
53.8745
 20
63.6419
 30
0.000000
  70
    32
  0
VERTEX
  8
3
  5
1C5C
 10
53.8885
 20
63.7209
 30
0.000000
  70
    32
  0
VERTEX
  8
3
  5
1C5D
 10
53.9023
 20
63.8022
 30
0.000000
  70
    32
  0
VERTEX
  8
3
  5
1C5E
 10
53.9158
 20
63.8857
 30
0.000000
  70
    32
  0
VERTEX
  8
3
  5
1C5F
 10
53.9290
 20
63.9715
 30
0.000000
  70
    32
  0
VERTEX
  8
3
  5
1C60
 10
53.9418
 20
64.0593
 30
0.000000
  70
    32
  0
VERTEX
  8
3
  5
1C61
 10
53.9544
 20
64.1492
 30
0.000000
  70
    32
  0
VERTEX
  8
3
  5
1C62
 10
53.9666
 20
64.2411
 30
0.000000
  70
    32
  0
VERTEX
  8
3
  5
1C63
 10
53.9784
 20
64.3350
 30
0.000000
  70
    32
  0
VERTEX
  8
3
  5
1C64
 10
53.9899
 20
64.4308
 30
0.000000
  70
    32
  0
VERTEX
  8
3
  5
1C65
 10
54.0011
 20
64.5285
 30
0.000000
  70
    32
  0
VERTEX
  8
3
  5
1C66
 10
54.0118
 20
64.6279
 30
0.000000
  70
    32
  0
VERTEX
  8
3
  5
1C67
 10
54.0223
 20
64.7291
 30
0.000000
  70
    32
  0
VERTEX
  8
3
  5
1C68
 10
54.0323
 20
64.8320
 30
0.000000
  70
    32
  0
VERTEX
  8
3
  5
1C69
 10
54.0420
 20
64.9365
 30
0.000000
  70
    32
  0
VERTEX
  8
3
  5
1C6A
 10
54.0512
 20
65.0425
 30
0.000000
  70
    32
  0
VERTEX
  8
3
  5
1C6B
 10
54.0601
 20
65.1500
 30
0.000000
  70
    32
  0
VERTEX
  8
3
  5
1C6C
 10
54.0686
 20
65.2589
 30
0.000000
  70
    32
  0
VERTEX
  8
3
  5
1C6D
 10
54.0766
 20
65.3692
 30
0.000000
  70
    32
  0
VERTEX
  8
3
  5
1C6E
 10
54.0843
 20
65.4808
 30
0.000000
  70
    32
  0
VERTEX
  8
3
  5
1C6F
 10
54.0916
 20
65.5936
 30
0.000000
  70
    32
  0
VERTEX
  8
3
  5
1C70
 10
54.0984
 20
65.7075
 30
0.000000
  70
    32
  0
VERTEX
  8
3
  5
1C71
 10
54.1048
 20
65.8225
 30
0.000000
  70
    32
  0
VERTEX
  8
3
  5
1C72
 10
54.1108
 20
65.9386
 30
0.000000
  70
    32
  0
VERTEX
  8
3
  5
1C73
 10
54.1164
 20
66.0556
 30
0.000000
  70
    32
  0
VERTEX
  8
3
  5
1C74
 10
54.1215
 20
66.1734
 30
0.000000
  70
    32
  0
VERTEX
  8
3
  5
1C75
 10
54.1262
 20
66.2921
 30
0.000000
  70
    32
  0
VERTEX
  8
3
  5
1C76
 10
54.1304
 20
66.4115
 30
0.000000
  70
    32
  0
VERTEX
  8
3
  5
1C77
 10
54.1342
 20
66.5315
 30
0.000000
  70
    32
  0
VERTEX
  8
3
  5
1C78
 10
54.1376
 20
66.6522
 30
0.000000
  70
    32
  0
VERTEX
  8
3
  5
1C79
 10
54.1405
 20
66.7733
 30
0.000000
  70
    32
  0
VERTEX
  8
3
  5
1C7A
 10
54.1430
 20
66.8949
 30
0.000000
  70
    32
  0
VERTEX
  8
3
  5
1C7B
 10
54.1450
 20
67.0169
 30
0.000000
  70
    32
  0
VERTEX
  8
3
  5
1C7C
 10
54.1466
 20
67.1392
 30
0.000000
  70
    32
  0
VERTEX
  8
3
  5
1C7D
 10
54.1478
 20
67.2616
 30
0.000000
  70
    32
  0
VERTEX
  8
3
  5
1C7E
 10
54.1484
 20
67.3843
 30
0.000000
  70
    32
  0
VERTEX
  8
3
  5
1C7F
 10
54.1487
 20
67.5070
 30
0.000000
  70
    32
  0
VERTEX
  8
3
  5
1C80
 10
54.1484
 20
67.6297
 30
0.000000
  70
    32
  0
VERTEX
  8
3
  5
1C81
 10
54.1478
 20
67.7523
 30
0.000000
  70
    32
  0
VERTEX
  8
3
  5
1C82
 10
54.1466
 20
67.8748
 30
0.000000
  70
    32
  0
VERTEX
  8
3
  5
1C83
 10
54.1450
 20
67.9971
 30
0.000000
  70
    32
  0
VERTEX
  8
3
  5
1C84
 10
54.1430
 20
68.1190
 30
0.000000
  70
    32
  0
VERTEX
  8
3
  5
1C85
 10
54.1405
 20
68.2406
 30
0.000000
  70
    32
  0
VERTEX
  8
3
  5
1C86
 10
54.1376
 20
68.3618
 30
0.000000
  70
    32
  0
VERTEX
  8
3
  5
1C87
 10
54.1342
 20
68.4824
 30
0.000000
  70
    32
  0
VERTEX
  8
3
  5
1C88
 10
54.1304
 20
68.6025
 30
0.000000
  70
    32
  0
VERTEX
  8
3
  5
1C89
 10
54.1262
 20
68.7219
 30
0.000000
  70
    32
  0
VERTEX
  8
3
  5
1C8A
 10
54.1215
 20
68.8405
 30
0.000000
  70
    32
  0
VERTEX
  8
3
  5
1C8B
 10
54.1164
 20
68.9584
 30
0.000000
  70
    32
  0
VERTEX
  8
3
  5
1C8C
 10
54.1108
 20
69.0754
 30
0.000000
  70
    32
  0
VERTEX
  8
3
  5
1C8D
 10
54.1048
 20
69.1914
 30
0.000000
  70
    32
  0
VERTEX
  8
3
  5
1C8E
 10
54.0984
 20
69.3065
 30
0.000000
  70
    32
  0
VERTEX
  8
3
  5
1C8F
 10
54.0916
 20
69.4204
 30
0.000000
  70
    32
  0
VERTEX
  8
3
  5
1C90
 10
54.0843
 20
69.5332
 30
0.000000
  70
    32
  0
VERTEX
  8
3
  5
1C91
 10
54.0766
 20
69.6448
 30
0.000000
  70
    32
  0
VERTEX
  8
3
  5
1C92
 10
54.0686
 20
69.7550
 30
0.000000
  70
    32
  0
VERTEX
  8
3
  5
1C93
 10
54.0601
 20
69.8640
 30
0.000000
  70
    32
  0
VERTEX
  8
3
  5
1C94
 10
54.0512
 20
69.9715
 30
0.000000
  70
    32
  0
VERTEX
  8
3
  5
1C95
 10
54.0420
 20
70.0775
 30
0.000000
  70
    32
  0
VERTEX
  8
3
  5
1C96
 10
54.0323
 20
70.1820
 30
0.000000
  70
    32
  0
VERTEX
  8
3
  5
1C97
 10
54.0223
 20
70.2848
 30
0.000000
  70
    32
  0
VERTEX
  8
3
  5
1C98
 10
54.0118
 20
70.3860
 30
0.000000
  70
    32
  0
VERTEX
  8
3
  5
1C99
 10
54.0011
 20
70.4855
 30
0.000000
  70
    32
  0
VERTEX
  8
3
  5
1C9A
 10
53.9899
 20
70.5831
 30
0.000000
  70
    32
  0
VERTEX
  8
3
  5
1C9B
 10
53.9784
 20
70.6790
 30
0.000000
  70
    32
  0
VERTEX
  8
3
  5
1C9C
 10
53.9666
 20
70.7728
 30
0.000000
  70
    32
  0
VERTEX
  8
3
  5
1C9D
 10
53.9544
 20
70.8648
 30
0.000000
  70
    32
  0
VERTEX
  8
3
  5
1C9E
 10
53.9418
 20
70.9547
 30
0.000000
  70
    32
  0
VERTEX
  8
3
  5
1C9F
 10
53.9290
 20
71.0425
 30
0.000000
  70
    32
  0
VERTEX
  8
3
  5
1CA0
 10
53.9158
 20
71.1282
 30
0.000000
  70
    32
  0
VERTEX
  8
3
  5
1CA1
 10
53.9023
 20
71.2117
 30
0.000000
  70
    32
  0
VERTEX
  8
3
  5
1CA2
 10
53.8885
 20
71.2930
 30
0.000000
  70
    32
  0
VERTEX
  8
3
  5
1CA3
 10
53.8745
 20
71.3720
 30
0.000000
  70
    32
  0
VERTEX
  8
3
  5
1CA4
 10
53.8601
 20
71.4487
 30
0.000000
  70
    32
  0
VERTEX
  8
3
  5
1CA5
 10
53.8454
 20
71.5230
 30
0.000000
  70
    32
  0
VERTEX
  8
3
  5
1CA6
 10
53.8305
 20
71.5949
 30
0.000000
  70
    32
  0
VERTEX
  8
3
  5
1CA7
 10
53.8153
 20
71.6643
 30
0.000000
  70
    32
  0
VERTEX
  8
3
  5
1CA8
 10
53.7999
 20
71.7313
 30
0.000000
  70
    32
  0
VERTEX
  8
3
  5
1CA9
 10
53.7842
 20
71.7956
 30
0.000000
  70
    32
  0
VERTEX
  8
3
  5
1CAA
 10
53.7683
 20
71.8574
 30
0.000000
  70
    32
  0
VERTEX
  8
3
  5
1CAB
 10
53.7522
 20
71.9166
 30
0.000000
  70
    32
  0
VERTEX
  8
3
  5
1CAC
 10
53.7359
 20
71.9731
 30
0.000000
  70
    32
  0
VERTEX
  8
3
  5
1CAD
 10
53.7193
 20
72.0269
 30
0.000000
  70
    32
  0
VERTEX
  8
3
  5
1CAE
 10
53.7026
 20
72.0780
 30
0.000000
  70
    32
  0
VERTEX
  8
3
  5
1CAF
 10
53.6857
 20
72.1264
 30
0.000000
  70
    32
  0
VERTEX
  8
3
  5
1CB0
 10
53.6686
 20
72.1719
 30
0.000000
  70
    32
  0
VERTEX
  8
3
  5
1CB1
 10
53.6513
 20
72.2147
 30
0.000000
  70
    32
  0
VERTEX
  8
3
  5
1CB2
 10
53.6339
 20
72.2546
 30
0.000000
  70
    32
  0
VERTEX
  8
3
  5
1CB3
 10
53.6164
 20
72.2917
 30
0.000000
  70
    32
  0
VERTEX
  8
3
  5
1CB4
 10
53.5987
 20
72.3259
 30
0.000000
  70
    32
  0
VERTEX
  8
3
  5
1CB5
 10
53.5809
 20
72.3571
 30
0.000000
  70
    32
  0
VERTEX
  8
3
  5
1CB6
 10
53.5630
 20
72.3855
 30
0.000000
  70
    32
  0
VERTEX
  8
3
  5
1CB7
 10
53.5450
 20
72.4109
 30
0.000000
  70
    32
  0
VERTEX
  8
3
  5
1CB8
 10
53.5269
 20
72.4334
 30
0.000000
  70
    32
  0
VERTEX
  8
3
  5
1CB9
 10
53.5087
 20
72.4529
 30
0.000000
  70
    32
  0
VERTEX
  8
3
  5
1CBA
 10
53.4905
 20
72.4694
 30
0.000000
  70
    32
  0
VERTEX
  8
3
  5
1CBB
 10
53.4722
 20
72.4829
 30
0.000000
  70
    32
  0
VERTEX
  8
3
  5
1CBC
 10
53.4538
 20
72.4934
 30
0.000000
  70
    32
  0
VERTEX
  8
3
  5
1CBD
 10
53.4355
 20
72.5010
 30
0.000000
  70
    32
  0
VERTEX
  8
3
  5
1CBE
 10
53.4171
 20
72.5055
 30
0.000000
  70
    32
  0
VERTEX
  8
3
  5
1CBF
 10
53.3987
 20
72.5070
 30
0.000000
  70
    32
  0
SEQEND
  8
3
  5
1CC0
  0
POLYLINE
  5
78A
  8
3
 10
53.398655823296281
 20
58.006984752717607
 30
0.0
 66
     1
 70
     8
  0
VERTEX
  8
3
  5
1CC1
 10
53.3987
 20
58.0070
 30
0.000000
  70
    32
  0
VERTEX
  8
3
  5
1CC2
 10
53.4171
 20
58.0077
 30
0.000000
  70
    32
  0
VERTEX
  8
3
  5
1CC3
 10
53.4355
 20
58.0097
 30
0.000000
  70
    32
  0
VERTEX
  8
3
  5
1CC4
 10
53.4538
 20
58.0131
 30
0.000000
  70
    32
  0
VERTEX
  8
3
  5
1CC5
 10
53.4722
 20
58.0178
 30
0.000000
  70
    32
  0
VERTEX
  8
3
  5
1CC6
 10
53.4905
 20
58.0239
 30
0.000000
  70
    32
  0
VERTEX
  8
3
  5
1CC7
 10
53.5087
 20
58.0313
 30
0.000000
  70
    32
  0
VERTEX
  8
3
  5
1CC8
 10
53.5269
 20
58.0401
 30
0.000000
  70
    32
  0
VERTEX
  8
3
  5
1CC9
 10
53.5450
 20
58.0502
 30
0.000000
  70
    32
  0
VERTEX
  8
3
  5
1CCA
 10
53.5630
 20
58.0617
 30
0.000000
  70
    32
  0
VERTEX
  8
3
  5
1CCB
 10
53.5809
 20
58.0744
 30
0.000000
  70
    32
  0
VERTEX
  8
3
  5
1CCC
 10
53.5987
 20
58.0885
 30
0.000000
  70
    32
  0
VERTEX
  8
3
  5
1CCD
 10
53.6164
 20
58.1039
 30
0.000000
  70
    32
  0
VERTEX
  8
3
  5
1CCE
 10
53.6339
 20
58.1205
 30
0.000000
  70
    32
  0
VERTEX
  8
3
  5
1CCF
 10
53.6513
 20
58.1385
 30
0.000000
  70
    32
  0
VERTEX
  8
3
  5
1CD0
 10
53.6686
 20
58.1578
 30
0.000000
  70
    32
  0
VERTEX
  8
3
  5
1CD1
 10
53.6857
 20
58.1783
 30
0.000000
  70
    32
  0
VERTEX
  8
3
  5
1CD2
 10
53.7026
 20
58.2000
 30
0.000000
  70
    32
  0
VERTEX
  8
3
  5
1CD3
 10
53.7193
 20
58.2230
 30
0.000000
  70
    32
  0
VERTEX
  8
3
  5
1CD4
 10
53.7359
 20
58.2472
 30
0.000000
  70
    32
  0
VERTEX
  8
3
  5
1CD5
 10
53.7522
 20
58.2727
 30
0.000000
  70
    32
  0
VERTEX
  8
3
  5
1CD6
 10
53.7683
 20
58.2993
 30
0.000000
  70
    32
  0
VERTEX
  8
3
  5
1CD7
 10
53.7842
 20
58.3271
 30
0.000000
  70
    32
  0
VERTEX
  8
3
  5
1CD8
 10
53.7999
 20
58.3561
 30
0.000000
  70
    32
  0
VERTEX
  8
3
  5
1CD9
 10
53.8153
 20
58.3862
 30
0.000000
  70
    32
  0
VERTEX
  8
3
  5
1CDA
 10
53.8305
 20
58.4174
 30
0.000000
  70
    32
  0
VERTEX
  8
3
  5
1CDB
 10
53.8454
 20
58.4498
 30
0.000000
  70
    32
  0
VERTEX
  8
3
  5
1CDC
 10
53.8601
 20
58.4832
 30
0.000000
  70
    32
  0
VERTEX
  8
3
  5
1CDD
 10
53.8745
 20
58.5177
 30
0.000000
  70
    32
  0
VERTEX
  8
3
  5
1CDE
 10
53.8885
 20
58.5533
 30
0.000000
  70
    32
  0
VERTEX
  8
3
  5
1CDF
 10
53.9023
 20
58.5898
 30
0.000000
  70
    32
  0
VERTEX
  8
3
  5
1CE0
 10
53.9158
 20
58.6274
 30
0.000000
  70
    32
  0
VERTEX
  8
3
  5
1CE1
 10
53.9290
 20
58.6660
 30
0.000000
  70
    32
  0
VERTEX
  8
3
  5
1CE2
 10
53.9418
 20
58.7055
 30
0.000000
  70
    32
  0
VERTEX
  8
3
  5
1CE3
 10
53.9544
 20
58.7460
 30
0.000000
  70
    32
  0
VERTEX
  8
3
  5
1CE4
 10
53.9666
 20
58.7873
 30
0.000000
  70
    32
  0
VERTEX
  8
3
  5
1CE5
 10
53.9784
 20
58.8296
 30
0.000000
  70
    32
  0
VERTEX
  8
3
  5
1CE6
 10
53.9899
 20
58.8727
 30
0.000000
  70
    32
  0
VERTEX
  8
3
  5
1CE7
 10
54.0011
 20
58.9167
 30
0.000000
  70
    32
  0
VERTEX
  8
3
  5
1CE8
 10
54.0118
 20
58.9614
 30
0.000000
  70
    32
  0
VERTEX
  8
3
  5
1CE9
 10
54.0223
 20
59.0070
 30
0.000000
  70
    32
  0
VERTEX
  8
3
  5
1CEA
 10
54.0323
 20
59.0532
 30
0.000000
  70
    32
  0
VERTEX
  8
3
  5
1CEB
 10
54.0420
 20
59.1003
 30
0.000000
  70
    32
  0
VERTEX
  8
3
  5
1CEC
 10
54.0512
 20
59.1480
 30
0.000000
  70
    32
  0
VERTEX
  8
3
  5
1CED
 10
54.0601
 20
59.1963
 30
0.000000
  70
    32
  0
VERTEX
  8
3
  5
1CEE
 10
54.0686
 20
59.2454
 30
0.000000
  70
    32
  0
VERTEX
  8
3
  5
1CEF
 10
54.0766
 20
59.2950
 30
0.000000
  70
    32
  0
VERTEX
  8
3
  5
1CF0
 10
54.0843
 20
59.3452
 30
0.000000
  70
    32
  0
VERTEX
  8
3
  5
1CF1
 10
54.0916
 20
59.3959
 30
0.000000
  70
    32
  0
VERTEX
  8
3
  5
1CF2
 10
54.0984
 20
59.4472
 30
0.000000
  70
    32
  0
VERTEX
  8
3
  5
1CF3
 10
54.1048
 20
59.4990
 30
0.000000
  70
    32
  0
VERTEX
  8
3
  5
1CF4
 10
54.1108
 20
59.5512
 30
0.000000
  70
    32
  0
VERTEX
  8
3
  5
1CF5
 10
54.1164
 20
59.6038
 30
0.000000
  70
    32
  0
VERTEX
  8
3
  5
1CF6
 10
54.1215
 20
59.6569
 30
0.000000
  70
    32
  0
VERTEX
  8
3
  5
1CF7
 10
54.1262
 20
59.7103
 30
0.000000
  70
    32
  0
VERTEX
  8
3
  5
1CF8
 10
54.1304
 20
59.7640
 30
0.000000
  70
    32
  0
VERTEX
  8
3
  5
1CF9
 10
54.1342
 20
59.8180
 30
0.000000
  70
    32
  0
VERTEX
  8
3
  5
1CFA
 10
54.1376
 20
59.8723
 30
0.000000
  70
    32
  0
VERTEX
  8
3
  5
1CFB
 10
54.1405
 20
59.9268
 30
0.000000
  70
    32
  0
VERTEX
  8
3
  5
1CFC
 10
54.1430
 20
59.9816
 30
0.000000
  70
    32
  0
VERTEX
  8
3
  5
1CFD
 10
54.1450
 20
60.0364
 30
0.000000
  70
    32
  0
VERTEX
  8
3
  5
1CFE
 10
54.1466
 20
60.0915
 30
0.000000
  70
    32
  0
VERTEX
  8
3
  5
1CFF
 10
54.1478
 20
60.1466
 30
0.000000
  70
    32
  0
VERTEX
  8
3
  5
1D00
 10
54.1484
 20
60.2018
 30
0.000000
  70
    32
  0
VERTEX
  8
3
  5
1D01
 10
54.1487
 20
60.2570
 30
0.000000
  70
    32
  0
VERTEX
  8
3
  5
1D02
 10
54.1484
 20
60.3122
 30
0.000000
  70
    32
  0
VERTEX
  8
3
  5
1D03
 10
54.1478
 20
60.3674
 30
0.000000
  70
    32
  0
VERTEX
  8
3
  5
1D04
 10
54.1466
 20
60.4225
 30
0.000000
  70
    32
  0
VERTEX
  8
3
  5
1D05
 10
54.1450
 20
60.4775
 30
0.000000
  70
    32
  0
VERTEX
  8
3
  5
1D06
 10
54.1430
 20
60.5324
 30
0.000000
  70
    32
  0
VERTEX
  8
3
  5
1D07
 10
54.1405
 20
60.5871
 30
0.000000
  70
    32
  0
VERTEX
  8
3
  5
1D08
 10
54.1376
 20
60.6416
 30
0.000000
  70
    32
  0
VERTEX
  8
3
  5
1D09
 10
54.1342
 20
60.6959
 30
0.000000
  70
    32
  0
VERTEX
  8
3
  5
1D0A
 10
54.1304
 20
60.7500
 30
0.000000
  70
    32
  0
VERTEX
  8
3
  5
1D0B
 10
54.1262
 20
60.8037
 30
0.000000
  70
    32
  0
VERTEX
  8
3
  5
1D0C
 10
54.1215
 20
60.8571
 30
0.000000
  70
    32
  0
VERTEX
  8
3
  5
1D0D
 10
54.1164
 20
60.9101
 30
0.000000
  70
    32
  0
VERTEX
  8
3
  5
1D0E
 10
54.1108
 20
60.9628
 30
0.000000
  70
    32
  0
VERTEX
  8
3
  5
1D0F
 10
54.1048
 20
61.0150
 30
0.000000
  70
    32
  0
VERTEX
  8
3
  5
1D10
 10
54.0984
 20
61.0667
 30
0.000000
  70
    32
  0
VERTEX
  8
3
  5
1D11
 10
54.0916
 20
61.1180
 30
0.000000
  70
    32
  0
VERTEX
  8
3
  5
1D12
 10
54.0843
 20
61.1688
 30
0.000000
  70
    32
  0
VERTEX
  8
3
  5
1D13
 10
54.0766
 20
61.2190
 30
0.000000
  70
    32
  0
VERTEX
  8
3
  5
1D14
 10
54.0686
 20
61.2686
 30
0.000000
  70
    32
  0
VERTEX
  8
3
  5
1D15
 10
54.0601
 20
61.3176
 30
0.000000
  70
    32
  0
VERTEX
  8
3
  5
1D16
 10
54.0512
 20
61.3660
 30
0.000000
  70
    32
  0
VERTEX
  8
3
  5
1D17
 10
54.0420
 20
61.4137
 30
0.000000
  70
    32
  0
VERTEX
  8
3
  5
1D18
 10
54.0323
 20
61.4607
 30
0.000000
  70
    32
  0
VERTEX
  8
3
  5
1D19
 10
54.0223
 20
61.5070
 30
0.000000
  70
    32
  0
VERTEX
  8
3
  5
1D1A
 10
54.0118
 20
61.5526
 30
0.000000
  70
    32
  0
VERTEX
  8
3
  5
1D1B
 10
54.0011
 20
61.5973
 30
0.000000
  70
    32
  0
VERTEX
  8
3
  5
1D1C
 10
53.9899
 20
61.6413
 30
0.000000
  70
    32
  0
VERTEX
  8
3
  5
1D1D
 10
53.9784
 20
61.6844
 30
0.000000
  70
    32
  0
VERTEX
  8
3
  5
1D1E
 10
53.9666
 20
61.7266
 30
0.000000
  70
    32
  0
VERTEX
  8
3
  5
1D1F
 10
53.9544
 20
61.7680
 30
0.000000
  70
    32
  0
VERTEX
  8
3
  5
1D20
 10
53.9418
 20
61.8085
 30
0.000000
  70
    32
  0
VERTEX
  8
3
  5
1D21
 10
53.9290
 20
61.8480
 30
0.000000
  70
    32
  0
VERTEX
  8
3
  5
1D22
 10
53.9158
 20
61.8865
 30
0.000000
  70
    32
  0
VERTEX
  8
3
  5
1D23
 10
53.9023
 20
61.9241
 30
0.000000
  70
    32
  0
VERTEX
  8
3
  5
1D24
 10
53.8885
 20
61.9607
 30
0.000000
  70
    32
  0
VERTEX
  8
3
  5
1D25
 10
53.8745
 20
61.9963
 30
0.000000
  70
    32
  0
VERTEX
  8
3
  5
1D26
 10
53.8601
 20
62.0308
 30
0.000000
  70
    32
  0
VERTEX
  8
3
  5
1D27
 10
53.8454
 20
62.0642
 30
0.000000
  70
    32
  0
VERTEX
  8
3
  5
1D28
 10
53.8305
 20
62.0966
 30
0.000000
  70
    32
  0
VERTEX
  8
3
  5
1D29
 10
53.8153
 20
62.1278
 30
0.000000
  70
    32
  0
VERTEX
  8
3
  5
1D2A
 10
53.7999
 20
62.1579
 30
0.000000
  70
    32
  0
VERTEX
  8
3
  5
1D2B
 10
53.7842
 20
62.1869
 30
0.000000
  70
    32
  0
VERTEX
  8
3
  5
1D2C
 10
53.7683
 20
62.2147
 30
0.000000
  70
    32
  0
VERTEX
  8
3
  5
1D2D
 10
53.7522
 20
62.2413
 30
0.000000
  70
    32
  0
VERTEX
  8
3
  5
1D2E
 10
53.7359
 20
62.2667
 30
0.000000
  70
    32
  0
VERTEX
  8
3
  5
1D2F
 10
53.7193
 20
62.2910
 30
0.000000
  70
    32
  0
VERTEX
  8
3
  5
1D30
 10
53.7026
 20
62.3140
 30
0.000000
  70
    32
  0
VERTEX
  8
3
  5
1D31
 10
53.6857
 20
62.3357
 30
0.000000
  70
    32
  0
VERTEX
  8
3
  5
1D32
 10
53.6686
 20
62.3562
 30
0.000000
  70
    32
  0
VERTEX
  8
3
  5
1D33
 10
53.6513
 20
62.3755
 30
0.000000
  70
    32
  0
VERTEX
  8
3
  5
1D34
 10
53.6339
 20
62.3934
 30
0.000000
  70
    32
  0
VERTEX
  8
3
  5
1D35
 10
53.6164
 20
62.4101
 30
0.000000
  70
    32
  0
VERTEX
  8
3
  5
1D36
 10
53.5987
 20
62.4255
 30
0.000000
  70
    32
  0
VERTEX
  8
3
  5
1D37
 10
53.5809
 20
62.4396
 30
0.000000
  70
    32
  0
VERTEX
  8
3
  5
1D38
 10
53.5630
 20
62.4523
 30
0.000000
  70
    32
  0
VERTEX
  8
3
  5
1D39
 10
53.5450
 20
62.4638
 30
0.000000
  70
    32
  0
VERTEX
  8
3
  5
1D3A
 10
53.5269
 20
62.4739
 30
0.000000
  70
    32
  0
VERTEX
  8
3
  5
1D3B
 10
53.5087
 20
62.4826
 30
0.000000
  70
    32
  0
VERTEX
  8
3
  5
1D3C
 10
53.4905
 20
62.4901
 30
0.000000
  70
    32
  0
VERTEX
  8
3
  5
1D3D
 10
53.4722
 20
62.4962
 30
0.000000
  70
    32
  0
VERTEX
  8
3
  5
1D3E
 10
53.4538
 20
62.5009
 30
0.000000
  70
    32
  0
VERTEX
  8
3
  5
1D3F
 10
53.4355
 20
62.5043
 30
0.000000
  70
    32
  0
VERTEX
  8
3
  5
1D40
 10
53.4171
 20
62.5063
 30
0.000000
  70
    32
  0
VERTEX
  8
3
  5
1D41
 10
53.3987
 20
62.5070
 30
0.000000
  70
    32
  0
SEQEND
  8
3
  5
1D42
  0
LINE
  5
78B
  8
3
 10
53.398655823296451
 20
62.506984752717607
 30
0.0
 11
46.89865582329616
 21
62.506984752717607
 31
0.0
  0
LINE
  5
78C
  8
3
 10
53.398655823296451
 20
58.006984752717621
 30
0.0
 11
46.898655823296281
 21
58.006984752717621
 31
0.0
  0
POLYLINE
  5
78D
  8
3
 10
46.898655823296281
 20
62.506984752717599
 30
0.0
 66
     1
 70
     8
  0
VERTEX
  8
3
  5
1D43
 10
46.8987
 20
62.5070
 30
0.000000
  70
    32
  0
VERTEX
  8
3
  5
1D44
 10
46.8802
 20
62.5063
 30
0.000000
  70
    32
  0
VERTEX
  8
3
  5
1D45
 10
46.8619
 20
62.5043
 30
0.000000
  70
    32
  0
VERTEX
  8
3
  5
1D46
 10
46.8435
 20
62.5009
 30
0.000000
  70
    32
  0
VERTEX
  8
3
  5
1D47
 10
46.8251
 20
62.4962
 30
0.000000
  70
    32
  0
VERTEX
  8
3
  5
1D48
 10
46.8068
 20
62.4901
 30
0.000000
  70
    32
  0
VERTEX
  8
3
  5
1D49
 10
46.7886
 20
62.4826
 30
0.000000
  70
    32
  0
VERTEX
  8
3
  5
1D4A
 10
46.7704
 20
62.4739
 30
0.000000
  70
    32
  0
VERTEX
  8
3
  5
1D4B
 10
46.7523
 20
62.4638
 30
0.000000
  70
    32
  0
VERTEX
  8
3
  5
1D4C
 10
46.7343
 20
62.4523
 30
0.000000
  70
    32
  0
VERTEX
  8
3
  5
1D4D
 10
46.7164
 20
62.4396
 30
0.000000
  70
    32
  0
VERTEX
  8
3
  5
1D4E
 10
46.6986
 20
62.4255
 30
0.000000
  70
    32
  0
VERTEX
  8
3
  5
1D4F
 10
46.6809
 20
62.4101
 30
0.000000
  70
    32
  0
VERTEX
  8
3
  5
1D50
 10
46.6634
 20
62.3934
 30
0.000000
  70
    32
  0
VERTEX
  8
3
  5
1D51
 10
46.6460
 20
62.3755
 30
0.000000
  70
    32
  0
VERTEX
  8
3
  5
1D52
 10
46.6287
 20
62.3562
 30
0.000000
  70
    32
  0
VERTEX
  8
3
  5
1D53
 10
46.6116
 20
62.3357
 30
0.000000
  70
    32
  0
VERTEX
  8
3
  5
1D54
 10
46.5947
 20
62.3140
 30
0.000000
  70
    32
  0
VERTEX
  8
3
  5
1D55
 10
46.5780
 20
62.2910
 30
0.000000
  70
    32
  0
VERTEX
  8
3
  5
1D56
 10
46.5614
 20
62.2667
 30
0.000000
  70
    32
  0
VERTEX
  8
3
  5
1D57
 10
46.5451
 20
62.2413
 30
0.000000
  70
    32
  0
VERTEX
  8
3
  5
1D58
 10
46.5290
 20
62.2147
 30
0.000000
  70
    32
  0
VERTEX
  8
3
  5
1D59
 10
46.5131
 20
62.1869
 30
0.000000
  70
    32
  0
VERTEX
  8
3
  5
1D5A
 10
46.4974
 20
62.1579
 30
0.000000
  70
    32
  0
VERTEX
  8
3
  5
1D5B
 10
46.4820
 20
62.1278
 30
0.000000
  70
    32
  0
VERTEX
  8
3
  5
1D5C
 10
46.4668
 20
62.0966
 30
0.000000
  70
    32
  0
VERTEX
  8
3
  5
1D5D
 10
46.4519
 20
62.0642
 30
0.000000
  70
    32
  0
VERTEX
  8
3
  5
1D5E
 10
46.4372
 20
62.0308
 30
0.000000
  70
    32
  0
VERTEX
  8
3
  5
1D5F
 10
46.4229
 20
61.9963
 30
0.000000
  70
    32
  0
VERTEX
  8
3
  5
1D60
 10
46.4088
 20
61.9607
 30
0.000000
  70
    32
  0
VERTEX
  8
3
  5
1D61
 10
46.3950
 20
61.9241
 30
0.000000
  70
    32
  0
VERTEX
  8
3
  5
1D62
 10
46.3815
 20
61.8865
 30
0.000000
  70
    32
  0
VERTEX
  8
3
  5
1D63
 10
46.3683
 20
61.8480
 30
0.000000
  70
    32
  0
VERTEX
  8
3
  5
1D64
 10
46.3555
 20
61.8085
 30
0.000000
  70
    32
  0
VERTEX
  8
3
  5
1D65
 10
46.3429
 20
61.7680
 30
0.000000
  70
    32
  0
VERTEX
  8
3
  5
1D66
 10
46.3307
 20
61.7266
 30
0.000000
  70
    32
  0
VERTEX
  8
3
  5
1D67
 10
46.3189
 20
61.6844
 30
0.000000
  70
    32
  0
VERTEX
  8
3
  5
1D68
 10
46.3074
 20
61.6413
 30
0.000000
  70
    32
  0
VERTEX
  8
3
  5
1D69
 10
46.2963
 20
61.5973
 30
0.000000
  70
    32
  0
VERTEX
  8
3
  5
1D6A
 10
46.2855
 20
61.5526
 30
0.000000
  70
    32
  0
VERTEX
  8
3
  5
1D6B
 10
46.2751
 20
61.5070
 30
0.000000
  70
    32
  0
VERTEX
  8
3
  5
1D6C
 10
46.2650
 20
61.4607
 30
0.000000
  70
    32
  0
VERTEX
  8
3
  5
1D6D
 10
46.2554
 20
61.4137
 30
0.000000
  70
    32
  0
VERTEX
  8
3
  5
1D6E
 10
46.2461
 20
61.3660
 30
0.000000
  70
    32
  0
VERTEX
  8
3
  5
1D6F
 10
46.2372
 20
61.3176
 30
0.000000
  70
    32
  0
VERTEX
  8
3
  5
1D70
 10
46.2287
 20
61.2686
 30
0.000000
  70
    32
  0
VERTEX
  8
3
  5
1D71
 10
46.2207
 20
61.2190
 30
0.000000
  70
    32
  0
VERTEX
  8
3
  5
1D72
 10
46.2130
 20
61.1688
 30
0.000000
  70
    32
  0
VERTEX
  8
3
  5
1D73
 10
46.2057
 20
61.1180
 30
0.000000
  70
    32
  0
VERTEX
  8
3
  5
1D74
 10
46.1989
 20
61.0667
 30
0.000000
  70
    32
  0
VERTEX
  8
3
  5
1D75
 10
46.1925
 20
61.0150
 30
0.000000
  70
    32
  0
VERTEX
  8
3
  5
1D76
 10
46.1865
 20
60.9628
 30
0.000000
  70
    32
  0
VERTEX
  8
3
  5
1D77
 10
46.1810
 20
60.9101
 30
0.000000
  70
    32
  0
VERTEX
  8
3
  5
1D78
 10
46.1758
 20
60.8571
 30
0.000000
  70
    32
  0
VERTEX
  8
3
  5
1D79
 10
46.1711
 20
60.8037
 30
0.000000
  70
    32
  0
VERTEX
  8
3
  5
1D7A
 10
46.1669
 20
60.7500
 30
0.000000
  70
    32
  0
VERTEX
  8
3
  5
1D7B
 10
46.1631
 20
60.6959
 30
0.000000
  70
    32
  0
VERTEX
  8
3
  5
1D7C
 10
46.1597
 20
60.6416
 30
0.000000
  70
    32
  0
VERTEX
  8
3
  5
1D7D
 10
46.1568
 20
60.5871
 30
0.000000
  70
    32
  0
VERTEX
  8
3
  5
1D7E
 10
46.1543
 20
60.5324
 30
0.000000
  70
    32
  0
VERTEX
  8
3
  5
1D7F
 10
46.1523
 20
60.4775
 30
0.000000
  70
    32
  0
VERTEX
  8
3
  5
1D80
 10
46.1507
 20
60.4225
 30
0.000000
  70
    32
  0
VERTEX
  8
3
  5
1D81
 10
46.1496
 20
60.3674
 30
0.000000
  70
    32
  0
VERTEX
  8
3
  5
1D82
 10
46.1489
 20
60.3122
 30
0.000000
  70
    32
  0
VERTEX
  8
3
  5
1D83
 10
46.1487
 20
60.2570
 30
0.000000
  70
    32
  0
VERTEX
  8
3
  5
1D84
 10
46.1489
 20
60.2018
 30
0.000000
  70
    32
  0
VERTEX
  8
3
  5
1D85
 10
46.1496
 20
60.1466
 30
0.000000
  70
    32
  0
VERTEX
  8
3
  5
1D86
 10
46.1507
 20
60.0915
 30
0.000000
  70
    32
  0
VERTEX
  8
3
  5
1D87
 10
46.1523
 20
60.0364
 30
0.000000
  70
    32
  0
VERTEX
  8
3
  5
1D88
 10
46.1543
 20
59.9816
 30
0.000000
  70
    32
  0
VERTEX
  8
3
  5
1D89
 10
46.1568
 20
59.9268
 30
0.000000
  70
    32
  0
VERTEX
  8
3
  5
1D8A
 10
46.1597
 20
59.8723
 30
0.000000
  70
    32
  0
VERTEX
  8
3
  5
1D8B
 10
46.1631
 20
59.8180
 30
0.000000
  70
    32
  0
VERTEX
  8
3
  5
1D8C
 10
46.1669
 20
59.7640
 30
0.000000
  70
    32
  0
VERTEX
  8
3
  5
1D8D
 10
46.1711
 20
59.7103
 30
0.000000
  70
    32
  0
VERTEX
  8
3
  5
1D8E
 10
46.1758
 20
59.6569
 30
0.000000
  70
    32
  0
VERTEX
  8
3
  5
1D8F
 10
46.1810
 20
59.6038
 30
0.000000
  70
    32
  0
VERTEX
  8
3
  5
1D90
 10
46.1865
 20
59.5512
 30
0.000000
  70
    32
  0
VERTEX
  8
3
  5
1D91
 10
46.1925
 20
59.4990
 30
0.000000
  70
    32
  0
VERTEX
  8
3
  5
1D92
 10
46.1989
 20
59.4472
 30
0.000000
  70
    32
  0
VERTEX
  8
3
  5
1D93
 10
46.2057
 20
59.3959
 30
0.000000
  70
    32
  0
VERTEX
  8
3
  5
1D94
 10
46.2130
 20
59.3452
 30
0.000000
  70
    32
  0
VERTEX
  8
3
  5
1D95
 10
46.2207
 20
59.2950
 30
0.000000
  70
    32
  0
VERTEX
  8
3
  5
1D96
 10
46.2287
 20
59.2454
 30
0.000000
  70
    32
  0
VERTEX
  8
3
  5
1D97
 10
46.2372
 20
59.1963
 30
0.000000
  70
    32
  0
VERTEX
  8
3
  5
1D98
 10
46.2461
 20
59.1480
 30
0.000000
  70
    32
  0
VERTEX
  8
3
  5
1D99
 10
46.2554
 20
59.1003
 30
0.000000
  70
    32
  0
VERTEX
  8
3
  5
1D9A
 10
46.2650
 20
59.0532
 30
0.000000
  70
    32
  0
VERTEX
  8
3
  5
1D9B
 10
46.2751
 20
59.0070
 30
0.000000
  70
    32
  0
VERTEX
  8
3
  5
1D9C
 10
46.2855
 20
58.9614
 30
0.000000
  70
    32
  0
VERTEX
  8
3
  5
1D9D
 10
46.2963
 20
58.9167
 30
0.000000
  70
    32
  0
VERTEX
  8
3
  5
1D9E
 10
46.3074
 20
58.8727
 30
0.000000
  70
    32
  0
VERTEX
  8
3
  5
1D9F
 10
46.3189
 20
58.8296
 30
0.000000
  70
    32
  0
VERTEX
  8
3
  5
1DA0
 10
46.3307
 20
58.7873
 30
0.000000
  70
    32
  0
VERTEX
  8
3
  5
1DA1
 10
46.3429
 20
58.7460
 30
0.000000
  70
    32
  0
VERTEX
  8
3
  5
1DA2
 10
46.3555
 20
58.7055
 30
0.000000
  70
    32
  0
VERTEX
  8
3
  5
1DA3
 10
46.3683
 20
58.6660
 30
0.000000
  70
    32
  0
VERTEX
  8
3
  5
1DA4
 10
46.3815
 20
58.6274
 30
0.000000
  70
    32
  0
VERTEX
  8
3
  5
1DA5
 10
46.3950
 20
58.5898
 30
0.000000
  70
    32
  0
VERTEX
  8
3
  5
1DA6
 10
46.4088
 20
58.5533
 30
0.000000
  70
    32
  0
VERTEX
  8
3
  5
1DA7
 10
46.4229
 20
58.5177
 30
0.000000
  70
    32
  0
VERTEX
  8
3
  5
1DA8
 10
46.4372
 20
58.4832
 30
0.000000
  70
    32
  0
VERTEX
  8
3
  5
1DA9
 10
46.4519
 20
58.4498
 30
0.000000
  70
    32
  0
VERTEX
  8
3
  5
1DAA
 10
46.4668
 20
58.4174
 30
0.000000
  70
    32
  0
VERTEX
  8
3
  5
1DAB
 10
46.4820
 20
58.3862
 30
0.000000
  70
    32
  0
VERTEX
  8
3
  5
1DAC
 10
46.4974
 20
58.3561
 30
0.000000
  70
    32
  0
VERTEX
  8
3
  5
1DAD
 10
46.5131
 20
58.3271
 30
0.000000
  70
    32
  0
VERTEX
  8
3
  5
1DAE
 10
46.5290
 20
58.2993
 30
0.000000
  70
    32
  0
VERTEX
  8
3
  5
1DAF
 10
46.5451
 20
58.2727
 30
0.000000
  70
    32
  0
VERTEX
  8
3
  5
1DB0
 10
46.5614
 20
58.2472
 30
0.000000
  70
    32
  0
VERTEX
  8
3
  5
1DB1
 10
46.5780
 20
58.2230
 30
0.000000
  70
    32
  0
VERTEX
  8
3
  5
1DB2
 10
46.5947
 20
58.2000
 30
0.000000
  70
    32
  0
VERTEX
  8
3
  5
1DB3
 10
46.6116
 20
58.1783
 30
0.000000
  70
    32
  0
VERTEX
  8
3
  5
1DB4
 10
46.6287
 20
58.1578
 30
0.000000
  70
    32
  0
VERTEX
  8
3
  5
1DB5
 10
46.6460
 20
58.1385
 30
0.000000
  70
    32
  0
VERTEX
  8
3
  5
1DB6
 10
46.6634
 20
58.1205
 30
0.000000
  70
    32
  0
VERTEX
  8
3
  5
1DB7
 10
46.6809
 20
58.1039
 30
0.000000
  70
    32
  0
VERTEX
  8
3
  5
1DB8
 10
46.6986
 20
58.0885
 30
0.000000
  70
    32
  0
VERTEX
  8
3
  5
1DB9
 10
46.7164
 20
58.0744
 30
0.000000
  70
    32
  0
VERTEX
  8
3
  5
1DBA
 10
46.7343
 20
58.0617
 30
0.000000
  70
    32
  0
VERTEX
  8
3
  5
1DBB
 10
46.7523
 20
58.0502
 30
0.000000
  70
    32
  0
VERTEX
  8
3
  5
1DBC
 10
46.7704
 20
58.0401
 30
0.000000
  70
    32
  0
VERTEX
  8
3
  5
1DBD
 10
46.7886
 20
58.0313
 30
0.000000
  70
    32
  0
VERTEX
  8
3
  5
1DBE
 10
46.8068
 20
58.0239
 30
0.000000
  70
    32
  0
VERTEX
  8
3
  5
1DBF
 10
46.8251
 20
58.0178
 30
0.000000
  70
    32
  0
VERTEX
  8
3
  5
1DC0
 10
46.8435
 20
58.0131
 30
0.000000
  70
    32
  0
VERTEX
  8
3
  5
1DC1
 10
46.8619
 20
58.0097
 30
0.000000
  70
    32
  0
VERTEX
  8
3
  5
1DC2
 10
46.8802
 20
58.0077
 30
0.000000
  70
    32
  0
VERTEX
  8
3
  5
1DC3
 10
46.8987
 20
58.0070
 30
0.000000
  70
    32
  0
SEQEND
  8
3
  5
1DC4
  0
LINE
  5
78E
  8
3
 10
56.148655823296281
 20
60.706984752717659
 30
0.0
 11
59.073653236290049
 21
60.706984752717631
 31
0.0
  0
LINE
  5
78F
  8
3
 10
58.037923373710441
 20
58.40532136250485
 30
0.0
 11
58.283606544575832
 21
60.706984752717659
 31
0.0
  0
POLYLINE
  5
790
  8
3
 10
53.398655823296281
 20
72.506984752717614
 30
0.0
 66
     1
 70
     8
  0
VERTEX
  8
3
  5
1DC5
 10
53.3987
 20
72.5070
 30
0.000000
  70
    32
  0
VERTEX
  8
3
  5
1DC6
 10
53.4171
 20
72.5077
 30
0.000000
  70
    32
  0
VERTEX
  8
3
  5
1DC7
 10
53.4355
 20
72.5097
 30
0.000000
  70
    32
  0
VERTEX
  8
3
  5
1DC8
 10
53.4538
 20
72.5131
 30
0.000000
  70
    32
  0
VERTEX
  8
3
  5
1DC9
 10
53.4722
 20
72.5178
 30
0.000000
  70
    32
  0
VERTEX
  8
3
  5
1DCA
 10
53.4905
 20
72.5239
 30
0.000000
  70
    32
  0
VERTEX
  8
3
  5
1DCB
 10
53.5087
 20
72.5313
 30
0.000000
  70
    32
  0
VERTEX
  8
3
  5
1DCC
 10
53.5269
 20
72.5401
 30
0.000000
  70
    32
  0
VERTEX
  8
3
  5
1DCD
 10
53.5450
 20
72.5502
 30
0.000000
  70
    32
  0
VERTEX
  8
3
  5
1DCE
 10
53.5630
 20
72.5617
 30
0.000000
  70
    32
  0
VERTEX
  8
3
  5
1DCF
 10
53.5809
 20
72.5744
 30
0.000000
  70
    32
  0
VERTEX
  8
3
  5
1DD0
 10
53.5987
 20
72.5885
 30
0.000000
  70
    32
  0
VERTEX
  8
3
  5
1DD1
 10
53.6164
 20
72.6039
 30
0.000000
  70
    32
  0
VERTEX
  8
3
  5
1DD2
 10
53.6339
 20
72.6205
 30
0.000000
  70
    32
  0
VERTEX
  8
3
  5
1DD3
 10
53.6513
 20
72.6385
 30
0.000000
  70
    32
  0
VERTEX
  8
3
  5
1DD4
 10
53.6686
 20
72.6578
 30
0.000000
  70
    32
  0
VERTEX
  8
3
  5
1DD5
 10
53.6857
 20
72.6783
 30
0.000000
  70
    32
  0
VERTEX
  8
3
  5
1DD6
 10
53.7026
 20
72.7000
 30
0.000000
  70
    32
  0
VERTEX
  8
3
  5
1DD7
 10
53.7193
 20
72.7230
 30
0.000000
  70
    32
  0
VERTEX
  8
3
  5
1DD8
 10
53.7359
 20
72.7472
 30
0.000000
  70
    32
  0
VERTEX
  8
3
  5
1DD9
 10
53.7522
 20
72.7727
 30
0.000000
  70
    32
  0
VERTEX
  8
3
  5
1DDA
 10
53.7683
 20
72.7993
 30
0.000000
  70
    32
  0
VERTEX
  8
3
  5
1DDB
 10
53.7842
 20
72.8271
 30
0.000000
  70
    32
  0
VERTEX
  8
3
  5
1DDC
 10
53.7999
 20
72.8561
 30
0.000000
  70
    32
  0
VERTEX
  8
3
  5
1DDD
 10
53.8153
 20
72.8862
 30
0.000000
  70
    32
  0
VERTEX
  8
3
  5
1DDE
 10
53.8305
 20
72.9174
 30
0.000000
  70
    32
  0
VERTEX
  8
3
  5
1DDF
 10
53.8454
 20
72.9498
 30
0.000000
  70
    32
  0
VERTEX
  8
3
  5
1DE0
 10
53.8601
 20
72.9832
 30
0.000000
  70
    32
  0
VERTEX
  8
3
  5
1DE1
 10
53.8745
 20
73.0177
 30
0.000000
  70
    32
  0
VERTEX
  8
3
  5
1DE2
 10
53.8885
 20
73.0533
 30
0.000000
  70
    32
  0
VERTEX
  8
3
  5
1DE3
 10
53.9023
 20
73.0898
 30
0.000000
  70
    32
  0
VERTEX
  8
3
  5
1DE4
 10
53.9158
 20
73.1274
 30
0.000000
  70
    32
  0
VERTEX
  8
3
  5
1DE5
 10
53.9290
 20
73.1660
 30
0.000000
  70
    32
  0
VERTEX
  8
3
  5
1DE6
 10
53.9418
 20
73.2055
 30
0.000000
  70
    32
  0
VERTEX
  8
3
  5
1DE7
 10
53.9544
 20
73.2460
 30
0.000000
  70
    32
  0
VERTEX
  8
3
  5
1DE8
 10
53.9666
 20
73.2873
 30
0.000000
  70
    32
  0
VERTEX
  8
3
  5
1DE9
 10
53.9784
 20
73.3296
 30
0.000000
  70
    32
  0
VERTEX
  8
3
  5
1DEA
 10
53.9899
 20
73.3727
 30
0.000000
  70
    32
  0
VERTEX
  8
3
  5
1DEB
 10
54.0011
 20
73.4167
 30
0.000000
  70
    32
  0
VERTEX
  8
3
  5
1DEC
 10
54.0118
 20
73.4614
 30
0.000000
  70
    32
  0
VERTEX
  8
3
  5
1DED
 10
54.0223
 20
73.5070
 30
0.000000
  70
    32
  0
VERTEX
  8
3
  5
1DEE
 10
54.0323
 20
73.5532
 30
0.000000
  70
    32
  0
VERTEX
  8
3
  5
1DEF
 10
54.0420
 20
73.6003
 30
0.000000
  70
    32
  0
VERTEX
  8
3
  5
1DF0
 10
54.0512
 20
73.6480
 30
0.000000
  70
    32
  0
VERTEX
  8
3
  5
1DF1
 10
54.0601
 20
73.6963
 30
0.000000
  70
    32
  0
VERTEX
  8
3
  5
1DF2
 10
54.0686
 20
73.7454
 30
0.000000
  70
    32
  0
VERTEX
  8
3
  5
1DF3
 10
54.0766
 20
73.7950
 30
0.000000
  70
    32
  0
VERTEX
  8
3
  5
1DF4
 10
54.0843
 20
73.8452
 30
0.000000
  70
    32
  0
VERTEX
  8
3
  5
1DF5
 10
54.0916
 20
73.8959
 30
0.000000
  70
    32
  0
VERTEX
  8
3
  5
1DF6
 10
54.0984
 20
73.9472
 30
0.000000
  70
    32
  0
VERTEX
  8
3
  5
1DF7
 10
54.1048
 20
73.9990
 30
0.000000
  70
    32
  0
VERTEX
  8
3
  5
1DF8
 10
54.1108
 20
74.0512
 30
0.000000
  70
    32
  0
VERTEX
  8
3
  5
1DF9
 10
54.1164
 20
74.1038
 30
0.000000
  70
    32
  0
VERTEX
  8
3
  5
1DFA
 10
54.1215
 20
74.1569
 30
0.000000
  70
    32
  0
VERTEX
  8
3
  5
1DFB
 10
54.1262
 20
74.2103
 30
0.000000
  70
    32
  0
VERTEX
  8
3
  5
1DFC
 10
54.1304
 20
74.2640
 30
0.000000
  70
    32
  0
VERTEX
  8
3
  5
1DFD
 10
54.1342
 20
74.3180
 30
0.000000
  70
    32
  0
VERTEX
  8
3
  5
1DFE
 10
54.1376
 20
74.3723
 30
0.000000
  70
    32
  0
VERTEX
  8
3
  5
1DFF
 10
54.1405
 20
74.4268
 30
0.000000
  70
    32
  0
VERTEX
  8
3
  5
1E00
 10
54.1430
 20
74.4816
 30
0.000000
  70
    32
  0
VERTEX
  8
3
  5
1E01
 10
54.1450
 20
74.5364
 30
0.000000
  70
    32
  0
VERTEX
  8
3
  5
1E02
 10
54.1466
 20
74.5915
 30
0.000000
  70
    32
  0
VERTEX
  8
3
  5
1E03
 10
54.1478
 20
74.6466
 30
0.000000
  70
    32
  0
VERTEX
  8
3
  5
1E04
 10
54.1484
 20
74.7018
 30
0.000000
  70
    32
  0
VERTEX
  8
3
  5
1E05
 10
54.1487
 20
74.7570
 30
0.000000
  70
    32
  0
VERTEX
  8
3
  5
1E06
 10
54.1484
 20
74.8122
 30
0.000000
  70
    32
  0
VERTEX
  8
3
  5
1E07
 10
54.1478
 20
74.8674
 30
0.000000
  70
    32
  0
VERTEX
  8
3
  5
1E08
 10
54.1466
 20
74.9225
 30
0.000000
  70
    32
  0
VERTEX
  8
3
  5
1E09
 10
54.1450
 20
74.9775
 30
0.000000
  70
    32
  0
VERTEX
  8
3
  5
1E0A
 10
54.1430
 20
75.0324
 30
0.000000
  70
    32
  0
VERTEX
  8
3
  5
1E0B
 10
54.1405
 20
75.0871
 30
0.000000
  70
    32
  0
VERTEX
  8
3
  5
1E0C
 10
54.1376
 20
75.1416
 30
0.000000
  70
    32
  0
VERTEX
  8
3
  5
1E0D
 10
54.1342
 20
75.1959
 30
0.000000
  70
    32
  0
VERTEX
  8
3
  5
1E0E
 10
54.1304
 20
75.2500
 30
0.000000
  70
    32
  0
VERTEX
  8
3
  5
1E0F
 10
54.1262
 20
75.3037
 30
0.000000
  70
    32
  0
VERTEX
  8
3
  5
1E10
 10
54.1215
 20
75.3571
 30
0.000000
  70
    32
  0
VERTEX
  8
3
  5
1E11
 10
54.1164
 20
75.4101
 30
0.000000
  70
    32
  0
VERTEX
  8
3
  5
1E12
 10
54.1108
 20
75.4628
 30
0.000000
  70
    32
  0
VERTEX
  8
3
  5
1E13
 10
54.1048
 20
75.5150
 30
0.000000
  70
    32
  0
VERTEX
  8
3
  5
1E14
 10
54.0984
 20
75.5667
 30
0.000000
  70
    32
  0
VERTEX
  8
3
  5
1E15
 10
54.0916
 20
75.6180
 30
0.000000
  70
    32
  0
VERTEX
  8
3
  5
1E16
 10
54.0843
 20
75.6688
 30
0.000000
  70
    32
  0
VERTEX
  8
3
  5
1E17
 10
54.0766
 20
75.7190
 30
0.000000
  70
    32
  0
VERTEX
  8
3
  5
1E18
 10
54.0686
 20
75.7686
 30
0.000000
  70
    32
  0
VERTEX
  8
3
  5
1E19
 10
54.0601
 20
75.8176
 30
0.000000
  70
    32
  0
VERTEX
  8
3
  5
1E1A
 10
54.0512
 20
75.8660
 30
0.000000
  70
    32
  0
VERTEX
  8
3
  5
1E1B
 10
54.0420
 20
75.9137
 30
0.000000
  70
    32
  0
VERTEX
  8
3
  5
1E1C
 10
54.0323
 20
75.9607
 30
0.000000
  70
    32
  0
VERTEX
  8
3
  5
1E1D
 10
54.0223
 20
76.0070
 30
0.000000
  70
    32
  0
VERTEX
  8
3
  5
1E1E
 10
54.0118
 20
76.0526
 30
0.000000
  70
    32
  0
VERTEX
  8
3
  5
1E1F
 10
54.0011
 20
76.0973
 30
0.000000
  70
    32
  0
VERTEX
  8
3
  5
1E20
 10
53.9899
 20
76.1413
 30
0.000000
  70
    32
  0
VERTEX
  8
3
  5
1E21
 10
53.9784
 20
76.1844
 30
0.000000
  70
    32
  0
VERTEX
  8
3
  5
1E22
 10
53.9666
 20
76.2266
 30
0.000000
  70
    32
  0
VERTEX
  8
3
  5
1E23
 10
53.9544
 20
76.2680
 30
0.000000
  70
    32
  0
VERTEX
  8
3
  5
1E24
 10
53.9418
 20
76.3085
 30
0.000000
  70
    32
  0
VERTEX
  8
3
  5
1E25
 10
53.9290
 20
76.3480
 30
0.000000
  70
    32
  0
VERTEX
  8
3
  5
1E26
 10
53.9158
 20
76.3865
 30
0.000000
  70
    32
  0
VERTEX
  8
3
  5
1E27
 10
53.9023
 20
76.4241
 30
0.000000
  70
    32
  0
VERTEX
  8
3
  5
1E28
 10
53.8885
 20
76.4607
 30
0.000000
  70
    32
  0
VERTEX
  8
3
  5
1E29
 10
53.8745
 20
76.4963
 30
0.000000
  70
    32
  0
VERTEX
  8
3
  5
1E2A
 10
53.8601
 20
76.5308
 30
0.000000
  70
    32
  0
VERTEX
  8
3
  5
1E2B
 10
53.8454
 20
76.5642
 30
0.000000
  70
    32
  0
VERTEX
  8
3
  5
1E2C
 10
53.8305
 20
76.5966
 30
0.000000
  70
    32
  0
VERTEX
  8
3
  5
1E2D
 10
53.8153
 20
76.6278
 30
0.000000
  70
    32
  0
VERTEX
  8
3
  5
1E2E
 10
53.7999
 20
76.6579
 30
0.000000
  70
    32
  0
VERTEX
  8
3
  5
1E2F
 10
53.7842
 20
76.6869
 30
0.000000
  70
    32
  0
VERTEX
  8
3
  5
1E30
 10
53.7683
 20
76.7147
 30
0.000000
  70
    32
  0
VERTEX
  8
3
  5
1E31
 10
53.7522
 20
76.7413
 30
0.000000
  70
    32
  0
VERTEX
  8
3
  5
1E32
 10
53.7359
 20
76.7667
 30
0.000000
  70
    32
  0
VERTEX
  8
3
  5
1E33
 10
53.7193
 20
76.7910
 30
0.000000
  70
    32
  0
VERTEX
  8
3
  5
1E34
 10
53.7026
 20
76.8140
 30
0.000000
  70
    32
  0
VERTEX
  8
3
  5
1E35
 10
53.6857
 20
76.8357
 30
0.000000
  70
    32
  0
VERTEX
  8
3
  5
1E36
 10
53.6686
 20
76.8562
 30
0.000000
  70
    32
  0
VERTEX
  8
3
  5
1E37
 10
53.6513
 20
76.8755
 30
0.000000
  70
    32
  0
VERTEX
  8
3
  5
1E38
 10
53.6339
 20
76.8934
 30
0.000000
  70
    32
  0
VERTEX
  8
3
  5
1E39
 10
53.6164
 20
76.9101
 30
0.000000
  70
    32
  0
VERTEX
  8
3
  5
1E3A
 10
53.5987
 20
76.9255
 30
0.000000
  70
    32
  0
VERTEX
  8
3
  5
1E3B
 10
53.5809
 20
76.9396
 30
0.000000
  70
    32
  0
VERTEX
  8
3
  5
1E3C
 10
53.5630
 20
76.9523
 30
0.000000
  70
    32
  0
VERTEX
  8
3
  5
1E3D
 10
53.5450
 20
76.9638
 30
0.000000
  70
    32
  0
VERTEX
  8
3
  5
1E3E
 10
53.5269
 20
76.9739
 30
0.000000
  70
    32
  0
VERTEX
  8
3
  5
1E3F
 10
53.5087
 20
76.9826
 30
0.000000
  70
    32
  0
VERTEX
  8
3
  5
1E40
 10
53.4905
 20
76.9901
 30
0.000000
  70
    32
  0
VERTEX
  8
3
  5
1E41
 10
53.4722
 20
76.9962
 30
0.000000
  70
    32
  0
VERTEX
  8
3
  5
1E42
 10
53.4538
 20
77.0009
 30
0.000000
  70
    32
  0
VERTEX
  8
3
  5
1E43
 10
53.4355
 20
77.0043
 30
0.000000
  70
    32
  0
VERTEX
  8
3
  5
1E44
 10
53.4171
 20
77.0063
 30
0.000000
  70
    32
  0
VERTEX
  8
3
  5
1E45
 10
53.3987
 20
77.0070
 30
0.000000
  70
    32
  0
SEQEND
  8
3
  5
1E46
  0
LINE
  5
791
  8
3
 10
53.398655823295996
 20
77.006984752717614
 30
0.0
 11
46.89865582329616
 21
77.006984752717614
 31
0.0
  0
LINE
  5
792
  8
3
 10
53.398655823296451
 20
72.506984752717614
 30
0.0
 11
46.898655823296281
 21
72.506984752717614
 31
0.0
  0
POLYLINE
  5
793
  8
3
 10
46.898655823296281
 20
77.006984752717614
 30
0.0
 66
     1
 70
     8
  0
VERTEX
  8
3
  5
1E47
 10
46.8987
 20
77.0070
 30
0.000000
  70
    32
  0
VERTEX
  8
3
  5
1E48
 10
46.8802
 20
77.0063
 30
0.000000
  70
    32
  0
VERTEX
  8
3
  5
1E49
 10
46.8619
 20
77.0043
 30
0.000000
  70
    32
  0
VERTEX
  8
3
  5
1E4A
 10
46.8435
 20
77.0009
 30
0.000000
  70
    32
  0
VERTEX
  8
3
  5
1E4B
 10
46.8251
 20
76.9962
 30
0.000000
  70
    32
  0
VERTEX
  8
3
  5
1E4C
 10
46.8068
 20
76.9901
 30
0.000000
  70
    32
  0
VERTEX
  8
3
  5
1E4D
 10
46.7886
 20
76.9826
 30
0.000000
  70
    32
  0
VERTEX
  8
3
  5
1E4E
 10
46.7704
 20
76.9739
 30
0.000000
  70
    32
  0
VERTEX
  8
3
  5
1E4F
 10
46.7523
 20
76.9638
 30
0.000000
  70
    32
  0
VERTEX
  8
3
  5
1E50
 10
46.7343
 20
76.9523
 30
0.000000
  70
    32
  0
VERTEX
  8
3
  5
1E51
 10
46.7164
 20
76.9396
 30
0.000000
  70
    32
  0
VERTEX
  8
3
  5
1E52
 10
46.6986
 20
76.9255
 30
0.000000
  70
    32
  0
VERTEX
  8
3
  5
1E53
 10
46.6809
 20
76.9101
 30
0.000000
  70
    32
  0
VERTEX
  8
3
  5
1E54
 10
46.6634
 20
76.8934
 30
0.000000
  70
    32
  0
VERTEX
  8
3
  5
1E55
 10
46.6460
 20
76.8755
 30
0.000000
  70
    32
  0
VERTEX
  8
3
  5
1E56
 10
46.6287
 20
76.8562
 30
0.000000
  70
    32
  0
VERTEX
  8
3
  5
1E57
 10
46.6116
 20
76.8357
 30
0.000000
  70
    32
  0
VERTEX
  8
3
  5
1E58
 10
46.5947
 20
76.8140
 30
0.000000
  70
    32
  0
VERTEX
  8
3
  5
1E59
 10
46.5780
 20
76.7910
 30
0.000000
  70
    32
  0
VERTEX
  8
3
  5
1E5A
 10
46.5614
 20
76.7667
 30
0.000000
  70
    32
  0
VERTEX
  8
3
  5
1E5B
 10
46.5451
 20
76.7413
 30
0.000000
  70
    32
  0
VERTEX
  8
3
  5
1E5C
 10
46.5290
 20
76.7147
 30
0.000000
  70
    32
  0
VERTEX
  8
3
  5
1E5D
 10
46.5131
 20
76.6869
 30
0.000000
  70
    32
  0
VERTEX
  8
3
  5
1E5E
 10
46.4974
 20
76.6579
 30
0.000000
  70
    32
  0
VERTEX
  8
3
  5
1E5F
 10
46.4820
 20
76.6278
 30
0.000000
  70
    32
  0
VERTEX
  8
3
  5
1E60
 10
46.4668
 20
76.5966
 30
0.000000
  70
    32
  0
VERTEX
  8
3
  5
1E61
 10
46.4519
 20
76.5642
 30
0.000000
  70
    32
  0
VERTEX
  8
3
  5
1E62
 10
46.4372
 20
76.5308
 30
0.000000
  70
    32
  0
VERTEX
  8
3
  5
1E63
 10
46.4229
 20
76.4963
 30
0.000000
  70
    32
  0
VERTEX
  8
3
  5
1E64
 10
46.4088
 20
76.4607
 30
0.000000
  70
    32
  0
VERTEX
  8
3
  5
1E65
 10
46.3950
 20
76.4241
 30
0.000000
  70
    32
  0
VERTEX
  8
3
  5
1E66
 10
46.3815
 20
76.3865
 30
0.000000
  70
    32
  0
VERTEX
  8
3
  5
1E67
 10
46.3683
 20
76.3480
 30
0.000000
  70
    32
  0
VERTEX
  8
3
  5
1E68
 10
46.3555
 20
76.3085
 30
0.000000
  70
    32
  0
VERTEX
  8
3
  5
1E69
 10
46.3429
 20
76.2680
 30
0.000000
  70
    32
  0
VERTEX
  8
3
  5
1E6A
 10
46.3307
 20
76.2266
 30
0.000000
  70
    32
  0
VERTEX
  8
3
  5
1E6B
 10
46.3189
 20
76.1844
 30
0.000000
  70
    32
  0
VERTEX
  8
3
  5
1E6C
 10
46.3074
 20
76.1413
 30
0.000000
  70
    32
  0
VERTEX
  8
3
  5
1E6D
 10
46.2963
 20
76.0973
 30
0.000000
  70
    32
  0
VERTEX
  8
3
  5
1E6E
 10
46.2855
 20
76.0526
 30
0.000000
  70
    32
  0
VERTEX
  8
3
  5
1E6F
 10
46.2751
 20
76.0070
 30
0.000000
  70
    32
  0
VERTEX
  8
3
  5
1E70
 10
46.2650
 20
75.9607
 30
0.000000
  70
    32
  0
VERTEX
  8
3
  5
1E71
 10
46.2554
 20
75.9137
 30
0.000000
  70
    32
  0
VERTEX
  8
3
  5
1E72
 10
46.2461
 20
75.8660
 30
0.000000
  70
    32
  0
VERTEX
  8
3
  5
1E73
 10
46.2372
 20
75.8176
 30
0.000000
  70
    32
  0
VERTEX
  8
3
  5
1E74
 10
46.2287
 20
75.7686
 30
0.000000
  70
    32
  0
VERTEX
  8
3
  5
1E75
 10
46.2207
 20
75.7190
 30
0.000000
  70
    32
  0
VERTEX
  8
3
  5
1E76
 10
46.2130
 20
75.6688
 30
0.000000
  70
    32
  0
VERTEX
  8
3
  5
1E77
 10
46.2057
 20
75.6180
 30
0.000000
  70
    32
  0
VERTEX
  8
3
  5
1E78
 10
46.1989
 20
75.5667
 30
0.000000
  70
    32
  0
VERTEX
  8
3
  5
1E79
 10
46.1925
 20
75.5150
 30
0.000000
  70
    32
  0
VERTEX
  8
3
  5
1E7A
 10
46.1865
 20
75.4628
 30
0.000000
  70
    32
  0
VERTEX
  8
3
  5
1E7B
 10
46.1810
 20
75.4101
 30
0.000000
  70
    32
  0
VERTEX
  8
3
  5
1E7C
 10
46.1758
 20
75.3571
 30
0.000000
  70
    32
  0
VERTEX
  8
3
  5
1E7D
 10
46.1711
 20
75.3037
 30
0.000000
  70
    32
  0
VERTEX
  8
3
  5
1E7E
 10
46.1669
 20
75.2500
 30
0.000000
  70
    32
  0
VERTEX
  8
3
  5
1E7F
 10
46.1631
 20
75.1959
 30
0.000000
  70
    32
  0
VERTEX
  8
3
  5
1E80
 10
46.1597
 20
75.1416
 30
0.000000
  70
    32
  0
VERTEX
  8
3
  5
1E81
 10
46.1568
 20
75.0871
 30
0.000000
  70
    32
  0
VERTEX
  8
3
  5
1E82
 10
46.1543
 20
75.0324
 30
0.000000
  70
    32
  0
VERTEX
  8
3
  5
1E83
 10
46.1523
 20
74.9775
 30
0.000000
  70
    32
  0
VERTEX
  8
3
  5
1E84
 10
46.1507
 20
74.9225
 30
0.000000
  70
    32
  0
VERTEX
  8
3
  5
1E85
 10
46.1496
 20
74.8674
 30
0.000000
  70
    32
  0
VERTEX
  8
3
  5
1E86
 10
46.1489
 20
74.8122
 30
0.000000
  70
    32
  0
VERTEX
  8
3
  5
1E87
 10
46.1487
 20
74.7570
 30
0.000000
  70
    32
  0
VERTEX
  8
3
  5
1E88
 10
46.1489
 20
74.7018
 30
0.000000
  70
    32
  0
VERTEX
  8
3
  5
1E89
 10
46.1496
 20
74.6466
 30
0.000000
  70
    32
  0
VERTEX
  8
3
  5
1E8A
 10
46.1507
 20
74.5915
 30
0.000000
  70
    32
  0
VERTEX
  8
3
  5
1E8B
 10
46.1523
 20
74.5364
 30
0.000000
  70
    32
  0
VERTEX
  8
3
  5
1E8C
 10
46.1543
 20
74.4816
 30
0.000000
  70
    32
  0
VERTEX
  8
3
  5
1E8D
 10
46.1568
 20
74.4268
 30
0.000000
  70
    32
  0
VERTEX
  8
3
  5
1E8E
 10
46.1597
 20
74.3723
 30
0.000000
  70
    32
  0
VERTEX
  8
3
  5
1E8F
 10
46.1631
 20
74.3180
 30
0.000000
  70
    32
  0
VERTEX
  8
3
  5
1E90
 10
46.1669
 20
74.2640
 30
0.000000
  70
    32
  0
VERTEX
  8
3
  5
1E91
 10
46.1711
 20
74.2103
 30
0.000000
  70
    32
  0
VERTEX
  8
3
  5
1E92
 10
46.1758
 20
74.1569
 30
0.000000
  70
    32
  0
VERTEX
  8
3
  5
1E93
 10
46.1810
 20
74.1038
 30
0.000000
  70
    32
  0
VERTEX
  8
3
  5
1E94
 10
46.1865
 20
74.0512
 30
0.000000
  70
    32
  0
VERTEX
  8
3
  5
1E95
 10
46.1925
 20
73.9990
 30
0.000000
  70
    32
  0
VERTEX
  8
3
  5
1E96
 10
46.1989
 20
73.9472
 30
0.000000
  70
    32
  0
VERTEX
  8
3
  5
1E97
 10
46.2057
 20
73.8959
 30
0.000000
  70
    32
  0
VERTEX
  8
3
  5
1E98
 10
46.2130
 20
73.8452
 30
0.000000
  70
    32
  0
VERTEX
  8
3
  5
1E99
 10
46.2207
 20
73.7950
 30
0.000000
  70
    32
  0
VERTEX
  8
3
  5
1E9A
 10
46.2287
 20
73.7454
 30
0.000000
  70
    32
  0
VERTEX
  8
3
  5
1E9B
 10
46.2372
 20
73.6963
 30
0.000000
  70
    32
  0
VERTEX
  8
3
  5
1E9C
 10
46.2461
 20
73.6480
 30
0.000000
  70
    32
  0
VERTEX
  8
3
  5
1E9D
 10
46.2554
 20
73.6003
 30
0.000000
  70
    32
  0
VERTEX
  8
3
  5
1E9E
 10
46.2650
 20
73.5532
 30
0.000000
  70
    32
  0
VERTEX
  8
3
  5
1E9F
 10
46.2751
 20
73.5070
 30
0.000000
  70
    32
  0
VERTEX
  8
3
  5
1EA0
 10
46.2855
 20
73.4614
 30
0.000000
  70
    32
  0
VERTEX
  8
3
  5
1EA1
 10
46.2963
 20
73.4167
 30
0.000000
  70
    32
  0
VERTEX
  8
3
  5
1EA2
 10
46.3074
 20
73.3727
 30
0.000000
  70
    32
  0
VERTEX
  8
3
  5
1EA3
 10
46.3189
 20
73.3296
 30
0.000000
  70
    32
  0
VERTEX
  8
3
  5
1EA4
 10
46.3307
 20
73.2873
 30
0.000000
  70
    32
  0
VERTEX
  8
3
  5
1EA5
 10
46.3429
 20
73.2460
 30
0.000000
  70
    32
  0
VERTEX
  8
3
  5
1EA6
 10
46.3555
 20
73.2055
 30
0.000000
  70
    32
  0
VERTEX
  8
3
  5
1EA7
 10
46.3683
 20
73.1660
 30
0.000000
  70
    32
  0
VERTEX
  8
3
  5
1EA8
 10
46.3815
 20
73.1274
 30
0.000000
  70
    32
  0
VERTEX
  8
3
  5
1EA9
 10
46.3950
 20
73.0898
 30
0.000000
  70
    32
  0
VERTEX
  8
3
  5
1EAA
 10
46.4088
 20
73.0533
 30
0.000000
  70
    32
  0
VERTEX
  8
3
  5
1EAB
 10
46.4229
 20
73.0177
 30
0.000000
  70
    32
  0
VERTEX
  8
3
  5
1EAC
 10
46.4372
 20
72.9832
 30
0.000000
  70
    32
  0
VERTEX
  8
3
  5
1EAD
 10
46.4519
 20
72.9498
 30
0.000000
  70
    32
  0
VERTEX
  8
3
  5
1EAE
 10
46.4668
 20
72.9174
 30
0.000000
  70
    32
  0
VERTEX
  8
3
  5
1EAF
 10
46.4820
 20
72.8862
 30
0.000000
  70
    32
  0
VERTEX
  8
3
  5
1EB0
 10
46.4974
 20
72.8561
 30
0.000000
  70
    32
  0
VERTEX
  8
3
  5
1EB1
 10
46.5131
 20
72.8271
 30
0.000000
  70
    32
  0
VERTEX
  8
3
  5
1EB2
 10
46.5290
 20
72.7993
 30
0.000000
  70
    32
  0
VERTEX
  8
3
  5
1EB3
 10
46.5451
 20
72.7727
 30
0.000000
  70
    32
  0
VERTEX
  8
3
  5
1EB4
 10
46.5614
 20
72.7472
 30
0.000000
  70
    32
  0
VERTEX
  8
3
  5
1EB5
 10
46.5780
 20
72.7230
 30
0.000000
  70
    32
  0
VERTEX
  8
3
  5
1EB6
 10
46.5947
 20
72.7000
 30
0.000000
  70
    32
  0
VERTEX
  8
3
  5
1EB7
 10
46.6116
 20
72.6783
 30
0.000000
  70
    32
  0
VERTEX
  8
3
  5
1EB8
 10
46.6287
 20
72.6578
 30
0.000000
  70
    32
  0
VERTEX
  8
3
  5
1EB9
 10
46.6460
 20
72.6385
 30
0.000000
  70
    32
  0
VERTEX
  8
3
  5
1EBA
 10
46.6634
 20
72.6205
 30
0.000000
  70
    32
  0
VERTEX
  8
3
  5
1EBB
 10
46.6809
 20
72.6039
 30
0.000000
  70
    32
  0
VERTEX
  8
3
  5
1EBC
 10
46.6986
 20
72.5885
 30
0.000000
  70
    32
  0
VERTEX
  8
3
  5
1EBD
 10
46.7164
 20
72.5744
 30
0.000000
  70
    32
  0
VERTEX
  8
3
  5
1EBE
 10
46.7343
 20
72.5617
 30
0.000000
  70
    32
  0
VERTEX
  8
3
  5
1EBF
 10
46.7523
 20
72.5502
 30
0.000000
  70
    32
  0
VERTEX
  8
3
  5
1EC0
 10
46.7704
 20
72.5401
 30
0.000000
  70
    32
  0
VERTEX
  8
3
  5
1EC1
 10
46.7886
 20
72.5313
 30
0.000000
  70
    32
  0
VERTEX
  8
3
  5
1EC2
 10
46.8068
 20
72.5239
 30
0.000000
  70
    32
  0
VERTEX
  8
3
  5
1EC3
 10
46.8251
 20
72.5178
 30
0.000000
  70
    32
  0
VERTEX
  8
3
  5
1EC4
 10
46.8435
 20
72.5131
 30
0.000000
  70
    32
  0
VERTEX
  8
3
  5
1EC5
 10
46.8619
 20
72.5097
 30
0.000000
  70
    32
  0
VERTEX
  8
3
  5
1EC6
 10
46.8802
 20
72.5077
 30
0.000000
  70
    32
  0
VERTEX
  8
3
  5
1EC7
 10
46.8987
 20
72.5070
 30
0.000000
  70
    32
  0
SEQEND
  8
3
  5
1EC8
  0
LINE
  5
794
  8
3
 10
56.148655823296281
 20
80.506984752717614
 30
0.0
 11
56.148655823296281
 21
74.306984752717625
 31
0.0
  0
ARC
  5
795
  8
3
 10
58.048655823296251
 20
76.406984752717605
 30
0.0
 40
1.8999999999999999
 50
10.67142040090839
 51
190.6714204009084
  0
LINE
  5
796
  8
3
 10
56.850115595840627
 20
72.506984752717614
 30
0.0
 11
56.148655823296281
 21
72.506984752717614
 31
0.0
  0
LINE
  5
797
  8
3
 10
56.148655823296281
 20
74.306984752717568
 30
0.0
 11
56.510931887975453
 21
74.306984752717568
 31
0.0
  0
LINE
  5
798
  8
3
 10
54.148655823296281
 20
80.506984752717614
 30
0.0
 11
56.148655823296281
 21
80.506984752717614
 31
0.0
  0
ARC
  5
799
  8
1
 10
75.009470867285813
 20
54.85882002117534
 30
0.0
 40
13.0
 50
0.0
 51
90.0
  0
ARC
  5
79A
  8
3
 10
74.819405823296265
 20
58.606984752717601
 30
0.0
 40
1.8999999999999999
 50
190.6714204009084
 51
10.67142040090839
  0
ARC
  5
79B
  8
3
 10
68.111105823296271
 20
58.606984752717601
 30
0.0
 40
1.8999999999999999
 50
190.6714204009084
 51
10.67142040090839
  0
LINE
  5
79C
  8
0
 10
92.688154532132259
 20
57.480136356328899
 30
0.0
 11
94.809470867285825
 21
55.358820021175291
 31
0.0
  0
ARC
  5
79D
  8
0
 10
88.009470867285813
 20
54.85882002117534
 30
0.0
 40
1.75
 50
332.451927200098
 51
90.0
  0
ARC
  5
79E
  8
0
 10
88.009470867285785
 20
50.336650209854298
 30
0.0
 40
7.6721698113209706
 50
40.889005271887576
 51
63.998928755770379
  0
LINE
  5
79F
  8
0
 10
97.261306135743553
 20
58.341879977185783
 30
0.0
 11
79.461306135743541
 21
54.987729977185779
 31
0.0
  0
ARC
  5
7A0
  8
0
 10
79.109470867285822
 20
56.854870021175337
 30
0.0
 40
1.8999999999999999
 50
100.67142040090791
 51
280.67142040090789
  0
LINE
  5
7A1
  8
0
 10
97.261306135743553
 20
51.633579977185768
 30
0.0
 11
79.461306135743527
 21
48.279429977185771
 31
0.0
  0
LINE
  5
7A2
  8
0
 10
96.557635598828114
 20
55.367860065164876
 30
0.0
 11
78.757635598828088
 21
52.013710065164872
 31
0.0
  0
LINE
  5
7A3
  8
0
 10
96.704282454130194
 20
48.681307978441907
 30
0.0
 11
78.904282454130154
 21
46.747707978441888
 31
0.0
  0
LINE
  5
7A4
  8
0
 10
78.757635598828088
 20
48.279429977185771
 30
0.0
 11
81.209470867285816
 21
47.817417434169037
 31
0.0
  0
LINE
  5
7A5
  8
0
 10
78.757635598828088
 20
54.987729977185779
 30
0.0
 11
81.209470867285788
 21
54.525717434169053
 31
0.0
  0
ARC
  5
7A7
  8
0
 10
79.109470867285793
 20
50.146570021175343
 30
0.0
 40
1.8999999999999999
 50
100.67142040090791
 51
280.67142040090789
  0
ARC
  5
7A8
  8
0
 10
79.109470867285793
 20
44.85882002117534
 30
0.0
 40
1.8999999999999999
 50
96.199685667784095
 51
180.0
  0
LINE
  5
7A9
  8
0
 10
87.842905880243634
 20
49.858820021175397
 30
0.0
 11
93.809470867285853
 21
49.858820021175397
 31
0.0
  0
LINE
  5
7AA
  8
0
 10
81.209470867285788
 20
48.608846085854452
 30
0.0
 11
81.209470867285802
 21
46.998118782693432
 31
0.0
  0
ARC
  5
7AB
  8
0
 10
88.009470867285785
 20
50.336650209854298
 30
0.0
 40
7.6721698113209706
 50
137.343912046046
 51
139.11099472811151
  0
LINE
  5
7AC
  8
0
 10
81.430628552157486
 20
55.358820021175397
 30
0.0
 11
82.209470867285802
 21
55.358820021175397
 31
0.0
  0
LINE
  5
7AD
  8
0
 10
81.209470867285773
 20
55.317146085854461
 30
0.0
 11
81.209470867285773
 21
52.47572260818157
 31
0.0
  0
LINE
  5
7AE
  8
0
 10
82.209470867285802
 20
55.358820021175397
 30
0.0
 11
82.209470867285802
 21
52.664158001440001
 31
0.0
  0
ARC
  5
7AF
  8
0
 10
88.009470867285813
 20
54.85882002117534
 30
0.0
 40
1.75
 50
113.0067803997176
 51
228.89091360171861
  0
LINE
  5
7B0
  8
0
 10
94.809470867285825
 20
51.171567434169098
 30
0.0
 11
94.809470867285825
 21
48.475476086064248
 31
0.0
  0
LINE
  5
7B1
  8
0
 10
97.114659280441487
 20
44.903532063908749
 30
0.0
 11
96.703056901120462
 21
44.85882002117534
 31
0.0
  0
LINE
  5
7B2
  8
0
 10
94.809470867285825
 20
49.121572608181587
 30
0.0
 11
97.261306135743553
 21
48.659560065164897
 31
0.0
  0
LINE
  5
7B3
  8
0
 10
93.809470867285796
 20
50.983132040910618
 30
0.0
 11
93.809470867285825
 21
49.858820021175383
 31
0.0
  0
LINE
  5
7B4
  8
0
 10
93.809470867285825
 20
55.358820021175312
 30
0.0
 11
94.809470867285825
 21
55.358820021175291
 31
0.0
  0
LINE
  5
7B5
  8
0
 10
94.809470867285825
 20
55.358820021175291
 30
0.0
 11
94.809470867285825
 21
55.038443956496216
 31
0.0
  0
LINE
  5
7B6
  8
0
 10
93.809470867285853
 20
55.358820021175312
 30
0.0
 11
93.809470867285839
 21
54.850008563237729
 31
0.0
  0
LINE
  5
7B7
  8
0
 10
94.229045620677823
 20
55.939245267783292
 30
0.0
 11
97.261306135743567
 21
55.367860065164876
 31
0.0
  0
LINE
  5
7B8
  8
0
 10
96.557635598828099
 20
62.076160065164878
 30
0.0
 11
78.757635598828102
 21
58.722010065164881
 31
0.0
  0
LINE
  5
7B9
  8
0
 10
97.261306135743553
 20
65.050179977185792
 30
0.0
 11
79.461306135743527
 21
61.696029977185788
 31
0.0
  0
LINE
  5
7BA
  8
0
 10
96.557635598828114
 20
68.784460065164865
 30
0.0
 11
78.757635598828088
 21
65.430310065164861
 31
0.0
  0
LINE
  5
7BB
  8
0
 10
97.261306135743553
 20
71.7584799771858
 30
0.0
 11
79.461306135743541
 21
68.404329977185796
 31
0.0
  0
LINE
  5
7BC
  8
0
 10
96.557635598828099
 20
75.492760065164873
 30
0.0
 11
78.757635598828088
 21
72.138610065164869
 31
0.0
  0
LINE
  5
7BD
  8
0
 10
97.261306135743553
 20
78.466779977185809
 30
0.0
 11
79.461306135743527
 21
75.112629977185804
 31
0.0
  0
LINE
  5
7BE
  8
0
 10
96.557635598828099
 20
82.201060065164882
 30
0.0
 11
78.757635598828088
 21
78.846910065164863
 31
0.0
  0
LINE
  5
7BF
  8
0
 10
78.757635598828074
 20
61.696029977185788
 30
0.0
 11
83.009470867285813
 21
60.894833726303887
 31
0.0
  0
LINE
  5
7C0
  8
0
 10
78.757635598828088
 20
68.404329977185796
 30
0.0
 11
83.009470867285813
 21
67.603133726303895
 31
0.0
  0
LINE
  5
7C1
  8
0
 10
78.757635598828088
 20
75.112629977185804
 30
0.0
 11
83.009470867285813
 21
74.311433726303903
 31
0.0
  0
LINE
  5
7C2
  8
0
 10
78.757635598828074
 20
81.820929977185827
 30
0.0
 11
83.009470867285813
 21
81.019733726303912
 31
0.0
  0
ARC
  5
7C3
  8
0
 10
79.109470867285793
 20
63.563170021175317
 30
0.0
 40
1.8999999999999999
 50
100.67142040090791
 51
280.67142040090789
  0
ARC
  5
7C4
  8
0
 10
79.109470867285793
 20
70.271470021175332
 30
0.0
 40
1.8999999999999999
 50
100.67142040090791
 51
280.67142040090829
  0
LINE
  5
7C5
  8
3
 10
73.332395867285868
 20
76.758820021175353
 30
0.0
 11
76.686545867285815
 21
58.958820021175342
 31
0.0
  0
LINE
  5
7C6
  8
3
 10
69.598115779306738
 20
76.055149484259886
 30
0.0
 11
72.952265779306742
 21
58.255149484259867
 31
0.0
  0
LINE
  5
7C7
  8
3
 10
62.88981577930673
 20
76.055149484259886
 30
0.0
 11
66.243965779306734
 21
58.255149484259867
 31
0.0
  0
LINE
  5
7C8
  8
3
 10
69.148655823296281
 20
73.806984752717625
 30
0.0
 11
69.148655823296281
 21
63.361337136693038
 31
0.0
  0
LINE
  5
7C9
  8
3
 10
66.624095867285845
 20
76.758820021175353
 30
0.0
 11
69.978245867285864
 21
58.958820021175342
 31
0.0
  0
LINE
  5
7CA
  8
3
 10
72.151069528424884
 20
62.506984752717607
 30
0.0
 11
69.309646050751994
 21
62.506984752717607
 31
0.0
  0
LINE
  5
7CB
  8
3
 10
69.121210657493563
 20
63.506984752717607
 30
0.0
 11
71.962634135166454
 21
63.506984752717607
 31
0.0
  0
LINE
  5
7CC
  8
3
 10
62.940529758617167
 20
60.706984752717602
 30
0.0
 11
65.781953236289993
 21
60.706984752717602
 31
0.0
  0
LINE
  5
7CD
  8
3
 10
63.269945867285848
 20
58.255149484259867
 30
0.0
 11
63.731958410302518
 21
60.706984752717602
 31
0.0
  0
LINE
  5
7CE
  8
3
 10
69.978245867285864
 20
58.255149484259867
 30
0.0
 11
70.779442118167694
 21
62.506984752717607
 31
0.0
  0
ARC
  5
7CF
  8
3
 10
71.465255823296275
 20
76.406984752717605
 30
0.0
 40
1.8999999999999999
 50
10.67142040090839
 51
190.6714204009084
  0
ARC
  5
7D0
  8
3
 10
64.756955823296266
 20
76.406984752717605
 30
0.0
 40
1.8999999999999999
 50
10.67142040090839
 51
190.6714204009084
  0
LINE
  5
7D1
  8
3
 10
68.648655823296281
 20
74.306984752717625
 30
0.0
 11
69.148655823296281
 21
73.806984752717625
 31
0.0
  0
LINE
  5
7D2
  8
3
 10
67.086108410302529
 20
74.306984752717625
 30
0.0
 11
68.648655823296281
 21
74.306984752717625
 31
0.0
  0
LINE
  5
7D3
  8
3
 10
69.148655823296281
 20
71.506984752717671
 30
0.0
 11
70.455150989099025
 21
71.506984752717671
 31
0.0
  0
LINE
  5
7D4
  8
3
 10
70.266715595840594
 20
72.506984752717642
 30
0.0
 11
69.148655823296338
 21
72.506984752717614
 31
0.0
  0
LINE
  5
7D5
  8
3
 10
69.058814773255904
 20
73.896825802758002
 30
0.0
 11
69.598115779306738
 21
76.758820021175353
 31
0.0
  0
ARC
  5
7D6
  8
0
 10
79.109470867285793
 20
76.979770021175341
 30
0.0
 40
1.8999999999999999
 50
100.67142040090791
 51
280.67142040090789
  0
LINE
  5
7D7
  8
0
 10
93.009470867285813
 20
68.115860248631009
 30
0.0
 11
93.009470867285813
 21
70.957283726303885
 31
0.0
  0
LINE
  5
7D8
  8
0
 10
85.147653263034954
 20
60.858820021175347
 30
0.0
 11
90.097384034940447
 21
60.858820021175347
 31
0.0
  0
LINE
  5
7D9
  8
0
 10
83.009470867285813
 20
59.523206316046753
 30
0.0
 11
83.009470867285813
 21
62.364629793719637
 31
0.0
  0
LINE
  5
7DA
  8
0
 10
85.147653263034954
 20
59.926115556647972
 30
0.0
 11
85.147653263034954
 21
60.858820021175347
 31
0.0
  0
LINE
  5
7DB
  8
0
 10
83.009470867285813
 20
66.231506316046762
 30
0.0
 11
83.009470867285813
 21
69.072929793719652
 31
0.0
  0
LINE
  5
7DC
  8
0
 10
93.009470867285813
 20
61.407560248631
 30
0.0
 11
93.009470867285813
 21
64.248983726303919
 31
0.0
  0
LINE
  5
7DD
  8
0
 10
93.009470867285813
 20
62.87735631604675
 30
0.0
 11
97.261306135743553
 21
62.076160065164878
 31
0.0
  0
LINE
  5
7DE
  8
0
 10
93.009470867285813
 20
57.158820021175359
 30
0.0
 11
93.009470867285813
 21
57.540683726303911
 31
0.0
  0
LINE
  5
7DF
  8
0
 10
93.009470867285813
 20
69.585656316046766
 30
0.0
 11
97.261306135743553
 21
68.784460065164865
 31
0.0
  0
LINE
  5
7E0
  8
2
 10
92.009470867285799
 20
70.768848333045497
 30
0.0
 11
92.009470867285799
 21
70.358820021175347
 31
0.0
  0
LINE
  5
7E1
  8
0
 10
89.833508566467785
 20
70.358820021175347
 30
0.0
 11
93.009470867285813
 21
70.358820021175347
 31
0.0
  0
LINE
  5
7E2
  8
2
 10
93.009470867285813
 20
69.358820021175333
 30
0.0
 11
92.009470867285799
 21
70.358820021175347
 31
0.0
  0
LINE
  5
7E3
  8
0
 10
83.009470867285813
 20
72.93980631604677
 30
0.0
 11
83.009470867285813
 21
75.78122979371966
 31
0.0
  0
LINE
  5
7E4
  8
2
 10
84.009470867285827
 20
75.969665186978062
 30
0.0
 11
84.009470867285813
 21
73.1282417093052
 31
0.0
  0
LINE
  5
7E5
  8
0
 10
83.009470867285813
 20
79.64810631604675
 30
0.0
 11
83.009470867285813
 21
82.48952979371964
 31
0.0
  0
LINE
  5
7E6
  8
2
 10
84.009470867285827
 20
82.677965186978071
 30
0.0
 11
84.009470867285827
 21
79.836541709305152
 31
0.0
  0
LINE
  5
7E7
  8
0
 10
93.009470867285813
 20
76.293956316046774
 30
0.0
 11
97.261306135743553
 21
75.492760065164873
 31
0.0
  0
LINE
  5
7E8
  8
0
 10
93.009470867285842
 20
74.824160248631017
 30
0.0
 11
93.009470867285842
 21
77.665583726303907
 31
0.0
  0
LINE
  5
7E9
  8
2
 10
92.009470867285799
 20
77.477148333045477
 30
0.0
 11
92.009470867285799
 21
74.635724855372587
 31
0.0
  0
LINE
  5
7EA
  8
0
 10
93.009470867285813
 20
83.002256316046754
 30
0.0
 11
97.261306135743553
 21
82.201060065164882
 31
0.0
  0
LINE
  5
7EB
  8
0
 10
93.009470867285842
 20
81.532460248631025
 30
0.0
 11
93.009470867285842
 21
84.373883726303916
 31
0.0
  0
LINE
  5
7EC
  8
2
 10
92.009470867285842
 20
84.185448333045485
 30
0.0
 11
92.009470867285813
 21
81.344024855372595
 31
0.0
  0
LINE
  5
7ED
  8
0
 10
73.009470867285813
 20
142.35882002117529
 30
0.0
 11
73.009470867285813
 21
112.3588200211753
 31
0.0
  0
POLYLINE
  5
7EE
  8
0
 10
78.509470867285799
 20
105.1088200211753
 30
0.0
 66
     1
 70
     8
  0
VERTEX
  8
0
  5
1EC9
 10
78.5095
 20
105.109
 30
0.000000
  70
    32
  0
VERTEX
  8
0
  5
1ECA
 10
78.5101
 20
105.090
 30
0.000000
  70
    32
  0
VERTEX
  8
0
  5
1ECB
 10
78.5122
 20
105.072
 30
0.000000
  70
    32
  0
VERTEX
  8
0
  5
1ECC
 10
78.5156
 20
105.054
 30
0.000000
  70
    32
  0
VERTEX
  8
0
  5
1ECD
 10
78.5203
 20
105.035
 30
0.000000
  70
    32
  0
VERTEX
  8
0
  5
1ECE
 10
78.5264
 20
105.017
 30
0.000000
  70
    32
  0
VERTEX
  8
0
  5
1ECF
 10
78.5338
 20
104.999
 30
0.000000
  70
    32
  0
VERTEX
  8
0
  5
1ED0
 10
78.5426
 20
104.981
 30
0.000000
  70
    32
  0
VERTEX
  8
0
  5
1ED1
 10
78.5527
 20
104.963
 30
0.000000
  70
    32
  0
VERTEX
  8
0
  5
1ED2
 10
78.5641
 20
104.944
 30
0.000000
  70
    32
  0
VERTEX
  8
0
  5
1ED3
 10
78.5769
 20
104.927
 30
0.000000
  70
    32
  0
VERTEX
  8
0
  5
1ED4
 10
78.5910
 20
104.909
 30
0.000000
  70
    32
  0
VERTEX
  8
0
  5
1ED5
 10
78.6064
 20
104.891
 30
0.000000
  70
    32
  0
VERTEX
  8
0
  5
1ED6
 10
78.6230
 20
104.874
 30
0.000000
  70
    32
  0
VERTEX
  8
0
  5
1ED7
 10
78.6410
 20
104.856
 30
0.000000
  70
    32
  0
VERTEX
  8
0
  5
1ED8
 10
78.6602
 20
104.839
 30
0.000000
  70
    32
  0
VERTEX
  8
0
  5
1ED9
 10
78.6807
 20
104.822
 30
0.000000
  70
    32
  0
VERTEX
  8
0
  5
1EDA
 10
78.7025
 20
104.805
 30
0.000000
  70
    32
  0
VERTEX
  8
0
  5
1EDB
 10
78.7255
 20
104.788
 30
0.000000
  70
    32
  0
VERTEX
  8
0
  5
1EDC
 10
78.7497
 20
104.772
 30
0.000000
  70
    32
  0
VERTEX
  8
0
  5
1EDD
 10
78.7751
 20
104.755
 30
0.000000
  70
    32
  0
VERTEX
  8
0
  5
1EDE
 10
78.8018
 20
104.739
 30
0.000000
  70
    32
  0
VERTEX
  8
0
  5
1EDF
 10
78.8296
 20
104.723
 30
0.000000
  70
    32
  0
VERTEX
  8
0
  5
1EE0
 10
78.8586
 20
104.708
 30
0.000000
  70
    32
  0
VERTEX
  8
0
  5
1EE1
 10
78.8887
 20
104.692
 30
0.000000
  70
    32
  0
VERTEX
  8
0
  5
1EE2
 10
78.9199
 20
104.677
 30
0.000000
  70
    32
  0
VERTEX
  8
0
  5
1EE3
 10
78.9523
 20
104.662
 30
0.000000
  70
    32
  0
VERTEX
  8
0
  5
1EE4
 10
78.9857
 20
104.647
 30
0.000000
  70
    32
  0
VERTEX
  8
0
  5
1EE5
 10
79.0202
 20
104.633
 30
0.000000
  70
    32
  0
VERTEX
  8
0
  5
1EE6
 10
79.0558
 20
104.619
 30
0.000000
  70
    32
  0
VERTEX
  8
0
  5
1EE7
 10
79.0923
 20
104.605
 30
0.000000
  70
    32
  0
VERTEX
  8
0
  5
1EE8
 10
79.1299
 20
104.592
 30
0.000000
  70
    32
  0
VERTEX
  8
0
  5
1EE9
 10
79.1685
 20
104.578
 30
0.000000
  70
    32
  0
VERTEX
  8
0
  5
1EEA
 10
79.2080
 20
104.566
 30
0.000000
  70
    32
  0
VERTEX
  8
0
  5
1EEB
 10
79.2485
 20
104.553
 30
0.000000
  70
    32
  0
VERTEX
  8
0
  5
1EEC
 10
79.2898
 20
104.541
 30
0.000000
  70
    32
  0
VERTEX
  8
0
  5
1EED
 10
79.3321
 20
104.529
 30
0.000000
  70
    32
  0
VERTEX
  8
0
  5
1EEE
 10
79.3752
 20
104.518
 30
0.000000
  70
    32
  0
VERTEX
  8
0
  5
1EEF
 10
79.4191
 20
104.506
 30
0.000000
  70
    32
  0
VERTEX
  8
0
  5
1EF0
 10
79.4639
 20
104.496
 30
0.000000
  70
    32
  0
VERTEX
  8
0
  5
1EF1
 10
79.5094
 20
104.485
 30
0.000000
  70
    32
  0
VERTEX
  8
0
  5
1EF2
 10
79.5557
 20
104.475
 30
0.000000
  70
    32
  0
VERTEX
  8
0
  5
1EF3
 10
79.6027
 20
104.466
 30
0.000000
  70
    32
  0
VERTEX
  8
0
  5
1EF4
 10
79.6504
 20
104.456
 30
0.000000
  70
    32
  0
VERTEX
  8
0
  5
1EF5
 10
79.6988
 20
104.447
 30
0.000000
  70
    32
  0
VERTEX
  8
0
  5
1EF6
 10
79.7478
 20
104.439
 30
0.000000
  70
    32
  0
VERTEX
  8
0
  5
1EF7
 10
79.7975
 20
104.431
 30
0.000000
  70
    32
  0
VERTEX
  8
0
  5
1EF8
 10
79.8477
 20
104.423
 30
0.000000
  70
    32
  0
VERTEX
  8
0
  5
1EF9
 10
79.8984
 20
104.416
 30
0.000000
  70
    32
  0
VERTEX
  8
0
  5
1EFA
 10
79.9497
 20
104.409
 30
0.000000
  70
    32
  0
VERTEX
  8
0
  5
1EFB
 10
80.0015
 20
104.403
 30
0.000000
  70
    32
  0
VERTEX
  8
0
  5
1EFC
 10
80.0537
 20
104.397
 30
0.000000
  70
    32
  0
VERTEX
  8
0
  5
1EFD
 10
80.1063
 20
104.391
 30
0.000000
  70
    32
  0
VERTEX
  8
0
  5
1EFE
 10
80.1594
 20
104.386
 30
0.000000
  70
    32
  0
VERTEX
  8
0
  5
1EFF
 10
80.2128
 20
104.381
 30
0.000000
  70
    32
  0
VERTEX
  8
0
  5
1F00
 10
80.2665
 20
104.377
 30
0.000000
  70
    32
  0
VERTEX
  8
0
  5
1F01
 10
80.3205
 20
104.373
 30
0.000000
  70
    32
  0
VERTEX
  8
0
  5
1F02
 10
80.3748
 20
104.370
 30
0.000000
  70
    32
  0
VERTEX
  8
0
  5
1F03
 10
80.4293
 20
104.367
 30
0.000000
  70
    32
  0
VERTEX
  8
0
  5
1F04
 10
80.4840
 20
104.364
 30
0.000000
  70
    32
  0
VERTEX
  8
0
  5
1F05
 10
80.5389
 20
104.362
 30
0.000000
  70
    32
  0
VERTEX
  8
0
  5
1F06
 10
80.5940
 20
104.361
 30
0.000000
  70
    32
  0
VERTEX
  8
0
  5
1F07
 10
80.6491
 20
104.360
 30
0.000000
  70
    32
  0
VERTEX
  8
0
  5
1F08
 10
80.7043
 20
104.359
 30
0.000000
  70
    32
  0
VERTEX
  8
0
  5
1F09
 10
80.7595
 20
104.359
 30
0.000000
  70
    32
  0
VERTEX
  8
0
  5
1F0A
 10
80.8147
 20
104.359
 30
0.000000
  70
    32
  0
VERTEX
  8
0
  5
1F0B
 10
80.8699
 20
104.360
 30
0.000000
  70
    32
  0
VERTEX
  8
0
  5
1F0C
 10
80.9250
 20
104.361
 30
0.000000
  70
    32
  0
VERTEX
  8
0
  5
1F0D
 10
80.9800
 20
104.362
 30
0.000000
  70
    32
  0
VERTEX
  8
0
  5
1F0E
 10
81.0349
 20
104.364
 30
0.000000
  70
    32
  0
VERTEX
  8
0
  5
1F0F
 10
81.0896
 20
104.367
 30
0.000000
  70
    32
  0
VERTEX
  8
0
  5
1F10
 10
81.1441
 20
104.370
 30
0.000000
  70
    32
  0
VERTEX
  8
0
  5
1F11
 10
81.1984
 20
104.373
 30
0.000000
  70
    32
  0
VERTEX
  8
0
  5
1F12
 10
81.2524
 20
104.377
 30
0.000000
  70
    32
  0
VERTEX
  8
0
  5
1F13
 10
81.3062
 20
104.381
 30
0.000000
  70
    32
  0
VERTEX
  8
0
  5
1F14
 10
81.3596
 20
104.386
 30
0.000000
  70
    32
  0
VERTEX
  8
0
  5
1F15
 10
81.4126
 20
104.391
 30
0.000000
  70
    32
  0
VERTEX
  8
0
  5
1F16
 10
81.4653
 20
104.397
 30
0.000000
  70
    32
  0
VERTEX
  8
0
  5
1F17
 10
81.5175
 20
104.403
 30
0.000000
  70
    32
  0
VERTEX
  8
0
  5
1F18
 10
81.5692
 20
104.409
 30
0.000000
  70
    32
  0
VERTEX
  8
0
  5
1F19
 10
81.6205
 20
104.416
 30
0.000000
  70
    32
  0
VERTEX
  8
0
  5
1F1A
 10
81.6713
 20
104.423
 30
0.000000
  70
    32
  0
VERTEX
  8
0
  5
1F1B
 10
81.7215
 20
104.431
 30
0.000000
  70
    32
  0
VERTEX
  8
0
  5
1F1C
 10
81.7711
 20
104.439
 30
0.000000
  70
    32
  0
VERTEX
  8
0
  5
1F1D
 10
81.8201
 20
104.447
 30
0.000000
  70
    32
  0
VERTEX
  8
0
  5
1F1E
 10
81.8685
 20
104.456
 30
0.000000
  70
    32
  0
VERTEX
  8
0
  5
1F1F
 10
81.9162
 20
104.466
 30
0.000000
  70
    32
  0
VERTEX
  8
0
  5
1F20
 10
81.9632
 20
104.475
 30
0.000000
  70
    32
  0
VERTEX
  8
0
  5
1F21
 10
82.0095
 20
104.485
 30
0.000000
  70
    32
  0
VERTEX
  8
0
  5
1F22
 10
82.0550
 20
104.496
 30
0.000000
  70
    32
  0
VERTEX
  8
0
  5
1F23
 10
82.0998
 20
104.506
 30
0.000000
  70
    32
  0
VERTEX
  8
0
  5
1F24
 10
82.1437
 20
104.518
 30
0.000000
  70
    32
  0
VERTEX
  8
0
  5
1F25
 10
82.1869
 20
104.529
 30
0.000000
  70
    32
  0
VERTEX
  8
0
  5
1F26
 10
82.2291
 20
104.541
 30
0.000000
  70
    32
  0
VERTEX
  8
0
  5
1F27
 10
82.2705
 20
104.553
 30
0.000000
  70
    32
  0
VERTEX
  8
0
  5
1F28
 10
82.3109
 20
104.566
 30
0.000000
  70
    32
  0
VERTEX
  8
0
  5
1F29
 10
82.3505
 20
104.578
 30
0.000000
  70
    32
  0
VERTEX
  8
0
  5
1F2A
 10
82.3890
 20
104.592
 30
0.000000
  70
    32
  0
VERTEX
  8
0
  5
1F2B
 10
82.4266
 20
104.605
 30
0.000000
  70
    32
  0
VERTEX
  8
0
  5
1F2C
 10
82.4632
 20
104.619
 30
0.000000
  70
    32
  0
VERTEX
  8
0
  5
1F2D
 10
82.4987
 20
104.633
 30
0.000000
  70
    32
  0
VERTEX
  8
0
  5
1F2E
 10
82.5333
 20
104.647
 30
0.000000
  70
    32
  0
VERTEX
  8
0
  5
1F2F
 10
82.5667
 20
104.662
 30
0.000000
  70
    32
  0
VERTEX
  8
0
  5
1F30
 10
82.5990
 20
104.677
 30
0.000000
  70
    32
  0
VERTEX
  8
0
  5
1F31
 10
82.6303
 20
104.692
 30
0.000000
  70
    32
  0
VERTEX
  8
0
  5
1F32
 10
82.6604
 20
104.708
 30
0.000000
  70
    32
  0
VERTEX
  8
0
  5
1F33
 10
82.6894
 20
104.723
 30
0.000000
  70
    32
  0
VERTEX
  8
0
  5
1F34
 10
82.7172
 20
104.739
 30
0.000000
  70
    32
  0
VERTEX
  8
0
  5
1F35
 10
82.7438
 20
104.755
 30
0.000000
  70
    32
  0
VERTEX
  8
0
  5
1F36
 10
82.7692
 20
104.772
 30
0.000000
  70
    32
  0
VERTEX
  8
0
  5
1F37
 10
82.7934
 20
104.788
 30
0.000000
  70
    32
  0
VERTEX
  8
0
  5
1F38
 10
82.8164
 20
104.805
 30
0.000000
  70
    32
  0
VERTEX
  8
0
  5
1F39
 10
82.8382
 20
104.822
 30
0.000000
  70
    32
  0
VERTEX
  8
0
  5
1F3A
 10
82.8587
 20
104.839
 30
0.000000
  70
    32
  0
VERTEX
  8
0
  5
1F3B
 10
82.8779
 20
104.856
 30
0.000000
  70
    32
  0
VERTEX
  8
0
  5
1F3C
 10
82.8959
 20
104.874
 30
0.000000
  70
    32
  0
VERTEX
  8
0
  5
1F3D
 10
82.9126
 20
104.891
 30
0.000000
  70
    32
  0
VERTEX
  8
0
  5
1F3E
 10
82.9280
 20
104.909
 30
0.000000
  70
    32
  0
VERTEX
  8
0
  5
1F3F
 10
82.9420
 20
104.927
 30
0.000000
  70
    32
  0
VERTEX
  8
0
  5
1F40
 10
82.9548
 20
104.944
 30
0.000000
  70
    32
  0
VERTEX
  8
0
  5
1F41
 10
82.9662
 20
104.963
 30
0.000000
  70
    32
  0
VERTEX
  8
0
  5
1F42
 10
82.9763
 20
104.981
 30
0.000000
  70
    32
  0
VERTEX
  8
0
  5
1F43
 10
82.9851
 20
104.999
 30
0.000000
  70
    32
  0
VERTEX
  8
0
  5
1F44
 10
82.9925
 20
105.017
 30
0.000000
  70
    32
  0
VERTEX
  8
0
  5
1F45
 10
82.9986
 20
105.035
 30
0.000000
  70
    32
  0
VERTEX
  8
0
  5
1F46
 10
83.0034
 20
105.054
 30
0.000000
  70
    32
  0
VERTEX
  8
0
  5
1F47
 10
83.0068
 20
105.072
 30
0.000000
  70
    32
  0
VERTEX
  8
0
  5
1F48
 10
83.0088
 20
105.090
 30
0.000000
  70
    32
  0
VERTEX
  8
0
  5
1F49
 10
83.0095
 20
105.109
 30
0.000000
  70
    32
  0
SEQEND
  8
0
  5
1F4A
  0
POLYLINE
  5
7EF
  8
0
 10
83.009470867285799
 20
111.6088200211753
 30
0.0
 66
     1
 70
     8
  0
VERTEX
  8
0
  5
1F4B
 10
83.0095
 20
111.609
 30
0.000000
  70
    32
  0
VERTEX
  8
0
  5
1F4C
 10
83.0088
 20
111.627
 30
0.000000
  70
    32
  0
VERTEX
  8
0
  5
1F4D
 10
83.0068
 20
111.646
 30
0.000000
  70
    32
  0
VERTEX
  8
0
  5
1F4E
 10
83.0034
 20
111.664
 30
0.000000
  70
    32
  0
VERTEX
  8
0
  5
1F4F
 10
82.9986
 20
111.682
 30
0.000000
  70
    32
  0
VERTEX
  8
0
  5
1F50
 10
82.9925
 20
111.701
 30
0.000000
  70
    32
  0
VERTEX
  8
0
  5
1F51
 10
82.9851
 20
111.719
 30
0.000000
  70
    32
  0
VERTEX
  8
0
  5
1F52
 10
82.9763
 20
111.737
 30
0.000000
  70
    32
  0
VERTEX
  8
0
  5
1F53
 10
82.9662
 20
111.755
 30
0.000000
  70
    32
  0
VERTEX
  8
0
  5
1F54
 10
82.9548
 20
111.773
 30
0.000000
  70
    32
  0
VERTEX
  8
0
  5
1F55
 10
82.9420
 20
111.791
 30
0.000000
  70
    32
  0
VERTEX
  8
0
  5
1F56
 10
82.9280
 20
111.809
 30
0.000000
  70
    32
  0
VERTEX
  8
0
  5
1F57
 10
82.9126
 20
111.827
 30
0.000000
  70
    32
  0
VERTEX
  8
0
  5
1F58
 10
82.8959
 20
111.844
 30
0.000000
  70
    32
  0
VERTEX
  8
0
  5
1F59
 10
82.8779
 20
111.861
 30
0.000000
  70
    32
  0
VERTEX
  8
0
  5
1F5A
 10
82.8587
 20
111.879
 30
0.000000
  70
    32
  0
VERTEX
  8
0
  5
1F5B
 10
82.8382
 20
111.896
 30
0.000000
  70
    32
  0
VERTEX
  8
0
  5
1F5C
 10
82.8164
 20
111.913
 30
0.000000
  70
    32
  0
VERTEX
  8
0
  5
1F5D
 10
82.7934
 20
111.929
 30
0.000000
  70
    32
  0
VERTEX
  8
0
  5
1F5E
 10
82.7692
 20
111.946
 30
0.000000
  70
    32
  0
VERTEX
  8
0
  5
1F5F
 10
82.7438
 20
111.962
 30
0.000000
  70
    32
  0
VERTEX
  8
0
  5
1F60
 10
82.7172
 20
111.978
 30
0.000000
  70
    32
  0
VERTEX
  8
0
  5
1F61
 10
82.6894
 20
111.994
 30
0.000000
  70
    32
  0
VERTEX
  8
0
  5
1F62
 10
82.6604
 20
112.010
 30
0.000000
  70
    32
  0
VERTEX
  8
0
  5
1F63
 10
82.6303
 20
112.025
 30
0.000000
  70
    32
  0
VERTEX
  8
0
  5
1F64
 10
82.5990
 20
112.041
 30
0.000000
  70
    32
  0
VERTEX
  8
0
  5
1F65
 10
82.5667
 20
112.056
 30
0.000000
  70
    32
  0
VERTEX
  8
0
  5
1F66
 10
82.5333
 20
112.070
 30
0.000000
  70
    32
  0
VERTEX
  8
0
  5
1F67
 10
82.4987
 20
112.085
 30
0.000000
  70
    32
  0
VERTEX
  8
0
  5
1F68
 10
82.4632
 20
112.099
 30
0.000000
  70
    32
  0
VERTEX
  8
0
  5
1F69
 10
82.4266
 20
112.112
 30
0.000000
  70
    32
  0
VERTEX
  8
0
  5
1F6A
 10
82.3890
 20
112.126
 30
0.000000
  70
    32
  0
VERTEX
  8
0
  5
1F6B
 10
82.3505
 20
112.139
 30
0.000000
  70
    32
  0
VERTEX
  8
0
  5
1F6C
 10
82.3109
 20
112.152
 30
0.000000
  70
    32
  0
VERTEX
  8
0
  5
1F6D
 10
82.2705
 20
112.165
 30
0.000000
  70
    32
  0
VERTEX
  8
0
  5
1F6E
 10
82.2291
 20
112.177
 30
0.000000
  70
    32
  0
VERTEX
  8
0
  5
1F6F
 10
82.1869
 20
112.189
 30
0.000000
  70
    32
  0
VERTEX
  8
0
  5
1F70
 10
82.1437
 20
112.200
 30
0.000000
  70
    32
  0
VERTEX
  8
0
  5
1F71
 10
82.0998
 20
112.211
 30
0.000000
  70
    32
  0
VERTEX
  8
0
  5
1F72
 10
82.0550
 20
112.222
 30
0.000000
  70
    32
  0
VERTEX
  8
0
  5
1F73
 10
82.0095
 20
112.232
 30
0.000000
  70
    32
  0
VERTEX
  8
0
  5
1F74
 10
81.9632
 20
112.242
 30
0.000000
  70
    32
  0
VERTEX
  8
0
  5
1F75
 10
81.9162
 20
112.252
 30
0.000000
  70
    32
  0
VERTEX
  8
0
  5
1F76
 10
81.8685
 20
112.261
 30
0.000000
  70
    32
  0
VERTEX
  8
0
  5
1F77
 10
81.8201
 20
112.270
 30
0.000000
  70
    32
  0
VERTEX
  8
0
  5
1F78
 10
81.7711
 20
112.279
 30
0.000000
  70
    32
  0
VERTEX
  8
0
  5
1F79
 10
81.7215
 20
112.287
 30
0.000000
  70
    32
  0
VERTEX
  8
0
  5
1F7A
 10
81.6713
 20
112.294
 30
0.000000
  70
    32
  0
VERTEX
  8
0
  5
1F7B
 10
81.6205
 20
112.302
 30
0.000000
  70
    32
  0
VERTEX
  8
0
  5
1F7C
 10
81.5692
 20
112.309
 30
0.000000
  70
    32
  0
VERTEX
  8
0
  5
1F7D
 10
81.5175
 20
112.315
 30
0.000000
  70
    32
  0
VERTEX
  8
0
  5
1F7E
 10
81.4653
 20
112.321
 30
0.000000
  70
    32
  0
VERTEX
  8
0
  5
1F7F
 10
81.4126
 20
112.327
 30
0.000000
  70
    32
  0
VERTEX
  8
0
  5
1F80
 10
81.3596
 20
112.332
 30
0.000000
  70
    32
  0
VERTEX
  8
0
  5
1F81
 10
81.3062
 20
112.336
 30
0.000000
  70
    32
  0
VERTEX
  8
0
  5
1F82
 10
81.2524
 20
112.341
 30
0.000000
  70
    32
  0
VERTEX
  8
0
  5
1F83
 10
81.1984
 20
112.344
 30
0.000000
  70
    32
  0
VERTEX
  8
0
  5
1F84
 10
81.1441
 20
112.348
 30
0.000000
  70
    32
  0
VERTEX
  8
0
  5
1F85
 10
81.0896
 20
112.351
 30
0.000000
  70
    32
  0
VERTEX
  8
0
  5
1F86
 10
81.0349
 20
112.353
 30
0.000000
  70
    32
  0
VERTEX
  8
0
  5
1F87
 10
80.9800
 20
112.355
 30
0.000000
  70
    32
  0
VERTEX
  8
0
  5
1F88
 10
80.9250
 20
112.357
 30
0.000000
  70
    32
  0
VERTEX
  8
0
  5
1F89
 10
80.8699
 20
112.358
 30
0.000000
  70
    32
  0
VERTEX
  8
0
  5
1F8A
 10
80.8147
 20
112.359
 30
0.000000
  70
    32
  0
VERTEX
  8
0
  5
1F8B
 10
80.7595
 20
112.359
 30
0.000000
  70
    32
  0
VERTEX
  8
0
  5
1F8C
 10
80.7043
 20
112.359
 30
0.000000
  70
    32
  0
VERTEX
  8
0
  5
1F8D
 10
80.6491
 20
112.358
 30
0.000000
  70
    32
  0
VERTEX
  8
0
  5
1F8E
 10
80.5940
 20
112.357
 30
0.000000
  70
    32
  0
VERTEX
  8
0
  5
1F8F
 10
80.5389
 20
112.355
 30
0.000000
  70
    32
  0
VERTEX
  8
0
  5
1F90
 10
80.4840
 20
112.353
 30
0.000000
  70
    32
  0
VERTEX
  8
0
  5
1F91
 10
80.4293
 20
112.351
 30
0.000000
  70
    32
  0
VERTEX
  8
0
  5
1F92
 10
80.3748
 20
112.348
 30
0.000000
  70
    32
  0
VERTEX
  8
0
  5
1F93
 10
80.3205
 20
112.344
 30
0.000000
  70
    32
  0
VERTEX
  8
0
  5
1F94
 10
80.2665
 20
112.341
 30
0.000000
  70
    32
  0
VERTEX
  8
0
  5
1F95
 10
80.2128
 20
112.336
 30
0.000000
  70
    32
  0
VERTEX
  8
0
  5
1F96
 10
80.1594
 20
112.332
 30
0.000000
  70
    32
  0
VERTEX
  8
0
  5
1F97
 10
80.1063
 20
112.327
 30
0.000000
  70
    32
  0
VERTEX
  8
0
  5
1F98
 10
80.0537
 20
112.321
 30
0.000000
  70
    32
  0
VERTEX
  8
0
  5
1F99
 10
80.0015
 20
112.315
 30
0.000000
  70
    32
  0
VERTEX
  8
0
  5
1F9A
 10
79.9497
 20
112.309
 30
0.000000
  70
    32
  0
VERTEX
  8
0
  5
1F9B
 10
79.8984
 20
112.302
 30
0.000000
  70
    32
  0
VERTEX
  8
0
  5
1F9C
 10
79.8477
 20
112.294
 30
0.000000
  70
    32
  0
VERTEX
  8
0
  5
1F9D
 10
79.7975
 20
112.287
 30
0.000000
  70
    32
  0
VERTEX
  8
0
  5
1F9E
 10
79.7478
 20
112.279
 30
0.000000
  70
    32
  0
VERTEX
  8
0
  5
1F9F
 10
79.6988
 20
112.270
 30
0.000000
  70
    32
  0
VERTEX
  8
0
  5
1FA0
 10
79.6504
 20
112.261
 30
0.000000
  70
    32
  0
VERTEX
  8
0
  5
1FA1
 10
79.6027
 20
112.252
 30
0.000000
  70
    32
  0
VERTEX
  8
0
  5
1FA2
 10
79.5557
 20
112.242
 30
0.000000
  70
    32
  0
VERTEX
  8
0
  5
1FA3
 10
79.5094
 20
112.232
 30
0.000000
  70
    32
  0
VERTEX
  8
0
  5
1FA4
 10
79.4639
 20
112.222
 30
0.000000
  70
    32
  0
VERTEX
  8
0
  5
1FA5
 10
79.4191
 20
112.211
 30
0.000000
  70
    32
  0
VERTEX
  8
0
  5
1FA6
 10
79.3752
 20
112.200
 30
0.000000
  70
    32
  0
VERTEX
  8
0
  5
1FA7
 10
79.3321
 20
112.189
 30
0.000000
  70
    32
  0
VERTEX
  8
0
  5
1FA8
 10
79.2898
 20
112.177
 30
0.000000
  70
    32
  0
VERTEX
  8
0
  5
1FA9
 10
79.2485
 20
112.165
 30
0.000000
  70
    32
  0
VERTEX
  8
0
  5
1FAA
 10
79.2080
 20
112.152
 30
0.000000
  70
    32
  0
VERTEX
  8
0
  5
1FAB
 10
79.1685
 20
112.139
 30
0.000000
  70
    32
  0
VERTEX
  8
0
  5
1FAC
 10
79.1299
 20
112.126
 30
0.000000
  70
    32
  0
VERTEX
  8
0
  5
1FAD
 10
79.0923
 20
112.112
 30
0.000000
  70
    32
  0
VERTEX
  8
0
  5
1FAE
 10
79.0558
 20
112.099
 30
0.000000
  70
    32
  0
VERTEX
  8
0
  5
1FAF
 10
79.0202
 20
112.085
 30
0.000000
  70
    32
  0
VERTEX
  8
0
  5
1FB0
 10
78.9857
 20
112.070
 30
0.000000
  70
    32
  0
VERTEX
  8
0
  5
1FB1
 10
78.9523
 20
112.056
 30
0.000000
  70
    32
  0
VERTEX
  8
0
  5
1FB2
 10
78.9199
 20
112.041
 30
0.000000
  70
    32
  0
VERTEX
  8
0
  5
1FB3
 10
78.8887
 20
112.025
 30
0.000000
  70
    32
  0
VERTEX
  8
0
  5
1FB4
 10
78.8586
 20
112.010
 30
0.000000
  70
    32
  0
VERTEX
  8
0
  5
1FB5
 10
78.8296
 20
111.994
 30
0.000000
  70
    32
  0
VERTEX
  8
0
  5
1FB6
 10
78.8018
 20
111.978
 30
0.000000
  70
    32
  0
VERTEX
  8
0
  5
1FB7
 10
78.7751
 20
111.962
 30
0.000000
  70
    32
  0
VERTEX
  8
0
  5
1FB8
 10
78.7497
 20
111.946
 30
0.000000
  70
    32
  0
VERTEX
  8
0
  5
1FB9
 10
78.7255
 20
111.929
 30
0.000000
  70
    32
  0
VERTEX
  8
0
  5
1FBA
 10
78.7025
 20
111.913
 30
0.000000
  70
    32
  0
VERTEX
  8
0
  5
1FBB
 10
78.6807
 20
111.896
 30
0.000000
  70
    32
  0
VERTEX
  8
0
  5
1FBC
 10
78.6602
 20
111.879
 30
0.000000
  70
    32
  0
VERTEX
  8
0
  5
1FBD
 10
78.6410
 20
111.861
 30
0.000000
  70
    32
  0
VERTEX
  8
0
  5
1FBE
 10
78.6230
 20
111.844
 30
0.000000
  70
    32
  0
VERTEX
  8
0
  5
1FBF
 10
78.6064
 20
111.827
 30
0.000000
  70
    32
  0
VERTEX
  8
0
  5
1FC0
 10
78.5910
 20
111.809
 30
0.000000
  70
    32
  0
VERTEX
  8
0
  5
1FC1
 10
78.5769
 20
111.791
 30
0.000000
  70
    32
  0
VERTEX
  8
0
  5
1FC2
 10
78.5641
 20
111.773
 30
0.000000
  70
    32
  0
VERTEX
  8
0
  5
1FC3
 10
78.5527
 20
111.755
 30
0.000000
  70
    32
  0
VERTEX
  8
0
  5
1FC4
 10
78.5426
 20
111.737
 30
0.000000
  70
    32
  0
VERTEX
  8
0
  5
1FC5
 10
78.5338
 20
111.719
 30
0.000000
  70
    32
  0
VERTEX
  8
0
  5
1FC6
 10
78.5264
 20
111.701
 30
0.000000
  70
    32
  0
VERTEX
  8
0
  5
1FC7
 10
78.5203
 20
111.682
 30
0.000000
  70
    32
  0
VERTEX
  8
0
  5
1FC8
 10
78.5156
 20
111.664
 30
0.000000
  70
    32
  0
VERTEX
  8
0
  5
1FC9
 10
78.5122
 20
111.646
 30
0.000000
  70
    32
  0
VERTEX
  8
0
  5
1FCA
 10
78.5101
 20
111.627
 30
0.000000
  70
    32
  0
VERTEX
  8
0
  5
1FCB
 10
78.5095
 20
111.609
 30
0.000000
  70
    32
  0
SEQEND
  8
0
  5
1FCC
  0
LINE
  5
7F0
  8
0
 10
96.557635598828099
 20
88.909360065164876
 30
0.0
 11
78.757635598828088
 21
85.555210065164886
 31
0.0
  0
LINE
  5
7F1
  8
0
 10
97.261306135743553
 20
91.883379977185797
 30
0.0
 11
79.461306135743527
 21
88.529229977185793
 31
0.0
  0
LINE
  5
7F2
  8
0
 10
96.557635598828099
 20
95.617660065164898
 30
0.0
 11
78.757635598828088
 21
92.263510065164894
 31
0.0
  0
LINE
  5
7F3
  8
0
 10
97.261306135743553
 20
98.591679977185791
 30
0.0
 11
79.461306135743527
 21
95.237529977185787
 31
0.0
  0
LINE
  5
7F4
  8
0
 10
96.557635598828099
 20
102.32596006516491
 30
0.0
 11
78.757635598828088
 21
98.971810065164874
 31
0.0
  0
LINE
  5
7F5
  8
0
 10
78.757635598828074
 20
88.529229977185793
 30
0.0
 11
83.009470867285813
 21
87.72803372630392
 31
0.0
  0
LINE
  5
7F6
  8
0
 10
78.757635598828088
 20
95.237529977185787
 30
0.0
 11
81.209470867285802
 21
94.775517434169103
 31
0.0
  0
LINE
  5
7F7
  8
0
 10
78.907807477073064
 20
100.4695524707612
 30
0.0
 11
81.209470867285845
 21
100.2238692998958
 31
0.0
  0
LINE
  5
7F8
  8
0
 10
77.209470867285802
 20
102.3588200211753
 30
0.0
 11
96.909470867285819
 21
102.3588200211753
 31
0.0
  0
LINE
  5
7F9
  8
0
 10
94.809470867285754
 20
102.3588200211753
 30
0.0
 11
75.009470867285813
 21
102.3588200211753
 31
0.0
  0
ARC
  5
7FA
  8
0
 10
79.109470867285793
 20
90.396370021175343
 30
0.0
 40
1.8999999999999999
 50
100.67142040090791
 51
280.67142040090789
  0
ARC
  5
7FB
  8
0
 10
79.109470867285793
 20
97.104670021175338
 30
0.0
 40
1.8999999999999999
 50
100.67142040090791
 51
280.67142040090789
  0
LINE
  5
7FC
  8
0
 10
78.509470867285813
 20
105.10882002117521
 30
0.0
 11
78.509470867285813
 21
111.6088200211753
 31
0.0
  0
LINE
  5
7FD
  8
0
 10
75.009470867285813
 20
104.3588200211753
 30
0.0
 11
75.009470867285813
 21
102.3588200211753
 31
0.0
  0
ARC
  5
7FE
  8
0
 10
79.109470867285793
 20
102.3588200211753
 30
0.0
 40
1.8999999999999999
 50
180.0
 51
263.90722834266398
  0
LINE
  5
7FF
  8
0
 10
94.309470867285825
 20
89.358820021175347
 30
0.0
 11
83.863823251261266
 21
89.358820021175347
 31
0.0
  0
LINE
  5
800
  8
0
 10
83.009470867285813
 20
86.356406316046716
 30
0.0
 11
83.009470867285813
 21
89.197829793719634
 31
0.0
  0
LINE
  5
801
  8
2
 10
84.009470867285813
 20
89.386265186978051
 30
0.0
 11
84.009470867285827
 21
86.544841709305189
 31
0.0
  0
LINE
  5
802
  8
0
 10
81.209470867285816
 20
95.566946085854454
 30
0.0
 11
81.209470867285802
 21
92.72552260818162
 31
0.0
  0
LINE
  5
803
  8
0
 10
93.009470867285842
 20
88.240760248631034
 30
0.0
 11
93.009470867285813
 21
89.358820021175319
 31
0.0
  0
LINE
  5
804
  8
2
 10
92.009470867285856
 20
89.358820021175347
 30
0.0
 11
92.009470867285856
 21
88.052324855372603
 31
0.0
  0
LINE
  5
805
  8
0
 10
94.809470867285825
 20
91.421367434169099
 30
0.0
 11
94.809470867285825
 21
89.858820021175333
 31
0.0
  0
LINE
  5
806
  8
0
 10
94.399311917326202
 20
89.448661071215724
 30
0.0
 11
97.261306135743553
 21
88.909360065164876
 31
0.0
  0
LINE
  5
807
  8
0
 10
94.809470867285825
 20
89.858820021175333
 30
0.0
 11
94.309470867285825
 21
89.358820021175347
 31
0.0
  0
LINE
  5
808
  8
0
 10
94.809470867285782
 20
98.129667434169065
 30
0.0
 11
94.809470867285796
 21
95.288243956496217
 31
0.0
  0
LINE
  5
809
  8
0
 10
94.809470867285796
 20
96.079672608181596
 30
0.0
 11
97.261306135743553
 21
95.617660065164898
 31
0.0
  0
POLYLINE
  5
80A
  8
0
 10
83.009470867285813
 20
105.1088200211753
 30
0.0
 66
     1
 70
     8
  0
VERTEX
  8
0
  5
1FCD
 10
83.0095
 20
105.109
 30
0.000000
  70
    32
  0
VERTEX
  8
0
  5
1FCE
 10
83.0110
 20
105.090
 30
0.000000
  70
    32
  0
VERTEX
  8
0
  5
1FCF
 10
83.0155
 20
105.072
 30
0.000000
  70
    32
  0
VERTEX
  8
0
  5
1FD0
 10
83.0230
 20
105.054
 30
0.000000
  70
    32
  0
VERTEX
  8
0
  5
1FD1
 10
83.0335
 20
105.035
 30
0.000000
  70
    32
  0
VERTEX
  8
0
  5
1FD2
 10
83.0471
 20
105.017
 30
0.000000
  70
    32
  0
VERTEX
  8
0
  5
1FD3
 10
83.0636
 20
104.999
 30
0.000000
  70
    32
  0
VERTEX
  8
0
  5
1FD4
 10
83.0831
 20
104.981
 30
0.000000
  70
    32
  0
VERTEX
  8
0
  5
1FD5
 10
83.1055
 20
104.963
 30
0.000000
  70
    32
  0
VERTEX
  8
0
  5
1FD6
 10
83.1310
 20
104.944
 30
0.000000
  70
    32
  0
VERTEX
  8
0
  5
1FD7
 10
83.1593
 20
104.927
 30
0.000000
  70
    32
  0
VERTEX
  8
0
  5
1FD8
 10
83.1906
 20
104.909
 30
0.000000
  70
    32
  0
VERTEX
  8
0
  5
1FD9
 10
83.2248
 20
104.891
 30
0.000000
  70
    32
  0
VERTEX
  8
0
  5
1FDA
 10
83.2618
 20
104.874
 30
0.000000
  70
    32
  0
VERTEX
  8
0
  5
1FDB
 10
83.3018
 20
104.856
 30
0.000000
  70
    32
  0
VERTEX
  8
0
  5
1FDC
 10
83.3445
 20
104.839
 30
0.000000
  70
    32
  0
VERTEX
  8
0
  5
1FDD
 10
83.3901
 20
104.822
 30
0.000000
  70
    32
  0
VERTEX
  8
0
  5
1FDE
 10
83.4384
 20
104.805
 30
0.000000
  70
    32
  0
VERTEX
  8
0
  5
1FDF
 10
83.4895
 20
104.788
 30
0.000000
  70
    32
  0
VERTEX
  8
0
  5
1FE0
 10
83.5433
 20
104.772
 30
0.000000
  70
    32
  0
VERTEX
  8
0
  5
1FE1
 10
83.5999
 20
104.755
 30
0.000000
  70
    32
  0
VERTEX
  8
0
  5
1FE2
 10
83.6590
 20
104.739
 30
0.000000
  70
    32
  0
VERTEX
  8
0
  5
1FE3
 10
83.7208
 20
104.723
 30
0.000000
  70
    32
  0
VERTEX
  8
0
  5
1FE4
 10
83.7852
 20
104.708
 30
0.000000
  70
    32
  0
VERTEX
  8
0
  5
1FE5
 10
83.8521
 20
104.692
 30
0.000000
  70
    32
  0
VERTEX
  8
0
  5
1FE6
 10
83.9215
 20
104.677
 30
0.000000
  70
    32
  0
VERTEX
  8
0
  5
1FE7
 10
83.9934
 20
104.662
 30
0.000000
  70
    32
  0
VERTEX
  8
0
  5
1FE8
 10
84.0677
 20
104.647
 30
0.000000
  70
    32
  0
VERTEX
  8
0
  5
1FE9
 10
84.1444
 20
104.633
 30
0.000000
  70
    32
  0
VERTEX
  8
0
  5
1FEA
 10
84.2234
 20
104.619
 30
0.000000
  70
    32
  0
VERTEX
  8
0
  5
1FEB
 10
84.3047
 20
104.605
 30
0.000000
  70
    32
  0
VERTEX
  8
0
  5
1FEC
 10
84.3882
 20
104.592
 30
0.000000
  70
    32
  0
VERTEX
  8
0
  5
1FED
 10
84.4739
 20
104.578
 30
0.000000
  70
    32
  0
VERTEX
  8
0
  5
1FEE
 10
84.5618
 20
104.566
 30
0.000000
  70
    32
  0
VERTEX
  8
0
  5
1FEF
 10
84.6517
 20
104.553
 30
0.000000
  70
    32
  0
VERTEX
  8
0
  5
1FF0
 10
84.7436
 20
104.541
 30
0.000000
  70
    32
  0
VERTEX
  8
0
  5
1FF1
 10
84.8375
 20
104.529
 30
0.000000
  70
    32
  0
VERTEX
  8
0
  5
1FF2
 10
84.9333
 20
104.518
 30
0.000000
  70
    32
  0
VERTEX
  8
0
  5
1FF3
 10
85.0310
 20
104.506
 30
0.000000
  70
    32
  0
VERTEX
  8
0
  5
1FF4
 10
85.1304
 20
104.496
 30
0.000000
  70
    32
  0
VERTEX
  8
0
  5
1FF5
 10
85.2316
 20
104.485
 30
0.000000
  70
    32
  0
VERTEX
  8
0
  5
1FF6
 10
85.3345
 20
104.475
 30
0.000000
  70
    32
  0
VERTEX
  8
0
  5
1FF7
 10
85.4390
 20
104.466
 30
0.000000
  70
    32
  0
VERTEX
  8
0
  5
1FF8
 10
85.5450
 20
104.456
 30
0.000000
  70
    32
  0
VERTEX
  8
0
  5
1FF9
 10
85.6525
 20
104.447
 30
0.000000
  70
    32
  0
VERTEX
  8
0
  5
1FFA
 10
85.7614
 20
104.439
 30
0.000000
  70
    32
  0
VERTEX
  8
0
  5
1FFB
 10
85.8717
 20
104.431
 30
0.000000
  70
    32
  0
VERTEX
  8
0
  5
1FFC
 10
85.9833
 20
104.423
 30
0.000000
  70
    32
  0
VERTEX
  8
0
  5
1FFD
 10
86.0961
 20
104.416
 30
0.000000
  70
    32
  0
VERTEX
  8
0
  5
1FFE
 10
86.2100
 20
104.409
 30
0.000000
  70
    32
  0
VERTEX
  8
0
  5
1FFF
 10
86.3250
 20
104.403
 30
0.000000
  70
    32
  0
VERTEX
  8
0
  5
2000
 10
86.4411
 20
104.397
 30
0.000000
  70
    32
  0
VERTEX
  8
0
  5
2001
 10
86.5580
 20
104.391
 30
0.000000
  70
    32
  0
VERTEX
  8
0
  5
2002
 10
86.6759
 20
104.386
 30
0.000000
  70
    32
  0
VERTEX
  8
0
  5
2003
 10
86.7946
 20
104.381
 30
0.000000
  70
    32
  0
VERTEX
  8
0
  5
2004
 10
86.9140
 20
104.377
 30
0.000000
  70
    32
  0
VERTEX
  8
0
  5
2005
 10
87.0340
 20
104.373
 30
0.000000
  70
    32
  0
VERTEX
  8
0
  5
2006
 10
87.1547
 20
104.370
 30
0.000000
  70
    32
  0
VERTEX
  8
0
  5
2007
 10
87.2758
 20
104.367
 30
0.000000
  70
    32
  0
VERTEX
  8
0
  5
2008
 10
87.3974
 20
104.364
 30
0.000000
  70
    32
  0
VERTEX
  8
0
  5
2009
 10
87.5194
 20
104.362
 30
0.000000
  70
    32
  0
VERTEX
  8
0
  5
200A
 10
87.6416
 20
104.361
 30
0.000000
  70
    32
  0
VERTEX
  8
0
  5
200B
 10
87.7641
 20
104.360
 30
0.000000
  70
    32
  0
VERTEX
  8
0
  5
200C
 10
87.8868
 20
104.359
 30
0.000000
  70
    32
  0
VERTEX
  8
0
  5
200D
 10
88.0095
 20
104.359
 30
0.000000
  70
    32
  0
VERTEX
  8
0
  5
200E
 10
88.1322
 20
104.359
 30
0.000000
  70
    32
  0
VERTEX
  8
0
  5
200F
 10
88.2548
 20
104.360
 30
0.000000
  70
    32
  0
VERTEX
  8
0
  5
2010
 10
88.3773
 20
104.361
 30
0.000000
  70
    32
  0
VERTEX
  8
0
  5
2011
 10
88.4996
 20
104.362
 30
0.000000
  70
    32
  0
VERTEX
  8
0
  5
2012
 10
88.6215
 20
104.364
 30
0.000000
  70
    32
  0
VERTEX
  8
0
  5
2013
 10
88.7431
 20
104.367
 30
0.000000
  70
    32
  0
VERTEX
  8
0
  5
2014
 10
88.8643
 20
104.370
 30
0.000000
  70
    32
  0
VERTEX
  8
0
  5
2015
 10
88.9849
 20
104.373
 30
0.000000
  70
    32
  0
VERTEX
  8
0
  5
2016
 10
89.1050
 20
104.377
 30
0.000000
  70
    32
  0
VERTEX
  8
0
  5
2017
 10
89.2244
 20
104.381
 30
0.000000
  70
    32
  0
VERTEX
  8
0
  5
2018
 10
89.3430
 20
104.386
 30
0.000000
  70
    32
  0
VERTEX
  8
0
  5
2019
 10
89.4609
 20
104.391
 30
0.000000
  70
    32
  0
VERTEX
  8
0
  5
201A
 10
89.5779
 20
104.397
 30
0.000000
  70
    32
  0
VERTEX
  8
0
  5
201B
 10
89.6939
 20
104.403
 30
0.000000
  70
    32
  0
VERTEX
  8
0
  5
201C
 10
89.8089
 20
104.409
 30
0.000000
  70
    32
  0
VERTEX
  8
0
  5
201D
 10
89.9229
 20
104.416
 30
0.000000
  70
    32
  0
VERTEX
  8
0
  5
201E
 10
90.0357
 20
104.423
 30
0.000000
  70
    32
  0
VERTEX
  8
0
  5
201F
 10
90.1472
 20
104.431
 30
0.000000
  70
    32
  0
VERTEX
  8
0
  5
2020
 10
90.2575
 20
104.439
 30
0.000000
  70
    32
  0
VERTEX
  8
0
  5
2021
 10
90.3665
 20
104.447
 30
0.000000
  70
    32
  0
VERTEX
  8
0
  5
2022
 10
90.4740
 20
104.456
 30
0.000000
  70
    32
  0
VERTEX
  8
0
  5
2023
 10
90.5800
 20
104.466
 30
0.000000
  70
    32
  0
VERTEX
  8
0
  5
2024
 10
90.6845
 20
104.475
 30
0.000000
  70
    32
  0
VERTEX
  8
0
  5
2025
 10
90.7873
 20
104.485
 30
0.000000
  70
    32
  0
VERTEX
  8
0
  5
2026
 10
90.8885
 20
104.496
 30
0.000000
  70
    32
  0
VERTEX
  8
0
  5
2027
 10
90.9880
 20
104.506
 30
0.000000
  70
    32
  0
VERTEX
  8
0
  5
2028
 10
91.0856
 20
104.518
 30
0.000000
  70
    32
  0
VERTEX
  8
0
  5
2029
 10
91.1814
 20
104.529
 30
0.000000
  70
    32
  0
VERTEX
  8
0
  5
202A
 10
91.2753
 20
104.541
 30
0.000000
  70
    32
  0
VERTEX
  8
0
  5
202B
 10
91.3673
 20
104.553
 30
0.000000
  70
    32
  0
VERTEX
  8
0
  5
202C
 10
91.4572
 20
104.566
 30
0.000000
  70
    32
  0
VERTEX
  8
0
  5
202D
 10
91.5450
 20
104.578
 30
0.000000
  70
    32
  0
VERTEX
  8
0
  5
202E
 10
91.6307
 20
104.592
 30
0.000000
  70
    32
  0
VERTEX
  8
0
  5
202F
 10
91.7142
 20
104.605
 30
0.000000
  70
    32
  0
VERTEX
  8
0
  5
2030
 10
91.7955
 20
104.619
 30
0.000000
  70
    32
  0
VERTEX
  8
0
  5
2031
 10
91.8745
 20
104.633
 30
0.000000
  70
    32
  0
VERTEX
  8
0
  5
2032
 10
91.9512
 20
104.647
 30
0.000000
  70
    32
  0
VERTEX
  8
0
  5
2033
 10
92.0255
 20
104.662
 30
0.000000
  70
    32
  0
VERTEX
  8
0
  5
2034
 10
92.0974
 20
104.677
 30
0.000000
  70
    32
  0
VERTEX
  8
0
  5
2035
 10
92.1668
 20
104.692
 30
0.000000
  70
    32
  0
VERTEX
  8
0
  5
2036
 10
92.2337
 20
104.708
 30
0.000000
  70
    32
  0
VERTEX
  8
0
  5
2037
 10
92.2981
 20
104.723
 30
0.000000
  70
    32
  0
VERTEX
  8
0
  5
2038
 10
92.3599
 20
104.739
 30
0.000000
  70
    32
  0
VERTEX
  8
0
  5
2039
 10
92.4191
 20
104.755
 30
0.000000
  70
    32
  0
VERTEX
  8
0
  5
203A
 10
92.4756
 20
104.772
 30
0.000000
  70
    32
  0
VERTEX
  8
0
  5
203B
 10
92.5294
 20
104.788
 30
0.000000
  70
    32
  0
VERTEX
  8
0
  5
203C
 10
92.5805
 20
104.805
 30
0.000000
  70
    32
  0
VERTEX
  8
0
  5
203D
 10
92.6289
 20
104.822
 30
0.000000
  70
    32
  0
VERTEX
  8
0
  5
203E
 10
92.6744
 20
104.839
 30
0.000000
  70
    32
  0
VERTEX
  8
0
  5
203F
 10
92.7172
 20
104.856
 30
0.000000
  70
    32
  0
VERTEX
  8
0
  5
2040
 10
92.7571
 20
104.874
 30
0.000000
  70
    32
  0
VERTEX
  8
0
  5
2041
 10
92.7942
 20
104.891
 30
0.000000
  70
    32
  0
VERTEX
  8
0
  5
2042
 10
92.8284
 20
104.909
 30
0.000000
  70
    32
  0
VERTEX
  8
0
  5
2043
 10
92.8596
 20
104.927
 30
0.000000
  70
    32
  0
VERTEX
  8
0
  5
2044
 10
92.8880
 20
104.944
 30
0.000000
  70
    32
  0
VERTEX
  8
0
  5
2045
 10
92.9134
 20
104.963
 30
0.000000
  70
    32
  0
VERTEX
  8
0
  5
2046
 10
92.9359
 20
104.981
 30
0.000000
  70
    32
  0
VERTEX
  8
0
  5
2047
 10
92.9554
 20
104.999
 30
0.000000
  70
    32
  0
VERTEX
  8
0
  5
2048
 10
92.9719
 20
105.017
 30
0.000000
  70
    32
  0
VERTEX
  8
0
  5
2049
 10
92.9854
 20
105.035
 30
0.000000
  70
    32
  0
VERTEX
  8
0
  5
204A
 10
92.9959
 20
105.054
 30
0.000000
  70
    32
  0
VERTEX
  8
0
  5
204B
 10
93.0034
 20
105.072
 30
0.000000
  70
    32
  0
VERTEX
  8
0
  5
204C
 10
93.0080
 20
105.090
 30
0.000000
  70
    32
  0
VERTEX
  8
0
  5
204D
 10
93.0095
 20
105.109
 30
0.000000
  70
    32
  0
SEQEND
  8
0
  5
204E
  0
POLYLINE
  5
80B
  8
0
 10
93.009470867285813
 20
111.6088200211753
 30
0.0
 66
     1
 70
     8
  0
VERTEX
  8
0
  5
204F
 10
93.0095
 20
111.609
 30
0.000000
  70
    32
  0
VERTEX
  8
0
  5
2050
 10
93.0080
 20
111.627
 30
0.000000
  70
    32
  0
VERTEX
  8
0
  5
2051
 10
93.0034
 20
111.646
 30
0.000000
  70
    32
  0
VERTEX
  8
0
  5
2052
 10
92.9959
 20
111.664
 30
0.000000
  70
    32
  0
VERTEX
  8
0
  5
2053
 10
92.9854
 20
111.682
 30
0.000000
  70
    32
  0
VERTEX
  8
0
  5
2054
 10
92.9719
 20
111.701
 30
0.000000
  70
    32
  0
VERTEX
  8
0
  5
2055
 10
92.9554
 20
111.719
 30
0.000000
  70
    32
  0
VERTEX
  8
0
  5
2056
 10
92.9359
 20
111.737
 30
0.000000
  70
    32
  0
VERTEX
  8
0
  5
2057
 10
92.9134
 20
111.755
 30
0.000000
  70
    32
  0
VERTEX
  8
0
  5
2058
 10
92.8880
 20
111.773
 30
0.000000
  70
    32
  0
VERTEX
  8
0
  5
2059
 10
92.8596
 20
111.791
 30
0.000000
  70
    32
  0
VERTEX
  8
0
  5
205A
 10
92.8284
 20
111.809
 30
0.000000
  70
    32
  0
VERTEX
  8
0
  5
205B
 10
92.7942
 20
111.827
 30
0.000000
  70
    32
  0
VERTEX
  8
0
  5
205C
 10
92.7571
 20
111.844
 30
0.000000
  70
    32
  0
VERTEX
  8
0
  5
205D
 10
92.7172
 20
111.861
 30
0.000000
  70
    32
  0
VERTEX
  8
0
  5
205E
 10
92.6744
 20
111.879
 30
0.000000
  70
    32
  0
VERTEX
  8
0
  5
205F
 10
92.6289
 20
111.896
 30
0.000000
  70
    32
  0
VERTEX
  8
0
  5
2060
 10
92.5805
 20
111.913
 30
0.000000
  70
    32
  0
VERTEX
  8
0
  5
2061
 10
92.5294
 20
111.929
 30
0.000000
  70
    32
  0
VERTEX
  8
0
  5
2062
 10
92.4756
 20
111.946
 30
0.000000
  70
    32
  0
VERTEX
  8
0
  5
2063
 10
92.4191
 20
111.962
 30
0.000000
  70
    32
  0
VERTEX
  8
0
  5
2064
 10
92.3599
 20
111.978
 30
0.000000
  70
    32
  0
VERTEX
  8
0
  5
2065
 10
92.2981
 20
111.994
 30
0.000000
  70
    32
  0
VERTEX
  8
0
  5
2066
 10
92.2337
 20
112.010
 30
0.000000
  70
    32
  0
VERTEX
  8
0
  5
2067
 10
92.1668
 20
112.025
 30
0.000000
  70
    32
  0
VERTEX
  8
0
  5
2068
 10
92.0974
 20
112.041
 30
0.000000
  70
    32
  0
VERTEX
  8
0
  5
2069
 10
92.0255
 20
112.056
 30
0.000000
  70
    32
  0
VERTEX
  8
0
  5
206A
 10
91.9512
 20
112.070
 30
0.000000
  70
    32
  0
VERTEX
  8
0
  5
206B
 10
91.8745
 20
112.085
 30
0.000000
  70
    32
  0
VERTEX
  8
0
  5
206C
 10
91.7955
 20
112.099
 30
0.000000
  70
    32
  0
VERTEX
  8
0
  5
206D
 10
91.7142
 20
112.112
 30
0.000000
  70
    32
  0
VERTEX
  8
0
  5
206E
 10
91.6307
 20
112.126
 30
0.000000
  70
    32
  0
VERTEX
  8
0
  5
206F
 10
91.5450
 20
112.139
 30
0.000000
  70
    32
  0
VERTEX
  8
0
  5
2070
 10
91.4572
 20
112.152
 30
0.000000
  70
    32
  0
VERTEX
  8
0
  5
2071
 10
91.3673
 20
112.165
 30
0.000000
  70
    32
  0
VERTEX
  8
0
  5
2072
 10
91.2753
 20
112.177
 30
0.000000
  70
    32
  0
VERTEX
  8
0
  5
2073
 10
91.1814
 20
112.189
 30
0.000000
  70
    32
  0
VERTEX
  8
0
  5
2074
 10
91.0856
 20
112.200
 30
0.000000
  70
    32
  0
VERTEX
  8
0
  5
2075
 10
90.9880
 20
112.211
 30
0.000000
  70
    32
  0
VERTEX
  8
0
  5
2076
 10
90.8885
 20
112.222
 30
0.000000
  70
    32
  0
VERTEX
  8
0
  5
2077
 10
90.7873
 20
112.232
 30
0.000000
  70
    32
  0
VERTEX
  8
0
  5
2078
 10
90.6845
 20
112.242
 30
0.000000
  70
    32
  0
VERTEX
  8
0
  5
2079
 10
90.5800
 20
112.252
 30
0.000000
  70
    32
  0
VERTEX
  8
0
  5
207A
 10
90.4740
 20
112.261
 30
0.000000
  70
    32
  0
VERTEX
  8
0
  5
207B
 10
90.3665
 20
112.270
 30
0.000000
  70
    32
  0
VERTEX
  8
0
  5
207C
 10
90.2575
 20
112.279
 30
0.000000
  70
    32
  0
VERTEX
  8
0
  5
207D
 10
90.1472
 20
112.287
 30
0.000000
  70
    32
  0
VERTEX
  8
0
  5
207E
 10
90.0357
 20
112.294
 30
0.000000
  70
    32
  0
VERTEX
  8
0
  5
207F
 10
89.9229
 20
112.302
 30
0.000000
  70
    32
  0
VERTEX
  8
0
  5
2080
 10
89.8089
 20
112.309
 30
0.000000
  70
    32
  0
VERTEX
  8
0
  5
2081
 10
89.6939
 20
112.315
 30
0.000000
  70
    32
  0
VERTEX
  8
0
  5
2082
 10
89.5779
 20
112.321
 30
0.000000
  70
    32
  0
VERTEX
  8
0
  5
2083
 10
89.4609
 20
112.327
 30
0.000000
  70
    32
  0
VERTEX
  8
0
  5
2084
 10
89.3430
 20
112.332
 30
0.000000
  70
    32
  0
VERTEX
  8
0
  5
2085
 10
89.2244
 20
112.336
 30
0.000000
  70
    32
  0
VERTEX
  8
0
  5
2086
 10
89.1050
 20
112.341
 30
0.000000
  70
    32
  0
VERTEX
  8
0
  5
2087
 10
88.9849
 20
112.344
 30
0.000000
  70
    32
  0
VERTEX
  8
0
  5
2088
 10
88.8643
 20
112.348
 30
0.000000
  70
    32
  0
VERTEX
  8
0
  5
2089
 10
88.7431
 20
112.351
 30
0.000000
  70
    32
  0
VERTEX
  8
0
  5
208A
 10
88.6215
 20
112.353
 30
0.000000
  70
    32
  0
VERTEX
  8
0
  5
208B
 10
88.4996
 20
112.355
 30
0.000000
  70
    32
  0
VERTEX
  8
0
  5
208C
 10
88.3773
 20
112.357
 30
0.000000
  70
    32
  0
VERTEX
  8
0
  5
208D
 10
88.2548
 20
112.358
 30
0.000000
  70
    32
  0
VERTEX
  8
0
  5
208E
 10
88.1322
 20
112.359
 30
0.000000
  70
    32
  0
VERTEX
  8
0
  5
208F
 10
88.0095
 20
112.359
 30
0.000000
  70
    32
  0
VERTEX
  8
0
  5
2090
 10
87.8868
 20
112.359
 30
0.000000
  70
    32
  0
VERTEX
  8
0
  5
2091
 10
87.7641
 20
112.358
 30
0.000000
  70
    32
  0
VERTEX
  8
0
  5
2092
 10
87.6416
 20
112.357
 30
0.000000
  70
    32
  0
VERTEX
  8
0
  5
2093
 10
87.5194
 20
112.355
 30
0.000000
  70
    32
  0
VERTEX
  8
0
  5
2094
 10
87.3974
 20
112.353
 30
0.000000
  70
    32
  0
VERTEX
  8
0
  5
2095
 10
87.2758
 20
112.351
 30
0.000000
  70
    32
  0
VERTEX
  8
0
  5
2096
 10
87.1547
 20
112.348
 30
0.000000
  70
    32
  0
VERTEX
  8
0
  5
2097
 10
87.0340
 20
112.344
 30
0.000000
  70
    32
  0
VERTEX
  8
0
  5
2098
 10
86.9140
 20
112.341
 30
0.000000
  70
    32
  0
VERTEX
  8
0
  5
2099
 10
86.7946
 20
112.336
 30
0.000000
  70
    32
  0
VERTEX
  8
0
  5
209A
 10
86.6759
 20
112.332
 30
0.000000
  70
    32
  0
VERTEX
  8
0
  5
209B
 10
86.5580
 20
112.327
 30
0.000000
  70
    32
  0
VERTEX
  8
0
  5
209C
 10
86.4411
 20
112.321
 30
0.000000
  70
    32
  0
VERTEX
  8
0
  5
209D
 10
86.3250
 20
112.315
 30
0.000000
  70
    32
  0
VERTEX
  8
0
  5
209E
 10
86.2100
 20
112.309
 30
0.000000
  70
    32
  0
VERTEX
  8
0
  5
209F
 10
86.0961
 20
112.302
 30
0.000000
  70
    32
  0
VERTEX
  8
0
  5
20A0
 10
85.9833
 20
112.294
 30
0.000000
  70
    32
  0
VERTEX
  8
0
  5
20A1
 10
85.8717
 20
112.287
 30
0.000000
  70
    32
  0
VERTEX
  8
0
  5
20A2
 10
85.7614
 20
112.279
 30
0.000000
  70
    32
  0
VERTEX
  8
0
  5
20A3
 10
85.6525
 20
112.270
 30
0.000000
  70
    32
  0
VERTEX
  8
0
  5
20A4
 10
85.5450
 20
112.261
 30
0.000000
  70
    32
  0
VERTEX
  8
0
  5
20A5
 10
85.4390
 20
112.252
 30
0.000000
  70
    32
  0
VERTEX
  8
0
  5
20A6
 10
85.3345
 20
112.242
 30
0.000000
  70
    32
  0
VERTEX
  8
0
  5
20A7
 10
85.2316
 20
112.232
 30
0.000000
  70
    32
  0
VERTEX
  8
0
  5
20A8
 10
85.1304
 20
112.222
 30
0.000000
  70
    32
  0
VERTEX
  8
0
  5
20A9
 10
85.0310
 20
112.211
 30
0.000000
  70
    32
  0
VERTEX
  8
0
  5
20AA
 10
84.9333
 20
112.200
 30
0.000000
  70
    32
  0
VERTEX
  8
0
  5
20AB
 10
84.8375
 20
112.189
 30
0.000000
  70
    32
  0
VERTEX
  8
0
  5
20AC
 10
84.7436
 20
112.177
 30
0.000000
  70
    32
  0
VERTEX
  8
0
  5
20AD
 10
84.6517
 20
112.165
 30
0.000000
  70
    32
  0
VERTEX
  8
0
  5
20AE
 10
84.5618
 20
112.152
 30
0.000000
  70
    32
  0
VERTEX
  8
0
  5
20AF
 10
84.4739
 20
112.139
 30
0.000000
  70
    32
  0
VERTEX
  8
0
  5
20B0
 10
84.3882
 20
112.126
 30
0.000000
  70
    32
  0
VERTEX
  8
0
  5
20B1
 10
84.3047
 20
112.112
 30
0.000000
  70
    32
  0
VERTEX
  8
0
  5
20B2
 10
84.2234
 20
112.099
 30
0.000000
  70
    32
  0
VERTEX
  8
0
  5
20B3
 10
84.1444
 20
112.085
 30
0.000000
  70
    32
  0
VERTEX
  8
0
  5
20B4
 10
84.0677
 20
112.070
 30
0.000000
  70
    32
  0
VERTEX
  8
0
  5
20B5
 10
83.9934
 20
112.056
 30
0.000000
  70
    32
  0
VERTEX
  8
0
  5
20B6
 10
83.9215
 20
112.041
 30
0.000000
  70
    32
  0
VERTEX
  8
0
  5
20B7
 10
83.8521
 20
112.025
 30
0.000000
  70
    32
  0
VERTEX
  8
0
  5
20B8
 10
83.7852
 20
112.010
 30
0.000000
  70
    32
  0
VERTEX
  8
0
  5
20B9
 10
83.7208
 20
111.994
 30
0.000000
  70
    32
  0
VERTEX
  8
0
  5
20BA
 10
83.6590
 20
111.978
 30
0.000000
  70
    32
  0
VERTEX
  8
0
  5
20BB
 10
83.5999
 20
111.962
 30
0.000000
  70
    32
  0
VERTEX
  8
0
  5
20BC
 10
83.5433
 20
111.946
 30
0.000000
  70
    32
  0
VERTEX
  8
0
  5
20BD
 10
83.4895
 20
111.929
 30
0.000000
  70
    32
  0
VERTEX
  8
0
  5
20BE
 10
83.4384
 20
111.913
 30
0.000000
  70
    32
  0
VERTEX
  8
0
  5
20BF
 10
83.3901
 20
111.896
 30
0.000000
  70
    32
  0
VERTEX
  8
0
  5
20C0
 10
83.3445
 20
111.879
 30
0.000000
  70
    32
  0
VERTEX
  8
0
  5
20C1
 10
83.3018
 20
111.861
 30
0.000000
  70
    32
  0
VERTEX
  8
0
  5
20C2
 10
83.2618
 20
111.844
 30
0.000000
  70
    32
  0
VERTEX
  8
0
  5
20C3
 10
83.2248
 20
111.827
 30
0.000000
  70
    32
  0
VERTEX
  8
0
  5
20C4
 10
83.1906
 20
111.809
 30
0.000000
  70
    32
  0
VERTEX
  8
0
  5
20C5
 10
83.1593
 20
111.791
 30
0.000000
  70
    32
  0
VERTEX
  8
0
  5
20C6
 10
83.1310
 20
111.773
 30
0.000000
  70
    32
  0
VERTEX
  8
0
  5
20C7
 10
83.1055
 20
111.755
 30
0.000000
  70
    32
  0
VERTEX
  8
0
  5
20C8
 10
83.0831
 20
111.737
 30
0.000000
  70
    32
  0
VERTEX
  8
0
  5
20C9
 10
83.0636
 20
111.719
 30
0.000000
  70
    32
  0
VERTEX
  8
0
  5
20CA
 10
83.0471
 20
111.701
 30
0.000000
  70
    32
  0
VERTEX
  8
0
  5
20CB
 10
83.0335
 20
111.682
 30
0.000000
  70
    32
  0
VERTEX
  8
0
  5
20CC
 10
83.0230
 20
111.664
 30
0.000000
  70
    32
  0
VERTEX
  8
0
  5
20CD
 10
83.0155
 20
111.646
 30
0.000000
  70
    32
  0
VERTEX
  8
0
  5
20CE
 10
83.0110
 20
111.627
 30
0.000000
  70
    32
  0
VERTEX
  8
0
  5
20CF
 10
83.0095
 20
111.609
 30
0.000000
  70
    32
  0
SEQEND
  8
0
  5
20D0
  0
LINE
  5
80C
  8
0
 10
83.009470867285813
 20
105.10882002117521
 30
0.0
 11
83.009470867285813
 21
111.6088200211755
 31
0.0
  0
LINE
  5
80D
  8
0
 10
81.209470867285859
 20
102.3588200211753
 30
0.0
 11
81.209470867285816
 21
99.433822608181572
 31
0.0
  0
LINE
  5
80E
  8
0
 10
97.509470867285813
 20
105.1088200211756
 30
0.0
 11
97.509470867285813
 21
111.6088200211755
 31
0.0
  0
LINE
  5
80F
  8
0
 10
93.009470867285813
 20
105.10882002117521
 30
0.0
 11
93.009470867285813
 21
111.6088200211753
 31
0.0
  0
POLYLINE
  5
810
  8
0
 10
93.009470867285813
 20
105.1088200211753
 30
0.0
 66
     1
 70
     8
  0
VERTEX
  8
0
  5
20D1
 10
93.0095
 20
105.109
 30
0.000000
  70
    32
  0
VERTEX
  8
0
  5
20D2
 10
93.0101
 20
105.090
 30
0.000000
  70
    32
  0
VERTEX
  8
0
  5
20D3
 10
93.0122
 20
105.072
 30
0.000000
  70
    32
  0
VERTEX
  8
0
  5
20D4
 10
93.0156
 20
105.054
 30
0.000000
  70
    32
  0
VERTEX
  8
0
  5
20D5
 10
93.0203
 20
105.035
 30
0.000000
  70
    32
  0
VERTEX
  8
0
  5
20D6
 10
93.0264
 20
105.017
 30
0.000000
  70
    32
  0
VERTEX
  8
0
  5
20D7
 10
93.0338
 20
104.999
 30
0.000000
  70
    32
  0
VERTEX
  8
0
  5
20D8
 10
93.0426
 20
104.981
 30
0.000000
  70
    32
  0
VERTEX
  8
0
  5
20D9
 10
93.0527
 20
104.963
 30
0.000000
  70
    32
  0
VERTEX
  8
0
  5
20DA
 10
93.0641
 20
104.944
 30
0.000000
  70
    32
  0
VERTEX
  8
0
  5
20DB
 10
93.0769
 20
104.927
 30
0.000000
  70
    32
  0
VERTEX
  8
0
  5
20DC
 10
93.0910
 20
104.909
 30
0.000000
  70
    32
  0
VERTEX
  8
0
  5
20DD
 10
93.1064
 20
104.891
 30
0.000000
  70
    32
  0
VERTEX
  8
0
  5
20DE
 10
93.1230
 20
104.874
 30
0.000000
  70
    32
  0
VERTEX
  8
0
  5
20DF
 10
93.1410
 20
104.856
 30
0.000000
  70
    32
  0
VERTEX
  8
0
  5
20E0
 10
93.1602
 20
104.839
 30
0.000000
  70
    32
  0
VERTEX
  8
0
  5
20E1
 10
93.1807
 20
104.822
 30
0.000000
  70
    32
  0
VERTEX
  8
0
  5
20E2
 10
93.2025
 20
104.805
 30
0.000000
  70
    32
  0
VERTEX
  8
0
  5
20E3
 10
93.2255
 20
104.788
 30
0.000000
  70
    32
  0
VERTEX
  8
0
  5
20E4
 10
93.2497
 20
104.772
 30
0.000000
  70
    32
  0
VERTEX
  8
0
  5
20E5
 10
93.2751
 20
104.755
 30
0.000000
  70
    32
  0
VERTEX
  8
0
  5
20E6
 10
93.3018
 20
104.739
 30
0.000000
  70
    32
  0
VERTEX
  8
0
  5
20E7
 10
93.3296
 20
104.723
 30
0.000000
  70
    32
  0
VERTEX
  8
0
  5
20E8
 10
93.3586
 20
104.708
 30
0.000000
  70
    32
  0
VERTEX
  8
0
  5
20E9
 10
93.3887
 20
104.692
 30
0.000000
  70
    32
  0
VERTEX
  8
0
  5
20EA
 10
93.4199
 20
104.677
 30
0.000000
  70
    32
  0
VERTEX
  8
0
  5
20EB
 10
93.4523
 20
104.662
 30
0.000000
  70
    32
  0
VERTEX
  8
0
  5
20EC
 10
93.4857
 20
104.647
 30
0.000000
  70
    32
  0
VERTEX
  8
0
  5
20ED
 10
93.5202
 20
104.633
 30
0.000000
  70
    32
  0
VERTEX
  8
0
  5
20EE
 10
93.5558
 20
104.619
 30
0.000000
  70
    32
  0
VERTEX
  8
0
  5
20EF
 10
93.5923
 20
104.605
 30
0.000000
  70
    32
  0
VERTEX
  8
0
  5
20F0
 10
93.6299
 20
104.592
 30
0.000000
  70
    32
  0
VERTEX
  8
0
  5
20F1
 10
93.6685
 20
104.578
 30
0.000000
  70
    32
  0
VERTEX
  8
0
  5
20F2
 10
93.7080
 20
104.566
 30
0.000000
  70
    32
  0
VERTEX
  8
0
  5
20F3
 10
93.7485
 20
104.553
 30
0.000000
  70
    32
  0
VERTEX
  8
0
  5
20F4
 10
93.7898
 20
104.541
 30
0.000000
  70
    32
  0
VERTEX
  8
0
  5
20F5
 10
93.8321
 20
104.529
 30
0.000000
  70
    32
  0
VERTEX
  8
0
  5
20F6
 10
93.8752
 20
104.518
 30
0.000000
  70
    32
  0
VERTEX
  8
0
  5
20F7
 10
93.9191
 20
104.506
 30
0.000000
  70
    32
  0
VERTEX
  8
0
  5
20F8
 10
93.9639
 20
104.496
 30
0.000000
  70
    32
  0
VERTEX
  8
0
  5
20F9
 10
94.0094
 20
104.485
 30
0.000000
  70
    32
  0
VERTEX
  8
0
  5
20FA
 10
94.0557
 20
104.475
 30
0.000000
  70
    32
  0
VERTEX
  8
0
  5
20FB
 10
94.1027
 20
104.466
 30
0.000000
  70
    32
  0
VERTEX
  8
0
  5
20FC
 10
94.1504
 20
104.456
 30
0.000000
  70
    32
  0
VERTEX
  8
0
  5
20FD
 10
94.1988
 20
104.447
 30
0.000000
  70
    32
  0
VERTEX
  8
0
  5
20FE
 10
94.2478
 20
104.439
 30
0.000000
  70
    32
  0
VERTEX
  8
0
  5
20FF
 10
94.2975
 20
104.431
 30
0.000000
  70
    32
  0
VERTEX
  8
0
  5
2100
 10
94.3477
 20
104.423
 30
0.000000
  70
    32
  0
VERTEX
  8
0
  5
2101
 10
94.3984
 20
104.416
 30
0.000000
  70
    32
  0
VERTEX
  8
0
  5
2102
 10
94.4497
 20
104.409
 30
0.000000
  70
    32
  0
VERTEX
  8
0
  5
2103
 10
94.5015
 20
104.403
 30
0.000000
  70
    32
  0
VERTEX
  8
0
  5
2104
 10
94.5537
 20
104.397
 30
0.000000
  70
    32
  0
VERTEX
  8
0
  5
2105
 10
94.6063
 20
104.391
 30
0.000000
  70
    32
  0
VERTEX
  8
0
  5
2106
 10
94.6594
 20
104.386
 30
0.000000
  70
    32
  0
VERTEX
  8
0
  5
2107
 10
94.7128
 20
104.381
 30
0.000000
  70
    32
  0
VERTEX
  8
0
  5
2108
 10
94.7665
 20
104.377
 30
0.000000
  70
    32
  0
VERTEX
  8
0
  5
2109
 10
94.8205
 20
104.373
 30
0.000000
  70
    32
  0
VERTEX
  8
0
  5
210A
 10
94.8748
 20
104.370
 30
0.000000
  70
    32
  0
VERTEX
  8
0
  5
210B
 10
94.9293
 20
104.367
 30
0.000000
  70
    32
  0
VERTEX
  8
0
  5
210C
 10
94.9840
 20
104.364
 30
0.000000
  70
    32
  0
VERTEX
  8
0
  5
210D
 10
95.0389
 20
104.362
 30
0.000000
  70
    32
  0
VERTEX
  8
0
  5
210E
 10
95.0940
 20
104.361
 30
0.000000
  70
    32
  0
VERTEX
  8
0
  5
210F
 10
95.1491
 20
104.360
 30
0.000000
  70
    32
  0
VERTEX
  8
0
  5
2110
 10
95.2043
 20
104.359
 30
0.000000
  70
    32
  0
VERTEX
  8
0
  5
2111
 10
95.2595
 20
104.359
 30
0.000000
  70
    32
  0
VERTEX
  8
0
  5
2112
 10
95.3147
 20
104.359
 30
0.000000
  70
    32
  0
VERTEX
  8
0
  5
2113
 10
95.3699
 20
104.360
 30
0.000000
  70
    32
  0
VERTEX
  8
0
  5
2114
 10
95.4250
 20
104.361
 30
0.000000
  70
    32
  0
VERTEX
  8
0
  5
2115
 10
95.4800
 20
104.362
 30
0.000000
  70
    32
  0
VERTEX
  8
0
  5
2116
 10
95.5349
 20
104.364
 30
0.000000
  70
    32
  0
VERTEX
  8
0
  5
2117
 10
95.5896
 20
104.367
 30
0.000000
  70
    32
  0
VERTEX
  8
0
  5
2118
 10
95.6441
 20
104.370
 30
0.000000
  70
    32
  0
VERTEX
  8
0
  5
2119
 10
95.6984
 20
104.373
 30
0.000000
  70
    32
  0
VERTEX
  8
0
  5
211A
 10
95.7524
 20
104.377
 30
0.000000
  70
    32
  0
VERTEX
  8
0
  5
211B
 10
95.8062
 20
104.381
 30
0.000000
  70
    32
  0
VERTEX
  8
0
  5
211C
 10
95.8596
 20
104.386
 30
0.000000
  70
    32
  0
VERTEX
  8
0
  5
211D
 10
95.9126
 20
104.391
 30
0.000000
  70
    32
  0
VERTEX
  8
0
  5
211E
 10
95.9653
 20
104.397
 30
0.000000
  70
    32
  0
VERTEX
  8
0
  5
211F
 10
96.0175
 20
104.403
 30
0.000000
  70
    32
  0
VERTEX
  8
0
  5
2120
 10
96.0692
 20
104.409
 30
0.000000
  70
    32
  0
VERTEX
  8
0
  5
2121
 10
96.1205
 20
104.416
 30
0.000000
  70
    32
  0
VERTEX
  8
0
  5
2122
 10
96.1713
 20
104.423
 30
0.000000
  70
    32
  0
VERTEX
  8
0
  5
2123
 10
96.2215
 20
104.431
 30
0.000000
  70
    32
  0
VERTEX
  8
0
  5
2124
 10
96.2711
 20
104.439
 30
0.000000
  70
    32
  0
VERTEX
  8
0
  5
2125
 10
96.3201
 20
104.447
 30
0.000000
  70
    32
  0
VERTEX
  8
0
  5
2126
 10
96.3685
 20
104.456
 30
0.000000
  70
    32
  0
VERTEX
  8
0
  5
2127
 10
96.4162
 20
104.466
 30
0.000000
  70
    32
  0
VERTEX
  8
0
  5
2128
 10
96.4632
 20
104.475
 30
0.000000
  70
    32
  0
VERTEX
  8
0
  5
2129
 10
96.5095
 20
104.485
 30
0.000000
  70
    32
  0
VERTEX
  8
0
  5
212A
 10
96.5550
 20
104.496
 30
0.000000
  70
    32
  0
VERTEX
  8
0
  5
212B
 10
96.5998
 20
104.506
 30
0.000000
  70
    32
  0
VERTEX
  8
0
  5
212C
 10
96.6437
 20
104.518
 30
0.000000
  70
    32
  0
VERTEX
  8
0
  5
212D
 10
96.6869
 20
104.529
 30
0.000000
  70
    32
  0
VERTEX
  8
0
  5
212E
 10
96.7291
 20
104.541
 30
0.000000
  70
    32
  0
VERTEX
  8
0
  5
212F
 10
96.7705
 20
104.553
 30
0.000000
  70
    32
  0
VERTEX
  8
0
  5
2130
 10
96.8109
 20
104.566
 30
0.000000
  70
    32
  0
VERTEX
  8
0
  5
2131
 10
96.8505
 20
104.578
 30
0.000000
  70
    32
  0
VERTEX
  8
0
  5
2132
 10
96.8890
 20
104.592
 30
0.000000
  70
    32
  0
VERTEX
  8
0
  5
2133
 10
96.9266
 20
104.605
 30
0.000000
  70
    32
  0
VERTEX
  8
0
  5
2134
 10
96.9632
 20
104.619
 30
0.000000
  70
    32
  0
VERTEX
  8
0
  5
2135
 10
96.9987
 20
104.633
 30
0.000000
  70
    32
  0
VERTEX
  8
0
  5
2136
 10
97.0333
 20
104.647
 30
0.000000
  70
    32
  0
VERTEX
  8
0
  5
2137
 10
97.0667
 20
104.662
 30
0.000000
  70
    32
  0
VERTEX
  8
0
  5
2138
 10
97.0990
 20
104.677
 30
0.000000
  70
    32
  0
VERTEX
  8
0
  5
2139
 10
97.1303
 20
104.692
 30
0.000000
  70
    32
  0
VERTEX
  8
0
  5
213A
 10
97.1604
 20
104.708
 30
0.000000
  70
    32
  0
VERTEX
  8
0
  5
213B
 10
97.1894
 20
104.723
 30
0.000000
  70
    32
  0
VERTEX
  8
0
  5
213C
 10
97.2172
 20
104.739
 30
0.000000
  70
    32
  0
VERTEX
  8
0
  5
213D
 10
97.2438
 20
104.755
 30
0.000000
  70
    32
  0
VERTEX
  8
0
  5
213E
 10
97.2692
 20
104.772
 30
0.000000
  70
    32
  0
VERTEX
  8
0
  5
213F
 10
97.2934
 20
104.788
 30
0.000000
  70
    32
  0
VERTEX
  8
0
  5
2140
 10
97.3164
 20
104.805
 30
0.000000
  70
    32
  0
VERTEX
  8
0
  5
2141
 10
97.3382
 20
104.822
 30
0.000000
  70
    32
  0
VERTEX
  8
0
  5
2142
 10
97.3587
 20
104.839
 30
0.000000
  70
    32
  0
VERTEX
  8
0
  5
2143
 10
97.3779
 20
104.856
 30
0.000000
  70
    32
  0
VERTEX
  8
0
  5
2144
 10
97.3959
 20
104.874
 30
0.000000
  70
    32
  0
VERTEX
  8
0
  5
2145
 10
97.4126
 20
104.891
 30
0.000000
  70
    32
  0
VERTEX
  8
0
  5
2146
 10
97.4280
 20
104.909
 30
0.000000
  70
    32
  0
VERTEX
  8
0
  5
2147
 10
97.4420
 20
104.927
 30
0.000000
  70
    32
  0
VERTEX
  8
0
  5
2148
 10
97.4548
 20
104.944
 30
0.000000
  70
    32
  0
VERTEX
  8
0
  5
2149
 10
97.4662
 20
104.963
 30
0.000000
  70
    32
  0
VERTEX
  8
0
  5
214A
 10
97.4763
 20
104.981
 30
0.000000
  70
    32
  0
VERTEX
  8
0
  5
214B
 10
97.4851
 20
104.999
 30
0.000000
  70
    32
  0
VERTEX
  8
0
  5
214C
 10
97.4925
 20
105.017
 30
0.000000
  70
    32
  0
VERTEX
  8
0
  5
214D
 10
97.4986
 20
105.035
 30
0.000000
  70
    32
  0
VERTEX
  8
0
  5
214E
 10
97.5034
 20
105.054
 30
0.000000
  70
    32
  0
VERTEX
  8
0
  5
214F
 10
97.5068
 20
105.072
 30
0.000000
  70
    32
  0
VERTEX
  8
0
  5
2150
 10
97.5088
 20
105.090
 30
0.000000
  70
    32
  0
VERTEX
  8
0
  5
2151
 10
97.5095
 20
105.109
 30
0.000000
  70
    32
  0
SEQEND
  8
0
  5
2152
  0
LINE
  5
811
  8
0
 10
93.009470867285813
 20
101.65736024863099
 30
0.0
 11
93.009470867285813
 21
102.3588200211753
 31
0.0
  0
LINE
  5
812
  8
0
 10
94.809470867285754
 20
102.3588200211753
 30
0.0
 11
94.809470867285754
 21
101.9965439564961
 31
0.0
  0
POLYLINE
  5
813
  8
0
 10
97.509470867285813
 20
111.6088200211753
 30
0.0
 66
     1
 70
     8
  0
VERTEX
  8
0
  5
2153
 10
97.5095
 20
111.609
 30
0.000000
  70
    32
  0
VERTEX
  8
0
  5
2154
 10
97.5088
 20
111.627
 30
0.000000
  70
    32
  0
VERTEX
  8
0
  5
2155
 10
97.5068
 20
111.646
 30
0.000000
  70
    32
  0
VERTEX
  8
0
  5
2156
 10
97.5034
 20
111.664
 30
0.000000
  70
    32
  0
VERTEX
  8
0
  5
2157
 10
97.4986
 20
111.682
 30
0.000000
  70
    32
  0
VERTEX
  8
0
  5
2158
 10
97.4925
 20
111.701
 30
0.000000
  70
    32
  0
VERTEX
  8
0
  5
2159
 10
97.4851
 20
111.719
 30
0.000000
  70
    32
  0
VERTEX
  8
0
  5
215A
 10
97.4763
 20
111.737
 30
0.000000
  70
    32
  0
VERTEX
  8
0
  5
215B
 10
97.4662
 20
111.755
 30
0.000000
  70
    32
  0
VERTEX
  8
0
  5
215C
 10
97.4548
 20
111.773
 30
0.000000
  70
    32
  0
VERTEX
  8
0
  5
215D
 10
97.4420
 20
111.791
 30
0.000000
  70
    32
  0
VERTEX
  8
0
  5
215E
 10
97.4280
 20
111.809
 30
0.000000
  70
    32
  0
VERTEX
  8
0
  5
215F
 10
97.4126
 20
111.827
 30
0.000000
  70
    32
  0
VERTEX
  8
0
  5
2160
 10
97.3959
 20
111.844
 30
0.000000
  70
    32
  0
VERTEX
  8
0
  5
2161
 10
97.3779
 20
111.861
 30
0.000000
  70
    32
  0
VERTEX
  8
0
  5
2162
 10
97.3587
 20
111.879
 30
0.000000
  70
    32
  0
VERTEX
  8
0
  5
2163
 10
97.3382
 20
111.896
 30
0.000000
  70
    32
  0
VERTEX
  8
0
  5
2164
 10
97.3164
 20
111.913
 30
0.000000
  70
    32
  0
VERTEX
  8
0
  5
2165
 10
97.2934
 20
111.929
 30
0.000000
  70
    32
  0
VERTEX
  8
0
  5
2166
 10
97.2692
 20
111.946
 30
0.000000
  70
    32
  0
VERTEX
  8
0
  5
2167
 10
97.2438
 20
111.962
 30
0.000000
  70
    32
  0
VERTEX
  8
0
  5
2168
 10
97.2172
 20
111.978
 30
0.000000
  70
    32
  0
VERTEX
  8
0
  5
2169
 10
97.1894
 20
111.994
 30
0.000000
  70
    32
  0
VERTEX
  8
0
  5
216A
 10
97.1604
 20
112.010
 30
0.000000
  70
    32
  0
VERTEX
  8
0
  5
216B
 10
97.1303
 20
112.025
 30
0.000000
  70
    32
  0
VERTEX
  8
0
  5
216C
 10
97.0990
 20
112.041
 30
0.000000
  70
    32
  0
VERTEX
  8
0
  5
216D
 10
97.0667
 20
112.056
 30
0.000000
  70
    32
  0
VERTEX
  8
0
  5
216E
 10
97.0333
 20
112.070
 30
0.000000
  70
    32
  0
VERTEX
  8
0
  5
216F
 10
96.9987
 20
112.085
 30
0.000000
  70
    32
  0
VERTEX
  8
0
  5
2170
 10
96.9632
 20
112.099
 30
0.000000
  70
    32
  0
VERTEX
  8
0
  5
2171
 10
96.9266
 20
112.112
 30
0.000000
  70
    32
  0
VERTEX
  8
0
  5
2172
 10
96.8890
 20
112.126
 30
0.000000
  70
    32
  0
VERTEX
  8
0
  5
2173
 10
96.8505
 20
112.139
 30
0.000000
  70
    32
  0
VERTEX
  8
0
  5
2174
 10
96.8109
 20
112.152
 30
0.000000
  70
    32
  0
VERTEX
  8
0
  5
2175
 10
96.7705
 20
112.165
 30
0.000000
  70
    32
  0
VERTEX
  8
0
  5
2176
 10
96.7291
 20
112.177
 30
0.000000
  70
    32
  0
VERTEX
  8
0
  5
2177
 10
96.6869
 20
112.189
 30
0.000000
  70
    32
  0
VERTEX
  8
0
  5
2178
 10
96.6437
 20
112.200
 30
0.000000
  70
    32
  0
VERTEX
  8
0
  5
2179
 10
96.5998
 20
112.211
 30
0.000000
  70
    32
  0
VERTEX
  8
0
  5
217A
 10
96.5550
 20
112.222
 30
0.000000
  70
    32
  0
VERTEX
  8
0
  5
217B
 10
96.5095
 20
112.232
 30
0.000000
  70
    32
  0
VERTEX
  8
0
  5
217C
 10
96.4632
 20
112.242
 30
0.000000
  70
    32
  0
VERTEX
  8
0
  5
217D
 10
96.4162
 20
112.252
 30
0.000000
  70
    32
  0
VERTEX
  8
0
  5
217E
 10
96.3685
 20
112.261
 30
0.000000
  70
    32
  0
VERTEX
  8
0
  5
217F
 10
96.3201
 20
112.270
 30
0.000000
  70
    32
  0
VERTEX
  8
0
  5
2180
 10
96.2711
 20
112.279
 30
0.000000
  70
    32
  0
VERTEX
  8
0
  5
2181
 10
96.2215
 20
112.287
 30
0.000000
  70
    32
  0
VERTEX
  8
0
  5
2182
 10
96.1713
 20
112.294
 30
0.000000
  70
    32
  0
VERTEX
  8
0
  5
2183
 10
96.1205
 20
112.302
 30
0.000000
  70
    32
  0
VERTEX
  8
0
  5
2184
 10
96.0692
 20
112.309
 30
0.000000
  70
    32
  0
VERTEX
  8
0
  5
2185
 10
96.0175
 20
112.315
 30
0.000000
  70
    32
  0
VERTEX
  8
0
  5
2186
 10
95.9653
 20
112.321
 30
0.000000
  70
    32
  0
VERTEX
  8
0
  5
2187
 10
95.9126
 20
112.327
 30
0.000000
  70
    32
  0
VERTEX
  8
0
  5
2188
 10
95.8596
 20
112.332
 30
0.000000
  70
    32
  0
VERTEX
  8
0
  5
2189
 10
95.8062
 20
112.336
 30
0.000000
  70
    32
  0
VERTEX
  8
0
  5
218A
 10
95.7524
 20
112.341
 30
0.000000
  70
    32
  0
VERTEX
  8
0
  5
218B
 10
95.6984
 20
112.344
 30
0.000000
  70
    32
  0
VERTEX
  8
0
  5
218C
 10
95.6441
 20
112.348
 30
0.000000
  70
    32
  0
VERTEX
  8
0
  5
218D
 10
95.5896
 20
112.351
 30
0.000000
  70
    32
  0
VERTEX
  8
0
  5
218E
 10
95.5349
 20
112.353
 30
0.000000
  70
    32
  0
VERTEX
  8
0
  5
218F
 10
95.4800
 20
112.355
 30
0.000000
  70
    32
  0
VERTEX
  8
0
  5
2190
 10
95.4250
 20
112.357
 30
0.000000
  70
    32
  0
VERTEX
  8
0
  5
2191
 10
95.3699
 20
112.358
 30
0.000000
  70
    32
  0
VERTEX
  8
0
  5
2192
 10
95.3147
 20
112.359
 30
0.000000
  70
    32
  0
VERTEX
  8
0
  5
2193
 10
95.2595
 20
112.359
 30
0.000000
  70
    32
  0
VERTEX
  8
0
  5
2194
 10
95.2043
 20
112.359
 30
0.000000
  70
    32
  0
VERTEX
  8
0
  5
2195
 10
95.1491
 20
112.358
 30
0.000000
  70
    32
  0
VERTEX
  8
0
  5
2196
 10
95.0940
 20
112.357
 30
0.000000
  70
    32
  0
VERTEX
  8
0
  5
2197
 10
95.0389
 20
112.355
 30
0.000000
  70
    32
  0
VERTEX
  8
0
  5
2198
 10
94.9840
 20
112.353
 30
0.000000
  70
    32
  0
VERTEX
  8
0
  5
2199
 10
94.9293
 20
112.351
 30
0.000000
  70
    32
  0
VERTEX
  8
0
  5
219A
 10
94.8748
 20
112.348
 30
0.000000
  70
    32
  0
VERTEX
  8
0
  5
219B
 10
94.8205
 20
112.344
 30
0.000000
  70
    32
  0
VERTEX
  8
0
  5
219C
 10
94.7665
 20
112.341
 30
0.000000
  70
    32
  0
VERTEX
  8
0
  5
219D
 10
94.7128
 20
112.336
 30
0.000000
  70
    32
  0
VERTEX
  8
0
  5
219E
 10
94.6594
 20
112.332
 30
0.000000
  70
    32
  0
VERTEX
  8
0
  5
219F
 10
94.6063
 20
112.327
 30
0.000000
  70
    32
  0
VERTEX
  8
0
  5
21A0
 10
94.5537
 20
112.321
 30
0.000000
  70
    32
  0
VERTEX
  8
0
  5
21A1
 10
94.5015
 20
112.315
 30
0.000000
  70
    32
  0
VERTEX
  8
0
  5
21A2
 10
94.4497
 20
112.309
 30
0.000000
  70
    32
  0
VERTEX
  8
0
  5
21A3
 10
94.3984
 20
112.302
 30
0.000000
  70
    32
  0
VERTEX
  8
0
  5
21A4
 10
94.3477
 20
112.294
 30
0.000000
  70
    32
  0
VERTEX
  8
0
  5
21A5
 10
94.2975
 20
112.287
 30
0.000000
  70
    32
  0
VERTEX
  8
0
  5
21A6
 10
94.2478
 20
112.279
 30
0.000000
  70
    32
  0
VERTEX
  8
0
  5
21A7
 10
94.1988
 20
112.270
 30
0.000000
  70
    32
  0
VERTEX
  8
0
  5
21A8
 10
94.1504
 20
112.261
 30
0.000000
  70
    32
  0
VERTEX
  8
0
  5
21A9
 10
94.1027
 20
112.252
 30
0.000000
  70
    32
  0
VERTEX
  8
0
  5
21AA
 10
94.0557
 20
112.242
 30
0.000000
  70
    32
  0
VERTEX
  8
0
  5
21AB
 10
94.0094
 20
112.232
 30
0.000000
  70
    32
  0
VERTEX
  8
0
  5
21AC
 10
93.9639
 20
112.222
 30
0.000000
  70
    32
  0
VERTEX
  8
0
  5
21AD
 10
93.9191
 20
112.211
 30
0.000000
  70
    32
  0
VERTEX
  8
0
  5
21AE
 10
93.8752
 20
112.200
 30
0.000000
  70
    32
  0
VERTEX
  8
0
  5
21AF
 10
93.8321
 20
112.189
 30
0.000000
  70
    32
  0
VERTEX
  8
0
  5
21B0
 10
93.7898
 20
112.177
 30
0.000000
  70
    32
  0
VERTEX
  8
0
  5
21B1
 10
93.7485
 20
112.165
 30
0.000000
  70
    32
  0
VERTEX
  8
0
  5
21B2
 10
93.7080
 20
112.152
 30
0.000000
  70
    32
  0
VERTEX
  8
0
  5
21B3
 10
93.6685
 20
112.139
 30
0.000000
  70
    32
  0
VERTEX
  8
0
  5
21B4
 10
93.6299
 20
112.126
 30
0.000000
  70
    32
  0
VERTEX
  8
0
  5
21B5
 10
93.5923
 20
112.112
 30
0.000000
  70
    32
  0
VERTEX
  8
0
  5
21B6
 10
93.5558
 20
112.099
 30
0.000000
  70
    32
  0
VERTEX
  8
0
  5
21B7
 10
93.5202
 20
112.085
 30
0.000000
  70
    32
  0
VERTEX
  8
0
  5
21B8
 10
93.4857
 20
112.070
 30
0.000000
  70
    32
  0
VERTEX
  8
0
  5
21B9
 10
93.4523
 20
112.056
 30
0.000000
  70
    32
  0
VERTEX
  8
0
  5
21BA
 10
93.4199
 20
112.041
 30
0.000000
  70
    32
  0
VERTEX
  8
0
  5
21BB
 10
93.3887
 20
112.025
 30
0.000000
  70
    32
  0
VERTEX
  8
0
  5
21BC
 10
93.3586
 20
112.010
 30
0.000000
  70
    32
  0
VERTEX
  8
0
  5
21BD
 10
93.3296
 20
111.994
 30
0.000000
  70
    32
  0
VERTEX
  8
0
  5
21BE
 10
93.3018
 20
111.978
 30
0.000000
  70
    32
  0
VERTEX
  8
0
  5
21BF
 10
93.2751
 20
111.962
 30
0.000000
  70
    32
  0
VERTEX
  8
0
  5
21C0
 10
93.2497
 20
111.946
 30
0.000000
  70
    32
  0
VERTEX
  8
0
  5
21C1
 10
93.2255
 20
111.929
 30
0.000000
  70
    32
  0
VERTEX
  8
0
  5
21C2
 10
93.2025
 20
111.913
 30
0.000000
  70
    32
  0
VERTEX
  8
0
  5
21C3
 10
93.1807
 20
111.896
 30
0.000000
  70
    32
  0
VERTEX
  8
0
  5
21C4
 10
93.1602
 20
111.879
 30
0.000000
  70
    32
  0
VERTEX
  8
0
  5
21C5
 10
93.1410
 20
111.861
 30
0.000000
  70
    32
  0
VERTEX
  8
0
  5
21C6
 10
93.1230
 20
111.844
 30
0.000000
  70
    32
  0
VERTEX
  8
0
  5
21C7
 10
93.1064
 20
111.827
 30
0.000000
  70
    32
  0
VERTEX
  8
0
  5
21C8
 10
93.0910
 20
111.809
 30
0.000000
  70
    32
  0
VERTEX
  8
0
  5
21C9
 10
93.0769
 20
111.791
 30
0.000000
  70
    32
  0
VERTEX
  8
0
  5
21CA
 10
93.0641
 20
111.773
 30
0.000000
  70
    32
  0
VERTEX
  8
0
  5
21CB
 10
93.0527
 20
111.755
 30
0.000000
  70
    32
  0
VERTEX
  8
0
  5
21CC
 10
93.0426
 20
111.737
 30
0.000000
  70
    32
  0
VERTEX
  8
0
  5
21CD
 10
93.0338
 20
111.719
 30
0.000000
  70
    32
  0
VERTEX
  8
0
  5
21CE
 10
93.0264
 20
111.701
 30
0.000000
  70
    32
  0
VERTEX
  8
0
  5
21CF
 10
93.0203
 20
111.682
 30
0.000000
  70
    32
  0
VERTEX
  8
0
  5
21D0
 10
93.0156
 20
111.664
 30
0.000000
  70
    32
  0
VERTEX
  8
0
  5
21D1
 10
93.0122
 20
111.646
 30
0.000000
  70
    32
  0
VERTEX
  8
0
  5
21D2
 10
93.0101
 20
111.627
 30
0.000000
  70
    32
  0
VERTEX
  8
0
  5
21D3
 10
93.0095
 20
111.609
 30
0.000000
  70
    32
  0
SEQEND
  8
0
  5
21D4
  0
POINT
  5
817
  8
0
 10
73.009470867285813
 20
142.35882002117529
 30
0.0
  0
POINT
  5
818
  8
0
 10
80.009470867285813
 20
142.35882002117529
 30
0.0
  0
POINT
  5
819
  8
0
 10
78.009470867285813
 20
142.35882002117529
 30
0.0
  0
POINT
  5
81A
  8
0
 10
88.009470867285813
 20
142.35882002117529
 30
0.0
  0
POINT
  5
81B
  8
0
 10
88.009470867285799
 20
142.35882002117529
 30
0.0
  0
POINT
  5
81C
  8
0
 10
96.009470867285813
 20
142.35882002117529
 30
0.0
  0
LINE
  5
81D
  8
1
 10
149.86842678620269
 20
87.858820021175305
 30
0.0
 11
149.86842678620269
 21
47.85882002117534
 31
0.0
  0
LINE
  5
81E
  8
0
 10
100.5094708672858
 20
44.85882002117534
 30
0.0
 11
100.5094708672858
 21
19.85882002117534
 31
0.0
  0
LINE
  5
81F
  8
3
 10
159.86842678620269
 20
52.858820021175347
 30
0.0
 11
129.86842678620269
 21
52.858820021175347
 31
0.0
  0
LINE
  5
820
  8
3
 10
159.86842678620269
 20
82.858820021175347
 30
0.0
 11
129.86842678620269
 21
82.858820021175347
 31
0.0
  0
LINE
  5
821
  8
1
 10
101.0094708672858
 20
67.858820021175347
 30
0.0
 11
164.86842678620269
 21
67.858820021175347
 31
0.0
  0
LINE
  5
822
  8
3
 10
129.86842678620269
 20
82.858820021175347
 30
0.0
 11
129.86842678620269
 21
52.858820021175347
 31
0.0
  0
LINE
  5
823
  8
3
 10
119.8702859112753
 20
55.210655289633053
 30
0.0
 11
119.8702859112753
 21
61.410655289633041
 31
0.0
  0
LINE
  5
824
  8
3
 10
119.8702859112754
 20
80.71065528963274
 30
0.0
 11
119.8702859112753
 21
55.710655289632712
 31
0.0
  0
LINE
  5
825
  8
3
 10
121.8702859112753
 20
55.210655289633053
 30
0.0
 11
121.8702859112753
 21
81.210655289633081
 31
0.0
  0
LINE
  5
827
  8
3
 10
121.8702859112753
 20
55.210655289633053
 30
0.0
 11
119.8702859112753
 21
55.210655289633053
 31
0.0
  0
LINE
  5
828
  8
3
 10
116.1031458672858
 20
58.958820021175313
 30
0.0
 11
112.7489958672858
 21
76.758820021175353
 31
0.0
  0
ARC
  5
829
  8
3
 10
114.61613591127541
 20
77.110655289633087
 30
0.0
 40
1.8999999999999999
 50
10.67142040090839
 51
190.6714204009084
  0
LINE
  5
82A
  8
3
 10
115.64113332426911
 20
61.410655289633091
 30
0.0
 11
112.7997098465962
 21
61.410655289633091
 31
0.0
  0
LINE
  5
82B
  8
3
 10
106.8702859112753
 20
61.910655289633041
 30
0.0
 11
106.8702859112753
 21
72.356302905657657
 31
0.0
  0
LINE
  5
82C
  8
3
 10
109.3948458672858
 20
58.958820021175313
 30
0.0
 11
106.04069586728581
 21
76.758820021175353
 31
0.0
  0
LINE
  5
82D
  8
3
 10
113.1291259552649
 20
59.662490558090781
 30
0.0
 11
109.77497595526491
 21
77.462490558090821
 31
0.0
  0
LINE
  5
82E
  8
3
 10
106.4208259552649
 20
59.662490558090781
 30
0.0
 11
103.0666759552649
 21
77.462490558090821
 31
0.0
  0
LINE
  5
82F
  8
3
 10
102.6865458672858
 20
58.958820021175313
 30
0.0
 11
99.332395867285825
 21
76.758820021175353
 31
0.0
  0
LINE
  5
830
  8
3
 10
106.96012696131569
 20
61.820814239592657
 30
0.0
 11
106.4208259552649
 21
58.958820021175313
 31
0.0
  0
LINE
  5
831
  8
3
 10
105.752226138731
 20
63.210655289633053
 30
0.0
 11
106.8702859112753
 21
63.210655289633053
 31
0.0
  0
LINE
  5
832
  8
3
 10
106.8702859112753
 20
64.210655289633024
 30
0.0
 11
105.5637907454726
 21
64.210655289633024
 31
0.0
  0
ARC
  5
833
  8
3
 10
104.55368591127539
 20
59.310655289633083
 30
0.0
 40
1.8999999999999999
 50
190.6714204009084
 51
10.67142040090839
  0
POINT
  5
834
  8
0
 10
101.0094708672858
 20
67.858820021175347
 30
0.0
  0
POINT
  5
835
  8
0
 10
101.0094708672858
 20
67.858820021175305
 30
0.0
  0
ARC
  5
836
  8
3
 10
111.2619859112754
 20
59.310655289633083
 30
0.0
 40
1.8999999999999999
 50
190.6714204009084
 51
10.67142040090839
  0
LINE
  5
837
  8
3
 10
108.9328333242691
 20
61.410655289633041
 30
0.0
 11
107.3702859112753
 21
61.410655289633041
 31
0.0
  0
LINE
  5
838
  8
3
 10
107.3702859112753
 20
61.410655289633041
 30
0.0
 11
106.8702859112753
 21
61.910655289633041
 31
0.0
  0
LINE
  5
839
  8
3
 10
113.59113849828159
 20
61.410655289633091
 30
0.0
 11
113.1291259552649
 21
58.958820021175313
 31
0.0
  0
LINE
  5
83A
  8
3
 10
106.89773107707801
 20
72.210655289633081
 30
0.0
 11
104.0563075994052
 21
72.210655289633081
 31
0.0
  0
ARC
  5
83B
  8
3
 10
107.9078359112754
 20
77.110655289633087
 30
0.0
 40
1.8999999999999999
 50
10.67142040090839
 51
190.6714204009084
  0
LINE
  5
83C
  8
3
 10
103.8678722061467
 20
73.210655289633081
 30
0.0
 11
106.7092956838197
 21
73.210655289633081
 31
0.0
  0
ARC
  5
83D
  8
3
 10
101.19953591127531
 20
77.110655289633087
 30
0.0
 40
1.8999999999999999
 50
10.67142040090839
 51
190.6714204009084
  0
LINE
  5
83E
  8
3
 10
106.04069586728581
 20
77.462490558090821
 30
0.0
 11
105.2394996164039
 21
73.210655289633081
 31
0.0
  0
LINE
  5
83F
  8
3
 10
113.0784119759544
 20
75.010655289633092
 30
0.0
 11
110.2369884982816
 21
75.010655289633092
 31
0.0
  0
LINE
  5
840
  8
3
 10
112.7489958672858
 20
77.462490558090821
 30
0.0
 11
112.2869833242691
 21
75.010655289633092
 31
0.0
  0
LINE
  5
841
  8
3
 10
119.8702859112753
 20
79.010655289633092
 30
0.0
 11
119.8702859112753
 21
59.310655289633083
 31
0.0
  0
POLYLINE
  5
842
  8
3
 10
122.6202859112753
 20
73.210655289633081
 30
0.0
 66
     1
 70
     8
  0
VERTEX
  8
3
  5
21D5
 10
122.620
 20
73.2107
 30
0.000000
  70
    32
  0
VERTEX
  8
3
  5
21D6
 10
122.602
 20
73.2091
 30
0.000000
  70
    32
  0
VERTEX
  8
3
  5
21D7
 10
122.583
 20
73.2046
 30
0.000000
  70
    32
  0
VERTEX
  8
3
  5
21D8
 10
122.565
 20
73.1971
 30
0.000000
  70
    32
  0
VERTEX
  8
3
  5
21D9
 10
122.547
 20
73.1866
 30
0.000000
  70
    32
  0
VERTEX
  8
3
  5
21DA
 10
122.528
 20
73.1731
 30
0.000000
  70
    32
  0
VERTEX
  8
3
  5
21DB
 10
122.510
 20
73.1565
 30
0.000000
  70
    32
  0
VERTEX
  8
3
  5
21DC
 10
122.492
 20
73.1370
 30
0.000000
  70
    32
  0
VERTEX
  8
3
  5
21DD
 10
122.474
 20
73.1146
 30
0.000000
  70
    32
  0
VERTEX
  8
3
  5
21DE
 10
122.456
 20
73.0892
 30
0.000000
  70
    32
  0
VERTEX
  8
3
  5
21DF
 10
122.438
 20
73.0608
 30
0.000000
  70
    32
  0
VERTEX
  8
3
  5
21E0
 10
122.420
 20
73.0295
 30
0.000000
  70
    32
  0
VERTEX
  8
3
  5
21E1
 10
122.403
 20
72.9954
 30
0.000000
  70
    32
  0
VERTEX
  8
3
  5
21E2
 10
122.385
 20
72.9583
 30
0.000000
  70
    32
  0
VERTEX
  8
3
  5
21E3
 10
122.368
 20
72.9184
 30
0.000000
  70
    32
  0
VERTEX
  8
3
  5
21E4
 10
122.350
 20
72.8756
 30
0.000000
  70
    32
  0
VERTEX
  8
3
  5
21E5
 10
122.333
 20
72.8301
 30
0.000000
  70
    32
  0
VERTEX
  8
3
  5
21E6
 10
122.316
 20
72.7817
 30
0.000000
  70
    32
  0
VERTEX
  8
3
  5
21E7
 10
122.300
 20
72.7306
 30
0.000000
  70
    32
  0
VERTEX
  8
3
  5
21E8
 10
122.283
 20
72.6768
 30
0.000000
  70
    32
  0
VERTEX
  8
3
  5
21E9
 10
122.267
 20
72.6203
 30
0.000000
  70
    32
  0
VERTEX
  8
3
  5
21EA
 10
122.251
 20
72.5611
 30
0.000000
  70
    32
  0
VERTEX
  8
3
  5
21EB
 10
122.235
 20
72.4993
 30
0.000000
  70
    32
  0
VERTEX
  8
3
  5
21EC
 10
122.219
 20
72.4349
 30
0.000000
  70
    32
  0
VERTEX
  8
3
  5
21ED
 10
122.204
 20
72.3680
 30
0.000000
  70
    32
  0
VERTEX
  8
3
  5
21EE
 10
122.188
 20
72.2986
 30
0.000000
  70
    32
  0
VERTEX
  8
3
  5
21EF
 10
122.174
 20
72.2267
 30
0.000000
  70
    32
  0
VERTEX
  8
3
  5
21F0
 10
122.159
 20
72.1524
 30
0.000000
  70
    32
  0
VERTEX
  8
3
  5
21F1
 10
122.144
 20
72.0757
 30
0.000000
  70
    32
  0
VERTEX
  8
3
  5
21F2
 10
122.130
 20
71.9967
 30
0.000000
  70
    32
  0
VERTEX
  8
3
  5
21F3
 10
122.117
 20
71.9154
 30
0.000000
  70
    32
  0
VERTEX
  8
3
  5
21F4
 10
122.103
 20
71.8319
 30
0.000000
  70
    32
  0
VERTEX
  8
3
  5
21F5
 10
122.090
 20
71.7462
 30
0.000000
  70
    32
  0
VERTEX
  8
3
  5
21F6
 10
122.077
 20
71.6584
 30
0.000000
  70
    32
  0
VERTEX
  8
3
  5
21F7
 10
122.065
 20
71.5685
 30
0.000000
  70
    32
  0
VERTEX
  8
3
  5
21F8
 10
122.052
 20
71.4765
 30
0.000000
  70
    32
  0
VERTEX
  8
3
  5
21F9
 10
122.041
 20
71.3826
 30
0.000000
  70
    32
  0
VERTEX
  8
3
  5
21FA
 10
122.029
 20
71.2868
 30
0.000000
  70
    32
  0
VERTEX
  8
3
  5
21FB
 10
122.018
 20
71.1892
 30
0.000000
  70
    32
  0
VERTEX
  8
3
  5
21FC
 10
122.007
 20
71.0897
 30
0.000000
  70
    32
  0
VERTEX
  8
3
  5
21FD
 10
121.997
 20
70.9885
 30
0.000000
  70
    32
  0
VERTEX
  8
3
  5
21FE
 10
121.987
 20
70.8856
 30
0.000000
  70
    32
  0
VERTEX
  8
3
  5
21FF
 10
121.977
 20
70.7812
 30
0.000000
  70
    32
  0
VERTEX
  8
3
  5
2200
 10
121.968
 20
70.6751
 30
0.000000
  70
    32
  0
VERTEX
  8
3
  5
2201
 10
121.959
 20
70.5676
 30
0.000000
  70
    32
  0
VERTEX
  8
3
  5
2202
 10
121.950
 20
70.4587
 30
0.000000
  70
    32
  0
VERTEX
  8
3
  5
2203
 10
121.942
 20
70.3484
 30
0.000000
  70
    32
  0
VERTEX
  8
3
  5
2204
 10
121.935
 20
70.2369
 30
0.000000
  70
    32
  0
VERTEX
  8
3
  5
2205
 10
121.927
 20
70.1241
 30
0.000000
  70
    32
  0
VERTEX
  8
3
  5
2206
 10
121.921
 20
70.0101
 30
0.000000
  70
    32
  0
VERTEX
  8
3
  5
2207
 10
121.914
 20
69.8951
 30
0.000000
  70
    32
  0
VERTEX
  8
3
  5
2208
 10
121.908
 20
69.7791
 30
0.000000
  70
    32
  0
VERTEX
  8
3
  5
2209
 10
121.903
 20
69.6621
 30
0.000000
  70
    32
  0
VERTEX
  8
3
  5
220A
 10
121.897
 20
69.5442
 30
0.000000
  70
    32
  0
VERTEX
  8
3
  5
220B
 10
121.893
 20
69.4256
 30
0.000000
  70
    32
  0
VERTEX
  8
3
  5
220C
 10
121.889
 20
69.3062
 30
0.000000
  70
    32
  0
VERTEX
  8
3
  5
220D
 10
121.885
 20
69.1861
 30
0.000000
  70
    32
  0
VERTEX
  8
3
  5
220E
 10
121.881
 20
69.0655
 30
0.000000
  70
    32
  0
VERTEX
  8
3
  5
220F
 10
121.878
 20
68.9443
 30
0.000000
  70
    32
  0
VERTEX
  8
3
  5
2210
 10
121.876
 20
68.8227
 30
0.000000
  70
    32
  0
VERTEX
  8
3
  5
2211
 10
121.874
 20
68.7007
 30
0.000000
  70
    32
  0
VERTEX
  8
3
  5
2212
 10
121.872
 20
68.5785
 30
0.000000
  70
    32
  0
VERTEX
  8
3
  5
2213
 10
121.871
 20
68.4560
 30
0.000000
  70
    32
  0
VERTEX
  8
3
  5
2214
 10
121.871
 20
68.3334
 30
0.000000
  70
    32
  0
VERTEX
  8
3
  5
2215
 10
121.870
 20
68.2107
 30
0.000000
  70
    32
  0
VERTEX
  8
3
  5
2216
 10
121.871
 20
68.0879
 30
0.000000
  70
    32
  0
VERTEX
  8
3
  5
2217
 10
121.871
 20
67.9653
 30
0.000000
  70
    32
  0
VERTEX
  8
3
  5
2218
 10
121.872
 20
67.8428
 30
0.000000
  70
    32
  0
VERTEX
  8
3
  5
2219
 10
121.874
 20
67.7206
 30
0.000000
  70
    32
  0
VERTEX
  8
3
  5
221A
 10
121.876
 20
67.5986
 30
0.000000
  70
    32
  0
VERTEX
  8
3
  5
221B
 10
121.878
 20
67.4770
 30
0.000000
  70
    32
  0
VERTEX
  8
3
  5
221C
 10
121.881
 20
67.3558
 30
0.000000
  70
    32
  0
VERTEX
  8
3
  5
221D
 10
121.885
 20
67.2352
 30
0.000000
  70
    32
  0
VERTEX
  8
3
  5
221E
 10
121.889
 20
67.1151
 30
0.000000
  70
    32
  0
VERTEX
  8
3
  5
221F
 10
121.893
 20
66.9958
 30
0.000000
  70
    32
  0
VERTEX
  8
3
  5
2220
 10
121.897
 20
66.8771
 30
0.000000
  70
    32
  0
VERTEX
  8
3
  5
2221
 10
121.903
 20
66.7592
 30
0.000000
  70
    32
  0
VERTEX
  8
3
  5
2222
 10
121.908
 20
66.6422
 30
0.000000
  70
    32
  0
VERTEX
  8
3
  5
2223
 10
121.914
 20
66.5262
 30
0.000000
  70
    32
  0
VERTEX
  8
3
  5
2224
 10
121.921
 20
66.4112
 30
0.000000
  70
    32
  0
VERTEX
  8
3
  5
2225
 10
121.927
 20
66.2972
 30
0.000000
  70
    32
  0
VERTEX
  8
3
  5
2226
 10
121.935
 20
66.1844
 30
0.000000
  70
    32
  0
VERTEX
  8
3
  5
2227
 10
121.942
 20
66.0729
 30
0.000000
  70
    32
  0
VERTEX
  8
3
  5
2228
 10
121.950
 20
65.9626
 30
0.000000
  70
    32
  0
VERTEX
  8
3
  5
2229
 10
121.959
 20
65.8537
 30
0.000000
  70
    32
  0
VERTEX
  8
3
  5
222A
 10
121.968
 20
65.7462
 30
0.000000
  70
    32
  0
VERTEX
  8
3
  5
222B
 10
121.977
 20
65.6401
 30
0.000000
  70
    32
  0
VERTEX
  8
3
  5
222C
 10
121.987
 20
65.5357
 30
0.000000
  70
    32
  0
VERTEX
  8
3
  5
222D
 10
121.997
 20
65.4328
 30
0.000000
  70
    32
  0
VERTEX
  8
3
  5
222E
 10
122.007
 20
65.3316
 30
0.000000
  70
    32
  0
VERTEX
  8
3
  5
222F
 10
122.018
 20
65.2322
 30
0.000000
  70
    32
  0
VERTEX
  8
3
  5
2230
 10
122.029
 20
65.1345
 30
0.000000
  70
    32
  0
VERTEX
  8
3
  5
2231
 10
122.041
 20
65.0387
 30
0.000000
  70
    32
  0
VERTEX
  8
3
  5
2232
 10
122.052
 20
64.9448
 30
0.000000
  70
    32
  0
VERTEX
  8
3
  5
2233
 10
122.065
 20
64.8529
 30
0.000000
  70
    32
  0
VERTEX
  8
3
  5
2234
 10
122.077
 20
64.7630
 30
0.000000
  70
    32
  0
VERTEX
  8
3
  5
2235
 10
122.090
 20
64.6751
 30
0.000000
  70
    32
  0
VERTEX
  8
3
  5
2236
 10
122.103
 20
64.5894
 30
0.000000
  70
    32
  0
VERTEX
  8
3
  5
2237
 10
122.117
 20
64.5059
 30
0.000000
  70
    32
  0
VERTEX
  8
3
  5
2238
 10
122.130
 20
64.4246
 30
0.000000
  70
    32
  0
VERTEX
  8
3
  5
2239
 10
122.144
 20
64.3456
 30
0.000000
  70
    32
  0
VERTEX
  8
3
  5
223A
 10
122.159
 20
64.2689
 30
0.000000
  70
    32
  0
VERTEX
  8
3
  5
223B
 10
122.174
 20
64.1946
 30
0.000000
  70
    32
  0
VERTEX
  8
3
  5
223C
 10
122.188
 20
64.1227
 30
0.000000
  70
    32
  0
VERTEX
  8
3
  5
223D
 10
122.204
 20
64.0533
 30
0.000000
  70
    32
  0
VERTEX
  8
3
  5
223E
 10
122.219
 20
63.9864
 30
0.000000
  70
    32
  0
VERTEX
  8
3
  5
223F
 10
122.235
 20
63.9220
 30
0.000000
  70
    32
  0
VERTEX
  8
3
  5
2240
 10
122.251
 20
63.8602
 30
0.000000
  70
    32
  0
VERTEX
  8
3
  5
2241
 10
122.267
 20
63.8010
 30
0.000000
  70
    32
  0
VERTEX
  8
3
  5
2242
 10
122.283
 20
63.7445
 30
0.000000
  70
    32
  0
VERTEX
  8
3
  5
2243
 10
122.300
 20
63.6907
 30
0.000000
  70
    32
  0
VERTEX
  8
3
  5
2244
 10
122.316
 20
63.6396
 30
0.000000
  70
    32
  0
VERTEX
  8
3
  5
2245
 10
122.333
 20
63.5913
 30
0.000000
  70
    32
  0
VERTEX
  8
3
  5
2246
 10
122.350
 20
63.5457
 30
0.000000
  70
    32
  0
VERTEX
  8
3
  5
2247
 10
122.368
 20
63.5029
 30
0.000000
  70
    32
  0
VERTEX
  8
3
  5
2248
 10
122.385
 20
63.4630
 30
0.000000
  70
    32
  0
VERTEX
  8
3
  5
2249
 10
122.403
 20
63.4260
 30
0.000000
  70
    32
  0
VERTEX
  8
3
  5
224A
 10
122.420
 20
63.3918
 30
0.000000
  70
    32
  0
VERTEX
  8
3
  5
224B
 10
122.438
 20
63.3605
 30
0.000000
  70
    32
  0
VERTEX
  8
3
  5
224C
 10
122.456
 20
63.3321
 30
0.000000
  70
    32
  0
VERTEX
  8
3
  5
224D
 10
122.474
 20
63.3067
 30
0.000000
  70
    32
  0
VERTEX
  8
3
  5
224E
 10
122.492
 20
63.2843
 30
0.000000
  70
    32
  0
VERTEX
  8
3
  5
224F
 10
122.510
 20
63.2648
 30
0.000000
  70
    32
  0
VERTEX
  8
3
  5
2250
 10
122.528
 20
63.2483
 30
0.000000
  70
    32
  0
VERTEX
  8
3
  5
2251
 10
122.547
 20
63.2347
 30
0.000000
  70
    32
  0
VERTEX
  8
3
  5
2252
 10
122.565
 20
63.2242
 30
0.000000
  70
    32
  0
VERTEX
  8
3
  5
2253
 10
122.583
 20
63.2167
 30
0.000000
  70
    32
  0
VERTEX
  8
3
  5
2254
 10
122.602
 20
63.2122
 30
0.000000
  70
    32
  0
VERTEX
  8
3
  5
2255
 10
122.620
 20
63.2107
 30
0.000000
  70
    32
  0
SEQEND
  8
3
  5
2256
  0
LINE
  5
843
  8
3
 10
119.83742595526491
 20
59.662490558090781
 30
0.0
 11
116.4832759552649
 21
77.462490558090821
 31
0.0
  0
LINE
  5
844
  8
3
 10
119.8702859112753
 20
61.410655289633091
 30
0.0
 11
119.8702859112753
 21
81.210655289633081
 31
0.0
  0
POLYLINE
  5
845
  8
3
 10
129.12028591127529
 20
63.210655289633081
 30
0.0
 66
     1
 70
     8
  0
VERTEX
  8
3
  5
2257
 10
129.120
 20
63.2107
 30
0.000000
  70
    32
  0
VERTEX
  8
3
  5
2258
 10
129.139
 20
63.2122
 30
0.000000
  70
    32
  0
VERTEX
  8
3
  5
2259
 10
129.157
 20
63.2167
 30
0.000000
  70
    32
  0
VERTEX
  8
3
  5
225A
 10
129.175
 20
63.2242
 30
0.000000
  70
    32
  0
VERTEX
  8
3
  5
225B
 10
129.194
 20
63.2347
 30
0.000000
  70
    32
  0
VERTEX
  8
3
  5
225C
 10
129.212
 20
63.2483
 30
0.000000
  70
    32
  0
VERTEX
  8
3
  5
225D
 10
129.230
 20
63.2648
 30
0.000000
  70
    32
  0
VERTEX
  8
3
  5
225E
 10
129.249
 20
63.2843
 30
0.000000
  70
    32
  0
VERTEX
  8
3
  5
225F
 10
129.267
 20
63.3067
 30
0.000000
  70
    32
  0
VERTEX
  8
3
  5
2260
 10
129.285
 20
63.3321
 30
0.000000
  70
    32
  0
VERTEX
  8
3
  5
2261
 10
129.303
 20
63.3605
 30
0.000000
  70
    32
  0
VERTEX
  8
3
  5
2262
 10
129.320
 20
63.3918
 30
0.000000
  70
    32
  0
VERTEX
  8
3
  5
2263
 10
129.338
 20
63.4260
 30
0.000000
  70
    32
  0
VERTEX
  8
3
  5
2264
 10
129.356
 20
63.4630
 30
0.000000
  70
    32
  0
VERTEX
  8
3
  5
2265
 10
129.373
 20
63.5029
 30
0.000000
  70
    32
  0
VERTEX
  8
3
  5
2266
 10
129.390
 20
63.5457
 30
0.000000
  70
    32
  0
VERTEX
  8
3
  5
2267
 10
129.407
 20
63.5913
 30
0.000000
  70
    32
  0
VERTEX
  8
3
  5
2268
 10
129.424
 20
63.6396
 30
0.000000
  70
    32
  0
VERTEX
  8
3
  5
2269
 10
129.441
 20
63.6907
 30
0.000000
  70
    32
  0
VERTEX
  8
3
  5
226A
 10
129.457
 20
63.7445
 30
0.000000
  70
    32
  0
VERTEX
  8
3
  5
226B
 10
129.474
 20
63.8010
 30
0.000000
  70
    32
  0
VERTEX
  8
3
  5
226C
 10
129.490
 20
63.8602
 30
0.000000
  70
    32
  0
VERTEX
  8
3
  5
226D
 10
129.506
 20
63.9220
 30
0.000000
  70
    32
  0
VERTEX
  8
3
  5
226E
 10
129.522
 20
63.9864
 30
0.000000
  70
    32
  0
VERTEX
  8
3
  5
226F
 10
129.537
 20
64.0533
 30
0.000000
  70
    32
  0
VERTEX
  8
3
  5
2270
 10
129.552
 20
64.1227
 30
0.000000
  70
    32
  0
VERTEX
  8
3
  5
2271
 10
129.567
 20
64.1946
 30
0.000000
  70
    32
  0
VERTEX
  8
3
  5
2272
 10
129.582
 20
64.2689
 30
0.000000
  70
    32
  0
VERTEX
  8
3
  5
2273
 10
129.596
 20
64.3456
 30
0.000000
  70
    32
  0
VERTEX
  8
3
  5
2274
 10
129.610
 20
64.4246
 30
0.000000
  70
    32
  0
VERTEX
  8
3
  5
2275
 10
129.624
 20
64.5059
 30
0.000000
  70
    32
  0
VERTEX
  8
3
  5
2276
 10
129.637
 20
64.5894
 30
0.000000
  70
    32
  0
VERTEX
  8
3
  5
2277
 10
129.651
 20
64.6751
 30
0.000000
  70
    32
  0
VERTEX
  8
3
  5
2278
 10
129.663
 20
64.7630
 30
0.000000
  70
    32
  0
VERTEX
  8
3
  5
2279
 10
129.676
 20
64.8529
 30
0.000000
  70
    32
  0
VERTEX
  8
3
  5
227A
 10
129.688
 20
64.9448
 30
0.000000
  70
    32
  0
VERTEX
  8
3
  5
227B
 10
129.700
 20
65.0387
 30
0.000000
  70
    32
  0
VERTEX
  8
3
  5
227C
 10
129.712
 20
65.1345
 30
0.000000
  70
    32
  0
VERTEX
  8
3
  5
227D
 10
129.723
 20
65.2322
 30
0.000000
  70
    32
  0
VERTEX
  8
3
  5
227E
 10
129.733
 20
65.3316
 30
0.000000
  70
    32
  0
VERTEX
  8
3
  5
227F
 10
129.744
 20
65.4328
 30
0.000000
  70
    32
  0
VERTEX
  8
3
  5
2280
 10
129.754
 20
65.5357
 30
0.000000
  70
    32
  0
VERTEX
  8
3
  5
2281
 10
129.764
 20
65.6401
 30
0.000000
  70
    32
  0
VERTEX
  8
3
  5
2282
 10
129.773
 20
65.7462
 30
0.000000
  70
    32
  0
VERTEX
  8
3
  5
2283
 10
129.782
 20
65.8537
 30
0.000000
  70
    32
  0
VERTEX
  8
3
  5
2284
 10
129.790
 20
65.9626
 30
0.000000
  70
    32
  0
VERTEX
  8
3
  5
2285
 10
129.798
 20
66.0729
 30
0.000000
  70
    32
  0
VERTEX
  8
3
  5
2286
 10
129.806
 20
66.1844
 30
0.000000
  70
    32
  0
VERTEX
  8
3
  5
2287
 10
129.813
 20
66.2972
 30
0.000000
  70
    32
  0
VERTEX
  8
3
  5
2288
 10
129.820
 20
66.4112
 30
0.000000
  70
    32
  0
VERTEX
  8
3
  5
2289
 10
129.826
 20
66.5262
 30
0.000000
  70
    32
  0
VERTEX
  8
3
  5
228A
 10
129.832
 20
66.6422
 30
0.000000
  70
    32
  0
VERTEX
  8
3
  5
228B
 10
129.838
 20
66.7592
 30
0.000000
  70
    32
  0
VERTEX
  8
3
  5
228C
 10
129.843
 20
66.8771
 30
0.000000
  70
    32
  0
VERTEX
  8
3
  5
228D
 10
129.848
 20
66.9958
 30
0.000000
  70
    32
  0
VERTEX
  8
3
  5
228E
 10
129.852
 20
67.1151
 30
0.000000
  70
    32
  0
VERTEX
  8
3
  5
228F
 10
129.856
 20
67.2352
 30
0.000000
  70
    32
  0
VERTEX
  8
3
  5
2290
 10
129.859
 20
67.3558
 30
0.000000
  70
    32
  0
VERTEX
  8
3
  5
2291
 10
129.862
 20
67.4770
 30
0.000000
  70
    32
  0
VERTEX
  8
3
  5
2292
 10
129.865
 20
67.5986
 30
0.000000
  70
    32
  0
VERTEX
  8
3
  5
2293
 10
129.867
 20
67.7206
 30
0.000000
  70
    32
  0
VERTEX
  8
3
  5
2294
 10
129.868
 20
67.8428
 30
0.000000
  70
    32
  0
VERTEX
  8
3
  5
2295
 10
129.869
 20
67.9653
 30
0.000000
  70
    32
  0
VERTEX
  8
3
  5
2296
 10
129.870
 20
68.0879
 30
0.000000
  70
    32
  0
VERTEX
  8
3
  5
2297
 10
129.870
 20
68.2107
 30
0.000000
  70
    32
  0
VERTEX
  8
3
  5
2298
 10
129.870
 20
68.3334
 30
0.000000
  70
    32
  0
VERTEX
  8
3
  5
2299
 10
129.869
 20
68.4560
 30
0.000000
  70
    32
  0
VERTEX
  8
3
  5
229A
 10
129.868
 20
68.5785
 30
0.000000
  70
    32
  0
VERTEX
  8
3
  5
229B
 10
129.867
 20
68.7007
 30
0.000000
  70
    32
  0
VERTEX
  8
3
  5
229C
 10
129.865
 20
68.8227
 30
0.000000
  70
    32
  0
VERTEX
  8
3
  5
229D
 10
129.862
 20
68.9443
 30
0.000000
  70
    32
  0
VERTEX
  8
3
  5
229E
 10
129.859
 20
69.0655
 30
0.000000
  70
    32
  0
VERTEX
  8
3
  5
229F
 10
129.856
 20
69.1861
 30
0.000000
  70
    32
  0
VERTEX
  8
3
  5
22A0
 10
129.852
 20
69.3062
 30
0.000000
  70
    32
  0
VERTEX
  8
3
  5
22A1
 10
129.848
 20
69.4256
 30
0.000000
  70
    32
  0
VERTEX
  8
3
  5
22A2
 10
129.843
 20
69.5442
 30
0.000000
  70
    32
  0
VERTEX
  8
3
  5
22A3
 10
129.838
 20
69.6621
 30
0.000000
  70
    32
  0
VERTEX
  8
3
  5
22A4
 10
129.832
 20
69.7791
 30
0.000000
  70
    32
  0
VERTEX
  8
3
  5
22A5
 10
129.826
 20
69.8951
 30
0.000000
  70
    32
  0
VERTEX
  8
3
  5
22A6
 10
129.820
 20
70.0101
 30
0.000000
  70
    32
  0
VERTEX
  8
3
  5
22A7
 10
129.813
 20
70.1241
 30
0.000000
  70
    32
  0
VERTEX
  8
3
  5
22A8
 10
129.806
 20
70.2369
 30
0.000000
  70
    32
  0
VERTEX
  8
3
  5
22A9
 10
129.798
 20
70.3484
 30
0.000000
  70
    32
  0
VERTEX
  8
3
  5
22AA
 10
129.790
 20
70.4587
 30
0.000000
  70
    32
  0
VERTEX
  8
3
  5
22AB
 10
129.782
 20
70.5676
 30
0.000000
  70
    32
  0
VERTEX
  8
3
  5
22AC
 10
129.773
 20
70.6751
 30
0.000000
  70
    32
  0
VERTEX
  8
3
  5
22AD
 10
129.764
 20
70.7812
 30
0.000000
  70
    32
  0
VERTEX
  8
3
  5
22AE
 10
129.754
 20
70.8856
 30
0.000000
  70
    32
  0
VERTEX
  8
3
  5
22AF
 10
129.744
 20
70.9885
 30
0.000000
  70
    32
  0
VERTEX
  8
3
  5
22B0
 10
129.733
 20
71.0897
 30
0.000000
  70
    32
  0
VERTEX
  8
3
  5
22B1
 10
129.723
 20
71.1892
 30
0.000000
  70
    32
  0
VERTEX
  8
3
  5
22B2
 10
129.712
 20
71.2868
 30
0.000000
  70
    32
  0
VERTEX
  8
3
  5
22B3
 10
129.700
 20
71.3826
 30
0.000000
  70
    32
  0
VERTEX
  8
3
  5
22B4
 10
129.688
 20
71.4765
 30
0.000000
  70
    32
  0
VERTEX
  8
3
  5
22B5
 10
129.676
 20
71.5685
 30
0.000000
  70
    32
  0
VERTEX
  8
3
  5
22B6
 10
129.663
 20
71.6584
 30
0.000000
  70
    32
  0
VERTEX
  8
3
  5
22B7
 10
129.651
 20
71.7462
 30
0.000000
  70
    32
  0
VERTEX
  8
3
  5
22B8
 10
129.637
 20
71.8319
 30
0.000000
  70
    32
  0
VERTEX
  8
3
  5
22B9
 10
129.624
 20
71.9154
 30
0.000000
  70
    32
  0
VERTEX
  8
3
  5
22BA
 10
129.610
 20
71.9967
 30
0.000000
  70
    32
  0
VERTEX
  8
3
  5
22BB
 10
129.596
 20
72.0757
 30
0.000000
  70
    32
  0
VERTEX
  8
3
  5
22BC
 10
129.582
 20
72.1524
 30
0.000000
  70
    32
  0
VERTEX
  8
3
  5
22BD
 10
129.567
 20
72.2267
 30
0.000000
  70
    32
  0
VERTEX
  8
3
  5
22BE
 10
129.552
 20
72.2986
 30
0.000000
  70
    32
  0
VERTEX
  8
3
  5
22BF
 10
129.537
 20
72.3680
 30
0.000000
  70
    32
  0
VERTEX
  8
3
  5
22C0
 10
129.522
 20
72.4349
 30
0.000000
  70
    32
  0
VERTEX
  8
3
  5
22C1
 10
129.506
 20
72.4993
 30
0.000000
  70
    32
  0
VERTEX
  8
3
  5
22C2
 10
129.490
 20
72.5611
 30
0.000000
  70
    32
  0
VERTEX
  8
3
  5
22C3
 10
129.474
 20
72.6203
 30
0.000000
  70
    32
  0
VERTEX
  8
3
  5
22C4
 10
129.457
 20
72.6768
 30
0.000000
  70
    32
  0
VERTEX
  8
3
  5
22C5
 10
129.441
 20
72.7306
 30
0.000000
  70
    32
  0
VERTEX
  8
3
  5
22C6
 10
129.424
 20
72.7817
 30
0.000000
  70
    32
  0
VERTEX
  8
3
  5
22C7
 10
129.407
 20
72.8301
 30
0.000000
  70
    32
  0
VERTEX
  8
3
  5
22C8
 10
129.390
 20
72.8756
 30
0.000000
  70
    32
  0
VERTEX
  8
3
  5
22C9
 10
129.373
 20
72.9184
 30
0.000000
  70
    32
  0
VERTEX
  8
3
  5
22CA
 10
129.356
 20
72.9583
 30
0.000000
  70
    32
  0
VERTEX
  8
3
  5
22CB
 10
129.338
 20
72.9954
 30
0.000000
  70
    32
  0
VERTEX
  8
3
  5
22CC
 10
129.320
 20
73.0295
 30
0.000000
  70
    32
  0
VERTEX
  8
3
  5
22CD
 10
129.303
 20
73.0608
 30
0.000000
  70
    32
  0
VERTEX
  8
3
  5
22CE
 10
129.285
 20
73.0892
 30
0.000000
  70
    32
  0
VERTEX
  8
3
  5
22CF
 10
129.267
 20
73.1146
 30
0.000000
  70
    32
  0
VERTEX
  8
3
  5
22D0
 10
129.249
 20
73.1370
 30
0.000000
  70
    32
  0
VERTEX
  8
3
  5
22D1
 10
129.230
 20
73.1565
 30
0.000000
  70
    32
  0
VERTEX
  8
3
  5
22D2
 10
129.212
 20
73.1731
 30
0.000000
  70
    32
  0
VERTEX
  8
3
  5
22D3
 10
129.194
 20
73.1866
 30
0.000000
  70
    32
  0
VERTEX
  8
3
  5
22D4
 10
129.175
 20
73.1971
 30
0.000000
  70
    32
  0
VERTEX
  8
3
  5
22D5
 10
129.157
 20
73.2046
 30
0.000000
  70
    32
  0
VERTEX
  8
3
  5
22D6
 10
129.139
 20
73.2091
 30
0.000000
  70
    32
  0
VERTEX
  8
3
  5
22D7
 10
129.120
 20
73.2107
 30
0.000000
  70
    32
  0
SEQEND
  8
3
  5
22D8
  0
LINE
  5
846
  8
3
 10
122.6202859112756
 20
58.710655289633053
 30
0.0
 11
129.12028591127549
 21
58.710655289633053
 31
0.0
  0
LINE
  5
847
  8
3
 10
122.6202859112752
 20
63.210655289633053
 30
0.0
 11
129.12028591127529
 21
63.210655289633053
 31
0.0
  0
ARC
  5
848
  8
3
 10
117.9702859112754
 20
59.310655289633083
 30
0.0
 40
1.8999999999999999
 50
190.6714204009084
 51
10.67142040090839
  0
LINE
  5
849
  8
3
 10
119.8702859112753
 20
61.410655289633091
 30
0.0
 11
119.5080098465962
 21
61.410655289633091
 31
0.0
  0
LINE
  5
84A
  8
3
 10
119.16882613873101
 20
63.210655289633053
 30
0.0
 11
119.8702859112753
 21
63.210655289633053
 31
0.0
  0
POLYLINE
  5
84B
  8
3
 10
122.6202859112753
 20
63.210655289633053
 30
0.0
 66
     1
 70
     8
  0
VERTEX
  8
3
  5
22D9
 10
122.620
 20
63.2107
 30
0.000000
  70
    32
  0
VERTEX
  8
3
  5
22DA
 10
122.602
 20
63.2100
 30
0.000000
  70
    32
  0
VERTEX
  8
3
  5
22DB
 10
122.583
 20
63.2079
 30
0.000000
  70
    32
  0
VERTEX
  8
3
  5
22DC
 10
122.565
 20
63.2046
 30
0.000000
  70
    32
  0
VERTEX
  8
3
  5
22DD
 10
122.547
 20
63.1998
 30
0.000000
  70
    32
  0
VERTEX
  8
3
  5
22DE
 10
122.528
 20
63.1937
 30
0.000000
  70
    32
  0
VERTEX
  8
3
  5
22DF
 10
122.510
 20
63.1863
 30
0.000000
  70
    32
  0
VERTEX
  8
3
  5
22E0
 10
122.492
 20
63.1775
 30
0.000000
  70
    32
  0
VERTEX
  8
3
  5
22E1
 10
122.474
 20
63.1674
 30
0.000000
  70
    32
  0
VERTEX
  8
3
  5
22E2
 10
122.456
 20
63.1560
 30
0.000000
  70
    32
  0
VERTEX
  8
3
  5
22E3
 10
122.438
 20
63.1432
 30
0.000000
  70
    32
  0
VERTEX
  8
3
  5
22E4
 10
122.420
 20
63.1292
 30
0.000000
  70
    32
  0
VERTEX
  8
3
  5
22E5
 10
122.403
 20
63.1138
 30
0.000000
  70
    32
  0
VERTEX
  8
3
  5
22E6
 10
122.385
 20
63.0971
 30
0.000000
  70
    32
  0
VERTEX
  8
3
  5
22E7
 10
122.368
 20
63.0791
 30
0.000000
  70
    32
  0
VERTEX
  8
3
  5
22E8
 10
122.350
 20
63.0599
 30
0.000000
  70
    32
  0
VERTEX
  8
3
  5
22E9
 10
122.333
 20
63.0394
 30
0.000000
  70
    32
  0
VERTEX
  8
3
  5
22EA
 10
122.316
 20
63.0176
 30
0.000000
  70
    32
  0
VERTEX
  8
3
  5
22EB
 10
122.300
 20
62.9946
 30
0.000000
  70
    32
  0
VERTEX
  8
3
  5
22EC
 10
122.283
 20
62.9704
 30
0.000000
  70
    32
  0
VERTEX
  8
3
  5
22ED
 10
122.267
 20
62.9450
 30
0.000000
  70
    32
  0
VERTEX
  8
3
  5
22EE
 10
122.251
 20
62.9184
 30
0.000000
  70
    32
  0
VERTEX
  8
3
  5
22EF
 10
122.235
 20
62.8905
 30
0.000000
  70
    32
  0
VERTEX
  8
3
  5
22F0
 10
122.219
 20
62.8616
 30
0.000000
  70
    32
  0
VERTEX
  8
3
  5
22F1
 10
122.204
 20
62.8315
 30
0.000000
  70
    32
  0
VERTEX
  8
3
  5
22F2
 10
122.188
 20
62.8002
 30
0.000000
  70
    32
  0
VERTEX
  8
3
  5
22F3
 10
122.174
 20
62.7679
 30
0.000000
  70
    32
  0
VERTEX
  8
3
  5
22F4
 10
122.159
 20
62.7344
 30
0.000000
  70
    32
  0
VERTEX
  8
3
  5
22F5
 10
122.144
 20
62.6999
 30
0.000000
  70
    32
  0
VERTEX
  8
3
  5
22F6
 10
122.130
 20
62.6644
 30
0.000000
  70
    32
  0
VERTEX
  8
3
  5
22F7
 10
122.117
 20
62.6278
 30
0.000000
  70
    32
  0
VERTEX
  8
3
  5
22F8
 10
122.103
 20
62.5902
 30
0.000000
  70
    32
  0
VERTEX
  8
3
  5
22F9
 10
122.090
 20
62.5516
 30
0.000000
  70
    32
  0
VERTEX
  8
3
  5
22FA
 10
122.077
 20
62.5121
 30
0.000000
  70
    32
  0
VERTEX
  8
3
  5
22FB
 10
122.065
 20
62.4717
 30
0.000000
  70
    32
  0
VERTEX
  8
3
  5
22FC
 10
122.052
 20
62.4303
 30
0.000000
  70
    32
  0
VERTEX
  8
3
  5
22FD
 10
122.041
 20
62.3880
 30
0.000000
  70
    32
  0
VERTEX
  8
3
  5
22FE
 10
122.029
 20
62.3449
 30
0.000000
  70
    32
  0
VERTEX
  8
3
  5
22FF
 10
122.018
 20
62.3010
 30
0.000000
  70
    32
  0
VERTEX
  8
3
  5
2300
 10
122.007
 20
62.2562
 30
0.000000
  70
    32
  0
VERTEX
  8
3
  5
2301
 10
121.997
 20
62.2107
 30
0.000000
  70
    32
  0
VERTEX
  8
3
  5
2302
 10
121.987
 20
62.1644
 30
0.000000
  70
    32
  0
VERTEX
  8
3
  5
2303
 10
121.977
 20
62.1174
 30
0.000000
  70
    32
  0
VERTEX
  8
3
  5
2304
 10
121.968
 20
62.0697
 30
0.000000
  70
    32
  0
VERTEX
  8
3
  5
2305
 10
121.959
 20
62.0213
 30
0.000000
  70
    32
  0
VERTEX
  8
3
  5
2306
 10
121.950
 20
61.9723
 30
0.000000
  70
    32
  0
VERTEX
  8
3
  5
2307
 10
121.942
 20
61.9227
 30
0.000000
  70
    32
  0
VERTEX
  8
3
  5
2308
 10
121.935
 20
61.8724
 30
0.000000
  70
    32
  0
VERTEX
  8
3
  5
2309
 10
121.927
 20
61.8217
 30
0.000000
  70
    32
  0
VERTEX
  8
3
  5
230A
 10
121.921
 20
61.7704
 30
0.000000
  70
    32
  0
VERTEX
  8
3
  5
230B
 10
121.914
 20
61.7187
 30
0.000000
  70
    32
  0
VERTEX
  8
3
  5
230C
 10
121.908
 20
61.6664
 30
0.000000
  70
    32
  0
VERTEX
  8
3
  5
230D
 10
121.903
 20
61.6138
 30
0.000000
  70
    32
  0
VERTEX
  8
3
  5
230E
 10
121.897
 20
61.5608
 30
0.000000
  70
    32
  0
VERTEX
  8
3
  5
230F
 10
121.893
 20
61.5074
 30
0.000000
  70
    32
  0
VERTEX
  8
3
  5
2310
 10
121.889
 20
61.4536
 30
0.000000
  70
    32
  0
VERTEX
  8
3
  5
2311
 10
121.885
 20
61.3996
 30
0.000000
  70
    32
  0
VERTEX
  8
3
  5
2312
 10
121.881
 20
61.3453
 30
0.000000
  70
    32
  0
VERTEX
  8
3
  5
2313
 10
121.878
 20
61.2908
 30
0.000000
  70
    32
  0
VERTEX
  8
3
  5
2314
 10
121.876
 20
61.2361
 30
0.000000
  70
    32
  0
VERTEX
  8
3
  5
2315
 10
121.874
 20
61.1812
 30
0.000000
  70
    32
  0
VERTEX
  8
3
  5
2316
 10
121.872
 20
61.1262
 30
0.000000
  70
    32
  0
VERTEX
  8
3
  5
2317
 10
121.871
 20
61.0711
 30
0.000000
  70
    32
  0
VERTEX
  8
3
  5
2318
 10
121.871
 20
61.0159
 30
0.000000
  70
    32
  0
VERTEX
  8
3
  5
2319
 10
121.870
 20
60.9607
 30
0.000000
  70
    32
  0
VERTEX
  8
3
  5
231A
 10
121.871
 20
60.9054
 30
0.000000
  70
    32
  0
VERTEX
  8
3
  5
231B
 10
121.871
 20
60.8503
 30
0.000000
  70
    32
  0
VERTEX
  8
3
  5
231C
 10
121.872
 20
60.7951
 30
0.000000
  70
    32
  0
VERTEX
  8
3
  5
231D
 10
121.874
 20
60.7401
 30
0.000000
  70
    32
  0
VERTEX
  8
3
  5
231E
 10
121.876
 20
60.6852
 30
0.000000
  70
    32
  0
VERTEX
  8
3
  5
231F
 10
121.878
 20
60.6305
 30
0.000000
  70
    32
  0
VERTEX
  8
3
  5
2320
 10
121.881
 20
60.5760
 30
0.000000
  70
    32
  0
VERTEX
  8
3
  5
2321
 10
121.885
 20
60.5217
 30
0.000000
  70
    32
  0
VERTEX
  8
3
  5
2322
 10
121.889
 20
60.4677
 30
0.000000
  70
    32
  0
VERTEX
  8
3
  5
2323
 10
121.893
 20
60.4139
 30
0.000000
  70
    32
  0
VERTEX
  8
3
  5
2324
 10
121.897
 20
60.3606
 30
0.000000
  70
    32
  0
VERTEX
  8
3
  5
2325
 10
121.903
 20
60.3075
 30
0.000000
  70
    32
  0
VERTEX
  8
3
  5
2326
 10
121.908
 20
60.2549
 30
0.000000
  70
    32
  0
VERTEX
  8
3
  5
2327
 10
121.914
 20
60.2027
 30
0.000000
  70
    32
  0
VERTEX
  8
3
  5
2328
 10
121.921
 20
60.1509
 30
0.000000
  70
    32
  0
VERTEX
  8
3
  5
2329
 10
121.927
 20
60.0996
 30
0.000000
  70
    32
  0
VERTEX
  8
3
  5
232A
 10
121.935
 20
60.0489
 30
0.000000
  70
    32
  0
VERTEX
  8
3
  5
232B
 10
121.942
 20
59.9987
 30
0.000000
  70
    32
  0
VERTEX
  8
3
  5
232C
 10
121.950
 20
59.9490
 30
0.000000
  70
    32
  0
VERTEX
  8
3
  5
232D
 10
121.959
 20
59.9000
 30
0.000000
  70
    32
  0
VERTEX
  8
3
  5
232E
 10
121.968
 20
59.8516
 30
0.000000
  70
    32
  0
VERTEX
  8
3
  5
232F
 10
121.977
 20
59.8039
 30
0.000000
  70
    32
  0
VERTEX
  8
3
  5
2330
 10
121.987
 20
59.7569
 30
0.000000
  70
    32
  0
VERTEX
  8
3
  5
2331
 10
121.997
 20
59.7106
 30
0.000000
  70
    32
  0
VERTEX
  8
3
  5
2332
 10
122.007
 20
59.6651
 30
0.000000
  70
    32
  0
VERTEX
  8
3
  5
2333
 10
122.018
 20
59.6203
 30
0.000000
  70
    32
  0
VERTEX
  8
3
  5
2334
 10
122.029
 20
59.5764
 30
0.000000
  70
    32
  0
VERTEX
  8
3
  5
2335
 10
122.041
 20
59.5333
 30
0.000000
  70
    32
  0
VERTEX
  8
3
  5
2336
 10
122.052
 20
59.4910
 30
0.000000
  70
    32
  0
VERTEX
  8
3
  5
2337
 10
122.065
 20
59.4496
 30
0.000000
  70
    32
  0
VERTEX
  8
3
  5
2338
 10
122.077
 20
59.4092
 30
0.000000
  70
    32
  0
VERTEX
  8
3
  5
2339
 10
122.090
 20
59.3697
 30
0.000000
  70
    32
  0
VERTEX
  8
3
  5
233A
 10
122.103
 20
59.3311
 30
0.000000
  70
    32
  0
VERTEX
  8
3
  5
233B
 10
122.117
 20
59.2935
 30
0.000000
  70
    32
  0
VERTEX
  8
3
  5
233C
 10
122.130
 20
59.2569
 30
0.000000
  70
    32
  0
VERTEX
  8
3
  5
233D
 10
122.144
 20
59.2214
 30
0.000000
  70
    32
  0
VERTEX
  8
3
  5
233E
 10
122.159
 20
59.1869
 30
0.000000
  70
    32
  0
VERTEX
  8
3
  5
233F
 10
122.174
 20
59.1534
 30
0.000000
  70
    32
  0
VERTEX
  8
3
  5
2340
 10
122.188
 20
59.1211
 30
0.000000
  70
    32
  0
VERTEX
  8
3
  5
2341
 10
122.204
 20
59.0898
 30
0.000000
  70
    32
  0
VERTEX
  8
3
  5
2342
 10
122.219
 20
59.0597
 30
0.000000
  70
    32
  0
VERTEX
  8
3
  5
2343
 10
122.235
 20
59.0308
 30
0.000000
  70
    32
  0
VERTEX
  8
3
  5
2344
 10
122.251
 20
59.0030
 30
0.000000
  70
    32
  0
VERTEX
  8
3
  5
2345
 10
122.267
 20
58.9763
 30
0.000000
  70
    32
  0
VERTEX
  8
3
  5
2346
 10
122.283
 20
58.9509
 30
0.000000
  70
    32
  0
VERTEX
  8
3
  5
2347
 10
122.300
 20
58.9267
 30
0.000000
  70
    32
  0
VERTEX
  8
3
  5
2348
 10
122.316
 20
58.9037
 30
0.000000
  70
    32
  0
VERTEX
  8
3
  5
2349
 10
122.333
 20
58.8819
 30
0.000000
  70
    32
  0
VERTEX
  8
3
  5
234A
 10
122.350
 20
58.8614
 30
0.000000
  70
    32
  0
VERTEX
  8
3
  5
234B
 10
122.368
 20
58.8422
 30
0.000000
  70
    32
  0
VERTEX
  8
3
  5
234C
 10
122.385
 20
58.8242
 30
0.000000
  70
    32
  0
VERTEX
  8
3
  5
234D
 10
122.403
 20
58.8075
 30
0.000000
  70
    32
  0
VERTEX
  8
3
  5
234E
 10
122.420
 20
58.7922
 30
0.000000
  70
    32
  0
VERTEX
  8
3
  5
234F
 10
122.438
 20
58.7781
 30
0.000000
  70
    32
  0
VERTEX
  8
3
  5
2350
 10
122.456
 20
58.7653
 30
0.000000
  70
    32
  0
VERTEX
  8
3
  5
2351
 10
122.474
 20
58.7539
 30
0.000000
  70
    32
  0
VERTEX
  8
3
  5
2352
 10
122.492
 20
58.7438
 30
0.000000
  70
    32
  0
VERTEX
  8
3
  5
2353
 10
122.510
 20
58.7350
 30
0.000000
  70
    32
  0
VERTEX
  8
3
  5
2354
 10
122.528
 20
58.7276
 30
0.000000
  70
    32
  0
VERTEX
  8
3
  5
2355
 10
122.547
 20
58.7215
 30
0.000000
  70
    32
  0
VERTEX
  8
3
  5
2356
 10
122.565
 20
58.7168
 30
0.000000
  70
    32
  0
VERTEX
  8
3
  5
2357
 10
122.583
 20
58.7134
 30
0.000000
  70
    32
  0
VERTEX
  8
3
  5
2358
 10
122.602
 20
58.7113
 30
0.000000
  70
    32
  0
VERTEX
  8
3
  5
2359
 10
122.620
 20
58.7107
 30
0.000000
  70
    32
  0
SEQEND
  8
3
  5
235A
  0
POLYLINE
  5
84C
  8
3
 10
129.12028591127529
 20
58.710655289633053
 30
0.0
 66
     1
 70
     8
  0
VERTEX
  8
3
  5
235B
 10
129.120
 20
58.7107
 30
0.000000
  70
    32
  0
VERTEX
  8
3
  5
235C
 10
129.139
 20
58.7113
 30
0.000000
  70
    32
  0
VERTEX
  8
3
  5
235D
 10
129.157
 20
58.7134
 30
0.000000
  70
    32
  0
VERTEX
  8
3
  5
235E
 10
129.175
 20
58.7168
 30
0.000000
  70
    32
  0
VERTEX
  8
3
  5
235F
 10
129.194
 20
58.7215
 30
0.000000
  70
    32
  0
VERTEX
  8
3
  5
2360
 10
129.212
 20
58.7276
 30
0.000000
  70
    32
  0
VERTEX
  8
3
  5
2361
 10
129.230
 20
58.7350
 30
0.000000
  70
    32
  0
VERTEX
  8
3
  5
2362
 10
129.249
 20
58.7438
 30
0.000000
  70
    32
  0
VERTEX
  8
3
  5
2363
 10
129.267
 20
58.7539
 30
0.000000
  70
    32
  0
VERTEX
  8
3
  5
2364
 10
129.285
 20
58.7653
 30
0.000000
  70
    32
  0
VERTEX
  8
3
  5
2365
 10
129.303
 20
58.7781
 30
0.000000
  70
    32
  0
VERTEX
  8
3
  5
2366
 10
129.320
 20
58.7922
 30
0.000000
  70
    32
  0
VERTEX
  8
3
  5
2367
 10
129.338
 20
58.8075
 30
0.000000
  70
    32
  0
VERTEX
  8
3
  5
2368
 10
129.356
 20
58.8242
 30
0.000000
  70
    32
  0
VERTEX
  8
3
  5
2369
 10
129.373
 20
58.8422
 30
0.000000
  70
    32
  0
VERTEX
  8
3
  5
236A
 10
129.390
 20
58.8614
 30
0.000000
  70
    32
  0
VERTEX
  8
3
  5
236B
 10
129.407
 20
58.8819
 30
0.000000
  70
    32
  0
VERTEX
  8
3
  5
236C
 10
129.424
 20
58.9037
 30
0.000000
  70
    32
  0
VERTEX
  8
3
  5
236D
 10
129.441
 20
58.9267
 30
0.000000
  70
    32
  0
VERTEX
  8
3
  5
236E
 10
129.457
 20
58.9509
 30
0.000000
  70
    32
  0
VERTEX
  8
3
  5
236F
 10
129.474
 20
58.9763
 30
0.000000
  70
    32
  0
VERTEX
  8
3
  5
2370
 10
129.490
 20
59.0030
 30
0.000000
  70
    32
  0
VERTEX
  8
3
  5
2371
 10
129.506
 20
59.0308
 30
0.000000
  70
    32
  0
VERTEX
  8
3
  5
2372
 10
129.522
 20
59.0597
 30
0.000000
  70
    32
  0
VERTEX
  8
3
  5
2373
 10
129.537
 20
59.0898
 30
0.000000
  70
    32
  0
VERTEX
  8
3
  5
2374
 10
129.552
 20
59.1211
 30
0.000000
  70
    32
  0
VERTEX
  8
3
  5
2375
 10
129.567
 20
59.1534
 30
0.000000
  70
    32
  0
VERTEX
  8
3
  5
2376
 10
129.582
 20
59.1869
 30
0.000000
  70
    32
  0
VERTEX
  8
3
  5
2377
 10
129.596
 20
59.2214
 30
0.000000
  70
    32
  0
VERTEX
  8
3
  5
2378
 10
129.610
 20
59.2569
 30
0.000000
  70
    32
  0
VERTEX
  8
3
  5
2379
 10
129.624
 20
59.2935
 30
0.000000
  70
    32
  0
VERTEX
  8
3
  5
237A
 10
129.637
 20
59.3311
 30
0.000000
  70
    32
  0
VERTEX
  8
3
  5
237B
 10
129.651
 20
59.3697
 30
0.000000
  70
    32
  0
VERTEX
  8
3
  5
237C
 10
129.663
 20
59.4092
 30
0.000000
  70
    32
  0
VERTEX
  8
3
  5
237D
 10
129.676
 20
59.4496
 30
0.000000
  70
    32
  0
VERTEX
  8
3
  5
237E
 10
129.688
 20
59.4910
 30
0.000000
  70
    32
  0
VERTEX
  8
3
  5
237F
 10
129.700
 20
59.5333
 30
0.000000
  70
    32
  0
VERTEX
  8
3
  5
2380
 10
129.712
 20
59.5764
 30
0.000000
  70
    32
  0
VERTEX
  8
3
  5
2381
 10
129.723
 20
59.6203
 30
0.000000
  70
    32
  0
VERTEX
  8
3
  5
2382
 10
129.733
 20
59.6651
 30
0.000000
  70
    32
  0
VERTEX
  8
3
  5
2383
 10
129.744
 20
59.7106
 30
0.000000
  70
    32
  0
VERTEX
  8
3
  5
2384
 10
129.754
 20
59.7569
 30
0.000000
  70
    32
  0
VERTEX
  8
3
  5
2385
 10
129.764
 20
59.8039
 30
0.000000
  70
    32
  0
VERTEX
  8
3
  5
2386
 10
129.773
 20
59.8516
 30
0.000000
  70
    32
  0
VERTEX
  8
3
  5
2387
 10
129.782
 20
59.9000
 30
0.000000
  70
    32
  0
VERTEX
  8
3
  5
2388
 10
129.790
 20
59.9490
 30
0.000000
  70
    32
  0
VERTEX
  8
3
  5
2389
 10
129.798
 20
59.9987
 30
0.000000
  70
    32
  0
VERTEX
  8
3
  5
238A
 10
129.806
 20
60.0489
 30
0.000000
  70
    32
  0
VERTEX
  8
3
  5
238B
 10
129.813
 20
60.0996
 30
0.000000
  70
    32
  0
VERTEX
  8
3
  5
238C
 10
129.820
 20
60.1509
 30
0.000000
  70
    32
  0
VERTEX
  8
3
  5
238D
 10
129.826
 20
60.2027
 30
0.000000
  70
    32
  0
VERTEX
  8
3
  5
238E
 10
129.832
 20
60.2549
 30
0.000000
  70
    32
  0
VERTEX
  8
3
  5
238F
 10
129.838
 20
60.3075
 30
0.000000
  70
    32
  0
VERTEX
  8
3
  5
2390
 10
129.843
 20
60.3606
 30
0.000000
  70
    32
  0
VERTEX
  8
3
  5
2391
 10
129.848
 20
60.4139
 30
0.000000
  70
    32
  0
VERTEX
  8
3
  5
2392
 10
129.852
 20
60.4677
 30
0.000000
  70
    32
  0
VERTEX
  8
3
  5
2393
 10
129.856
 20
60.5217
 30
0.000000
  70
    32
  0
VERTEX
  8
3
  5
2394
 10
129.859
 20
60.5760
 30
0.000000
  70
    32
  0
VERTEX
  8
3
  5
2395
 10
129.862
 20
60.6305
 30
0.000000
  70
    32
  0
VERTEX
  8
3
  5
2396
 10
129.865
 20
60.6852
 30
0.000000
  70
    32
  0
VERTEX
  8
3
  5
2397
 10
129.867
 20
60.7401
 30
0.000000
  70
    32
  0
VERTEX
  8
3
  5
2398
 10
129.868
 20
60.7951
 30
0.000000
  70
    32
  0
VERTEX
  8
3
  5
2399
 10
129.869
 20
60.8503
 30
0.000000
  70
    32
  0
VERTEX
  8
3
  5
239A
 10
129.870
 20
60.9054
 30
0.000000
  70
    32
  0
VERTEX
  8
3
  5
239B
 10
129.870
 20
60.9607
 30
0.000000
  70
    32
  0
VERTEX
  8
3
  5
239C
 10
129.870
 20
61.0159
 30
0.000000
  70
    32
  0
VERTEX
  8
3
  5
239D
 10
129.869
 20
61.0711
 30
0.000000
  70
    32
  0
VERTEX
  8
3
  5
239E
 10
129.868
 20
61.1262
 30
0.000000
  70
    32
  0
VERTEX
  8
3
  5
239F
 10
129.867
 20
61.1812
 30
0.000000
  70
    32
  0
VERTEX
  8
3
  5
23A0
 10
129.865
 20
61.2361
 30
0.000000
  70
    32
  0
VERTEX
  8
3
  5
23A1
 10
129.862
 20
61.2908
 30
0.000000
  70
    32
  0
VERTEX
  8
3
  5
23A2
 10
129.859
 20
61.3453
 30
0.000000
  70
    32
  0
VERTEX
  8
3
  5
23A3
 10
129.856
 20
61.3996
 30
0.000000
  70
    32
  0
VERTEX
  8
3
  5
23A4
 10
129.852
 20
61.4536
 30
0.000000
  70
    32
  0
VERTEX
  8
3
  5
23A5
 10
129.848
 20
61.5074
 30
0.000000
  70
    32
  0
VERTEX
  8
3
  5
23A6
 10
129.843
 20
61.5608
 30
0.000000
  70
    32
  0
VERTEX
  8
3
  5
23A7
 10
129.838
 20
61.6138
 30
0.000000
  70
    32
  0
VERTEX
  8
3
  5
23A8
 10
129.832
 20
61.6664
 30
0.000000
  70
    32
  0
VERTEX
  8
3
  5
23A9
 10
129.826
 20
61.7187
 30
0.000000
  70
    32
  0
VERTEX
  8
3
  5
23AA
 10
129.820
 20
61.7704
 30
0.000000
  70
    32
  0
VERTEX
  8
3
  5
23AB
 10
129.813
 20
61.8217
 30
0.000000
  70
    32
  0
VERTEX
  8
3
  5
23AC
 10
129.806
 20
61.8724
 30
0.000000
  70
    32
  0
VERTEX
  8
3
  5
23AD
 10
129.798
 20
61.9227
 30
0.000000
  70
    32
  0
VERTEX
  8
3
  5
23AE
 10
129.790
 20
61.9723
 30
0.000000
  70
    32
  0
VERTEX
  8
3
  5
23AF
 10
129.782
 20
62.0213
 30
0.000000
  70
    32
  0
VERTEX
  8
3
  5
23B0
 10
129.773
 20
62.0697
 30
0.000000
  70
    32
  0
VERTEX
  8
3
  5
23B1
 10
129.764
 20
62.1174
 30
0.000000
  70
    32
  0
VERTEX
  8
3
  5
23B2
 10
129.754
 20
62.1644
 30
0.000000
  70
    32
  0
VERTEX
  8
3
  5
23B3
 10
129.744
 20
62.2107
 30
0.000000
  70
    32
  0
VERTEX
  8
3
  5
23B4
 10
129.733
 20
62.2562
 30
0.000000
  70
    32
  0
VERTEX
  8
3
  5
23B5
 10
129.723
 20
62.3010
 30
0.000000
  70
    32
  0
VERTEX
  8
3
  5
23B6
 10
129.712
 20
62.3449
 30
0.000000
  70
    32
  0
VERTEX
  8
3
  5
23B7
 10
129.700
 20
62.3880
 30
0.000000
  70
    32
  0
VERTEX
  8
3
  5
23B8
 10
129.688
 20
62.4303
 30
0.000000
  70
    32
  0
VERTEX
  8
3
  5
23B9
 10
129.676
 20
62.4717
 30
0.000000
  70
    32
  0
VERTEX
  8
3
  5
23BA
 10
129.663
 20
62.5121
 30
0.000000
  70
    32
  0
VERTEX
  8
3
  5
23BB
 10
129.651
 20
62.5516
 30
0.000000
  70
    32
  0
VERTEX
  8
3
  5
23BC
 10
129.637
 20
62.5902
 30
0.000000
  70
    32
  0
VERTEX
  8
3
  5
23BD
 10
129.624
 20
62.6278
 30
0.000000
  70
    32
  0
VERTEX
  8
3
  5
23BE
 10
129.610
 20
62.6644
 30
0.000000
  70
    32
  0
VERTEX
  8
3
  5
23BF
 10
129.596
 20
62.6999
 30
0.000000
  70
    32
  0
VERTEX
  8
3
  5
23C0
 10
129.582
 20
62.7344
 30
0.000000
  70
    32
  0
VERTEX
  8
3
  5
23C1
 10
129.567
 20
62.7679
 30
0.000000
  70
    32
  0
VERTEX
  8
3
  5
23C2
 10
129.552
 20
62.8002
 30
0.000000
  70
    32
  0
VERTEX
  8
3
  5
23C3
 10
129.537
 20
62.8315
 30
0.000000
  70
    32
  0
VERTEX
  8
3
  5
23C4
 10
129.522
 20
62.8616
 30
0.000000
  70
    32
  0
VERTEX
  8
3
  5
23C5
 10
129.506
 20
62.8905
 30
0.000000
  70
    32
  0
VERTEX
  8
3
  5
23C6
 10
129.490
 20
62.9184
 30
0.000000
  70
    32
  0
VERTEX
  8
3
  5
23C7
 10
129.474
 20
62.9450
 30
0.000000
  70
    32
  0
VERTEX
  8
3
  5
23C8
 10
129.457
 20
62.9704
 30
0.000000
  70
    32
  0
VERTEX
  8
3
  5
23C9
 10
129.441
 20
62.9946
 30
0.000000
  70
    32
  0
VERTEX
  8
3
  5
23CA
 10
129.424
 20
63.0176
 30
0.000000
  70
    32
  0
VERTEX
  8
3
  5
23CB
 10
129.407
 20
63.0394
 30
0.000000
  70
    32
  0
VERTEX
  8
3
  5
23CC
 10
129.390
 20
63.0599
 30
0.000000
  70
    32
  0
VERTEX
  8
3
  5
23CD
 10
129.373
 20
63.0791
 30
0.000000
  70
    32
  0
VERTEX
  8
3
  5
23CE
 10
129.356
 20
63.0971
 30
0.000000
  70
    32
  0
VERTEX
  8
3
  5
23CF
 10
129.338
 20
63.1138
 30
0.000000
  70
    32
  0
VERTEX
  8
3
  5
23D0
 10
129.320
 20
63.1292
 30
0.000000
  70
    32
  0
VERTEX
  8
3
  5
23D1
 10
129.303
 20
63.1432
 30
0.000000
  70
    32
  0
VERTEX
  8
3
  5
23D2
 10
129.285
 20
63.1560
 30
0.000000
  70
    32
  0
VERTEX
  8
3
  5
23D3
 10
129.267
 20
63.1674
 30
0.000000
  70
    32
  0
VERTEX
  8
3
  5
23D4
 10
129.249
 20
63.1775
 30
0.000000
  70
    32
  0
VERTEX
  8
3
  5
23D5
 10
129.230
 20
63.1863
 30
0.000000
  70
    32
  0
VERTEX
  8
3
  5
23D6
 10
129.212
 20
63.1937
 30
0.000000
  70
    32
  0
VERTEX
  8
3
  5
23D7
 10
129.194
 20
63.1998
 30
0.000000
  70
    32
  0
VERTEX
  8
3
  5
23D8
 10
129.175
 20
63.2046
 30
0.000000
  70
    32
  0
VERTEX
  8
3
  5
23D9
 10
129.157
 20
63.2079
 30
0.000000
  70
    32
  0
VERTEX
  8
3
  5
23DA
 10
129.139
 20
63.2100
 30
0.000000
  70
    32
  0
VERTEX
  8
3
  5
23DB
 10
129.120
 20
63.2107
 30
0.000000
  70
    32
  0
SEQEND
  8
3
  5
23DC
  0
LINE
  5
84D
  8
3
 10
122.6202859112752
 20
77.710655289633081
 30
0.0
 11
129.12028591127529
 21
77.710655289633081
 31
0.0
  0
LINE
  5
84E
  8
3
 10
122.6202859112752
 20
73.210655289633081
 30
0.0
 11
129.12028591127549
 21
73.210655289633081
 31
0.0
  0
ARC
  5
84F
  8
3
 10
119.8702859112753
 20
77.110655289633087
 30
0.0
 40
1.8999999999999999
 50
90.0
 51
173.9072283426637
  0
LINE
  5
850
  8
3
 10
119.8702859112753
 20
75.010655289633036
 30
0.0
 11
116.9452884982815
 21
75.010655289633064
 31
0.0
  0
LINE
  5
851
  8
3
 10
117.9810183608612
 20
77.312318679845845
 30
0.0
 11
117.73533518999579
 21
75.010655289633036
 31
0.0
  0
POLYLINE
  5
852
  8
3
 10
122.6202859112753
 20
77.710655289633081
 30
0.0
 66
     1
 70
     8
  0
VERTEX
  8
3
  5
23DD
 10
122.620
 20
77.7107
 30
0.000000
  70
    32
  0
VERTEX
  8
3
  5
23DE
 10
122.602
 20
77.7100
 30
0.000000
  70
    32
  0
VERTEX
  8
3
  5
23DF
 10
122.583
 20
77.7079
 30
0.000000
  70
    32
  0
VERTEX
  8
3
  5
23E0
 10
122.565
 20
77.7046
 30
0.000000
  70
    32
  0
VERTEX
  8
3
  5
23E1
 10
122.547
 20
77.6998
 30
0.000000
  70
    32
  0
VERTEX
  8
3
  5
23E2
 10
122.528
 20
77.6937
 30
0.000000
  70
    32
  0
VERTEX
  8
3
  5
23E3
 10
122.510
 20
77.6863
 30
0.000000
  70
    32
  0
VERTEX
  8
3
  5
23E4
 10
122.492
 20
77.6775
 30
0.000000
  70
    32
  0
VERTEX
  8
3
  5
23E5
 10
122.474
 20
77.6674
 30
0.000000
  70
    32
  0
VERTEX
  8
3
  5
23E6
 10
122.456
 20
77.6560
 30
0.000000
  70
    32
  0
VERTEX
  8
3
  5
23E7
 10
122.438
 20
77.6432
 30
0.000000
  70
    32
  0
VERTEX
  8
3
  5
23E8
 10
122.420
 20
77.6292
 30
0.000000
  70
    32
  0
VERTEX
  8
3
  5
23E9
 10
122.403
 20
77.6138
 30
0.000000
  70
    32
  0
VERTEX
  8
3
  5
23EA
 10
122.385
 20
77.5971
 30
0.000000
  70
    32
  0
VERTEX
  8
3
  5
23EB
 10
122.368
 20
77.5791
 30
0.000000
  70
    32
  0
VERTEX
  8
3
  5
23EC
 10
122.350
 20
77.5599
 30
0.000000
  70
    32
  0
VERTEX
  8
3
  5
23ED
 10
122.333
 20
77.5394
 30
0.000000
  70
    32
  0
VERTEX
  8
3
  5
23EE
 10
122.316
 20
77.5176
 30
0.000000
  70
    32
  0
VERTEX
  8
3
  5
23EF
 10
122.300
 20
77.4946
 30
0.000000
  70
    32
  0
VERTEX
  8
3
  5
23F0
 10
122.283
 20
77.4704
 30
0.000000
  70
    32
  0
VERTEX
  8
3
  5
23F1
 10
122.267
 20
77.4450
 30
0.000000
  70
    32
  0
VERTEX
  8
3
  5
23F2
 10
122.251
 20
77.4184
 30
0.000000
  70
    32
  0
VERTEX
  8
3
  5
23F3
 10
122.235
 20
77.3905
 30
0.000000
  70
    32
  0
VERTEX
  8
3
  5
23F4
 10
122.219
 20
77.3616
 30
0.000000
  70
    32
  0
VERTEX
  8
3
  5
23F5
 10
122.204
 20
77.3315
 30
0.000000
  70
    32
  0
VERTEX
  8
3
  5
23F6
 10
122.188
 20
77.3002
 30
0.000000
  70
    32
  0
VERTEX
  8
3
  5
23F7
 10
122.174
 20
77.2679
 30
0.000000
  70
    32
  0
VERTEX
  8
3
  5
23F8
 10
122.159
 20
77.2344
 30
0.000000
  70
    32
  0
VERTEX
  8
3
  5
23F9
 10
122.144
 20
77.1999
 30
0.000000
  70
    32
  0
VERTEX
  8
3
  5
23FA
 10
122.130
 20
77.1644
 30
0.000000
  70
    32
  0
VERTEX
  8
3
  5
23FB
 10
122.117
 20
77.1278
 30
0.000000
  70
    32
  0
VERTEX
  8
3
  5
23FC
 10
122.103
 20
77.0902
 30
0.000000
  70
    32
  0
VERTEX
  8
3
  5
23FD
 10
122.090
 20
77.0516
 30
0.000000
  70
    32
  0
VERTEX
  8
3
  5
23FE
 10
122.077
 20
77.0121
 30
0.000000
  70
    32
  0
VERTEX
  8
3
  5
23FF
 10
122.065
 20
76.9717
 30
0.000000
  70
    32
  0
VERTEX
  8
3
  5
2400
 10
122.052
 20
76.9303
 30
0.000000
  70
    32
  0
VERTEX
  8
3
  5
2401
 10
122.041
 20
76.8880
 30
0.000000
  70
    32
  0
VERTEX
  8
3
  5
2402
 10
122.029
 20
76.8449
 30
0.000000
  70
    32
  0
VERTEX
  8
3
  5
2403
 10
122.018
 20
76.8010
 30
0.000000
  70
    32
  0
VERTEX
  8
3
  5
2404
 10
122.007
 20
76.7562
 30
0.000000
  70
    32
  0
VERTEX
  8
3
  5
2405
 10
121.997
 20
76.7107
 30
0.000000
  70
    32
  0
VERTEX
  8
3
  5
2406
 10
121.987
 20
76.6644
 30
0.000000
  70
    32
  0
VERTEX
  8
3
  5
2407
 10
121.977
 20
76.6174
 30
0.000000
  70
    32
  0
VERTEX
  8
3
  5
2408
 10
121.968
 20
76.5697
 30
0.000000
  70
    32
  0
VERTEX
  8
3
  5
2409
 10
121.959
 20
76.5213
 30
0.000000
  70
    32
  0
VERTEX
  8
3
  5
240A
 10
121.950
 20
76.4723
 30
0.000000
  70
    32
  0
VERTEX
  8
3
  5
240B
 10
121.942
 20
76.4227
 30
0.000000
  70
    32
  0
VERTEX
  8
3
  5
240C
 10
121.935
 20
76.3724
 30
0.000000
  70
    32
  0
VERTEX
  8
3
  5
240D
 10
121.927
 20
76.3217
 30
0.000000
  70
    32
  0
VERTEX
  8
3
  5
240E
 10
121.921
 20
76.2704
 30
0.000000
  70
    32
  0
VERTEX
  8
3
  5
240F
 10
121.914
 20
76.2187
 30
0.000000
  70
    32
  0
VERTEX
  8
3
  5
2410
 10
121.908
 20
76.1664
 30
0.000000
  70
    32
  0
VERTEX
  8
3
  5
2411
 10
121.903
 20
76.1138
 30
0.000000
  70
    32
  0
VERTEX
  8
3
  5
2412
 10
121.897
 20
76.0608
 30
0.000000
  70
    32
  0
VERTEX
  8
3
  5
2413
 10
121.893
 20
76.0074
 30
0.000000
  70
    32
  0
VERTEX
  8
3
  5
2414
 10
121.889
 20
75.9536
 30
0.000000
  70
    32
  0
VERTEX
  8
3
  5
2415
 10
121.885
 20
75.8996
 30
0.000000
  70
    32
  0
VERTEX
  8
3
  5
2416
 10
121.881
 20
75.8453
 30
0.000000
  70
    32
  0
VERTEX
  8
3
  5
2417
 10
121.878
 20
75.7908
 30
0.000000
  70
    32
  0
VERTEX
  8
3
  5
2418
 10
121.876
 20
75.7361
 30
0.000000
  70
    32
  0
VERTEX
  8
3
  5
2419
 10
121.874
 20
75.6812
 30
0.000000
  70
    32
  0
VERTEX
  8
3
  5
241A
 10
121.872
 20
75.6262
 30
0.000000
  70
    32
  0
VERTEX
  8
3
  5
241B
 10
121.871
 20
75.5711
 30
0.000000
  70
    32
  0
VERTEX
  8
3
  5
241C
 10
121.871
 20
75.5159
 30
0.000000
  70
    32
  0
VERTEX
  8
3
  5
241D
 10
121.870
 20
75.4607
 30
0.000000
  70
    32
  0
VERTEX
  8
3
  5
241E
 10
121.871
 20
75.4054
 30
0.000000
  70
    32
  0
VERTEX
  8
3
  5
241F
 10
121.871
 20
75.3503
 30
0.000000
  70
    32
  0
VERTEX
  8
3
  5
2420
 10
121.872
 20
75.2951
 30
0.000000
  70
    32
  0
VERTEX
  8
3
  5
2421
 10
121.874
 20
75.2401
 30
0.000000
  70
    32
  0
VERTEX
  8
3
  5
2422
 10
121.876
 20
75.1852
 30
0.000000
  70
    32
  0
VERTEX
  8
3
  5
2423
 10
121.878
 20
75.1305
 30
0.000000
  70
    32
  0
VERTEX
  8
3
  5
2424
 10
121.881
 20
75.0760
 30
0.000000
  70
    32
  0
VERTEX
  8
3
  5
2425
 10
121.885
 20
75.0217
 30
0.000000
  70
    32
  0
VERTEX
  8
3
  5
2426
 10
121.889
 20
74.9677
 30
0.000000
  70
    32
  0
VERTEX
  8
3
  5
2427
 10
121.893
 20
74.9139
 30
0.000000
  70
    32
  0
VERTEX
  8
3
  5
2428
 10
121.897
 20
74.8606
 30
0.000000
  70
    32
  0
VERTEX
  8
3
  5
2429
 10
121.903
 20
74.8075
 30
0.000000
  70
    32
  0
VERTEX
  8
3
  5
242A
 10
121.908
 20
74.7549
 30
0.000000
  70
    32
  0
VERTEX
  8
3
  5
242B
 10
121.914
 20
74.7027
 30
0.000000
  70
    32
  0
VERTEX
  8
3
  5
242C
 10
121.921
 20
74.6509
 30
0.000000
  70
    32
  0
VERTEX
  8
3
  5
242D
 10
121.927
 20
74.5996
 30
0.000000
  70
    32
  0
VERTEX
  8
3
  5
242E
 10
121.935
 20
74.5489
 30
0.000000
  70
    32
  0
VERTEX
  8
3
  5
242F
 10
121.942
 20
74.4987
 30
0.000000
  70
    32
  0
VERTEX
  8
3
  5
2430
 10
121.950
 20
74.4490
 30
0.000000
  70
    32
  0
VERTEX
  8
3
  5
2431
 10
121.959
 20
74.4000
 30
0.000000
  70
    32
  0
VERTEX
  8
3
  5
2432
 10
121.968
 20
74.3516
 30
0.000000
  70
    32
  0
VERTEX
  8
3
  5
2433
 10
121.977
 20
74.3039
 30
0.000000
  70
    32
  0
VERTEX
  8
3
  5
2434
 10
121.987
 20
74.2569
 30
0.000000
  70
    32
  0
VERTEX
  8
3
  5
2435
 10
121.997
 20
74.2106
 30
0.000000
  70
    32
  0
VERTEX
  8
3
  5
2436
 10
122.007
 20
74.1651
 30
0.000000
  70
    32
  0
VERTEX
  8
3
  5
2437
 10
122.018
 20
74.1203
 30
0.000000
  70
    32
  0
VERTEX
  8
3
  5
2438
 10
122.029
 20
74.0764
 30
0.000000
  70
    32
  0
VERTEX
  8
3
  5
2439
 10
122.041
 20
74.0333
 30
0.000000
  70
    32
  0
VERTEX
  8
3
  5
243A
 10
122.052
 20
73.9910
 30
0.000000
  70
    32
  0
VERTEX
  8
3
  5
243B
 10
122.065
 20
73.9496
 30
0.000000
  70
    32
  0
VERTEX
  8
3
  5
243C
 10
122.077
 20
73.9092
 30
0.000000
  70
    32
  0
VERTEX
  8
3
  5
243D
 10
122.090
 20
73.8697
 30
0.000000
  70
    32
  0
VERTEX
  8
3
  5
243E
 10
122.103
 20
73.8311
 30
0.000000
  70
    32
  0
VERTEX
  8
3
  5
243F
 10
122.117
 20
73.7935
 30
0.000000
  70
    32
  0
VERTEX
  8
3
  5
2440
 10
122.130
 20
73.7569
 30
0.000000
  70
    32
  0
VERTEX
  8
3
  5
2441
 10
122.144
 20
73.7214
 30
0.000000
  70
    32
  0
VERTEX
  8
3
  5
2442
 10
122.159
 20
73.6869
 30
0.000000
  70
    32
  0
VERTEX
  8
3
  5
2443
 10
122.174
 20
73.6534
 30
0.000000
  70
    32
  0
VERTEX
  8
3
  5
2444
 10
122.188
 20
73.6211
 30
0.000000
  70
    32
  0
VERTEX
  8
3
  5
2445
 10
122.204
 20
73.5898
 30
0.000000
  70
    32
  0
VERTEX
  8
3
  5
2446
 10
122.219
 20
73.5597
 30
0.000000
  70
    32
  0
VERTEX
  8
3
  5
2447
 10
122.235
 20
73.5308
 30
0.000000
  70
    32
  0
VERTEX
  8
3
  5
2448
 10
122.251
 20
73.5030
 30
0.000000
  70
    32
  0
VERTEX
  8
3
  5
2449
 10
122.267
 20
73.4763
 30
0.000000
  70
    32
  0
VERTEX
  8
3
  5
244A
 10
122.283
 20
73.4509
 30
0.000000
  70
    32
  0
VERTEX
  8
3
  5
244B
 10
122.300
 20
73.4267
 30
0.000000
  70
    32
  0
VERTEX
  8
3
  5
244C
 10
122.316
 20
73.4037
 30
0.000000
  70
    32
  0
VERTEX
  8
3
  5
244D
 10
122.333
 20
73.3819
 30
0.000000
  70
    32
  0
VERTEX
  8
3
  5
244E
 10
122.350
 20
73.3614
 30
0.000000
  70
    32
  0
VERTEX
  8
3
  5
244F
 10
122.368
 20
73.3422
 30
0.000000
  70
    32
  0
VERTEX
  8
3
  5
2450
 10
122.385
 20
73.3242
 30
0.000000
  70
    32
  0
VERTEX
  8
3
  5
2451
 10
122.403
 20
73.3075
 30
0.000000
  70
    32
  0
VERTEX
  8
3
  5
2452
 10
122.420
 20
73.2922
 30
0.000000
  70
    32
  0
VERTEX
  8
3
  5
2453
 10
122.438
 20
73.2781
 30
0.000000
  70
    32
  0
VERTEX
  8
3
  5
2454
 10
122.456
 20
73.2653
 30
0.000000
  70
    32
  0
VERTEX
  8
3
  5
2455
 10
122.474
 20
73.2539
 30
0.000000
  70
    32
  0
VERTEX
  8
3
  5
2456
 10
122.492
 20
73.2438
 30
0.000000
  70
    32
  0
VERTEX
  8
3
  5
2457
 10
122.510
 20
73.2350
 30
0.000000
  70
    32
  0
VERTEX
  8
3
  5
2458
 10
122.528
 20
73.2276
 30
0.000000
  70
    32
  0
VERTEX
  8
3
  5
2459
 10
122.547
 20
73.2215
 30
0.000000
  70
    32
  0
VERTEX
  8
3
  5
245A
 10
122.565
 20
73.2168
 30
0.000000
  70
    32
  0
VERTEX
  8
3
  5
245B
 10
122.583
 20
73.2134
 30
0.000000
  70
    32
  0
VERTEX
  8
3
  5
245C
 10
122.602
 20
73.2113
 30
0.000000
  70
    32
  0
VERTEX
  8
3
  5
245D
 10
122.620
 20
73.2107
 30
0.000000
  70
    32
  0
SEQEND
  8
3
  5
245E
  0
LINE
  5
853
  8
3
 10
121.8702859112753
 20
81.210655289633081
 30
0.0
 11
119.8702859112753
 21
81.210655289633081
 31
0.0
  0
POLYLINE
  5
854
  8
3
 10
129.12028591127529
 20
73.210655289633081
 30
0.0
 66
     1
 70
     8
  0
VERTEX
  8
3
  5
245F
 10
129.120
 20
73.2107
 30
0.000000
  70
    32
  0
VERTEX
  8
3
  5
2460
 10
129.139
 20
73.2113
 30
0.000000
  70
    32
  0
VERTEX
  8
3
  5
2461
 10
129.157
 20
73.2134
 30
0.000000
  70
    32
  0
VERTEX
  8
3
  5
2462
 10
129.175
 20
73.2168
 30
0.000000
  70
    32
  0
VERTEX
  8
3
  5
2463
 10
129.194
 20
73.2215
 30
0.000000
  70
    32
  0
VERTEX
  8
3
  5
2464
 10
129.212
 20
73.2276
 30
0.000000
  70
    32
  0
VERTEX
  8
3
  5
2465
 10
129.230
 20
73.2350
 30
0.000000
  70
    32
  0
VERTEX
  8
3
  5
2466
 10
129.249
 20
73.2438
 30
0.000000
  70
    32
  0
VERTEX
  8
3
  5
2467
 10
129.267
 20
73.2539
 30
0.000000
  70
    32
  0
VERTEX
  8
3
  5
2468
 10
129.285
 20
73.2653
 30
0.000000
  70
    32
  0
VERTEX
  8
3
  5
2469
 10
129.303
 20
73.2781
 30
0.000000
  70
    32
  0
VERTEX
  8
3
  5
246A
 10
129.320
 20
73.2922
 30
0.000000
  70
    32
  0
VERTEX
  8
3
  5
246B
 10
129.338
 20
73.3075
 30
0.000000
  70
    32
  0
VERTEX
  8
3
  5
246C
 10
129.356
 20
73.3242
 30
0.000000
  70
    32
  0
VERTEX
  8
3
  5
246D
 10
129.373
 20
73.3422
 30
0.000000
  70
    32
  0
VERTEX
  8
3
  5
246E
 10
129.390
 20
73.3614
 30
0.000000
  70
    32
  0
VERTEX
  8
3
  5
246F
 10
129.407
 20
73.3819
 30
0.000000
  70
    32
  0
VERTEX
  8
3
  5
2470
 10
129.424
 20
73.4037
 30
0.000000
  70
    32
  0
VERTEX
  8
3
  5
2471
 10
129.441
 20
73.4267
 30
0.000000
  70
    32
  0
VERTEX
  8
3
  5
2472
 10
129.457
 20
73.4509
 30
0.000000
  70
    32
  0
VERTEX
  8
3
  5
2473
 10
129.474
 20
73.4763
 30
0.000000
  70
    32
  0
VERTEX
  8
3
  5
2474
 10
129.490
 20
73.5030
 30
0.000000
  70
    32
  0
VERTEX
  8
3
  5
2475
 10
129.506
 20
73.5308
 30
0.000000
  70
    32
  0
VERTEX
  8
3
  5
2476
 10
129.522
 20
73.5597
 30
0.000000
  70
    32
  0
VERTEX
  8
3
  5
2477
 10
129.537
 20
73.5898
 30
0.000000
  70
    32
  0
VERTEX
  8
3
  5
2478
 10
129.552
 20
73.6211
 30
0.000000
  70
    32
  0
VERTEX
  8
3
  5
2479
 10
129.567
 20
73.6534
 30
0.000000
  70
    32
  0
VERTEX
  8
3
  5
247A
 10
129.582
 20
73.6869
 30
0.000000
  70
    32
  0
VERTEX
  8
3
  5
247B
 10
129.596
 20
73.7214
 30
0.000000
  70
    32
  0
VERTEX
  8
3
  5
247C
 10
129.610
 20
73.7569
 30
0.000000
  70
    32
  0
VERTEX
  8
3
  5
247D
 10
129.624
 20
73.7935
 30
0.000000
  70
    32
  0
VERTEX
  8
3
  5
247E
 10
129.637
 20
73.8311
 30
0.000000
  70
    32
  0
VERTEX
  8
3
  5
247F
 10
129.651
 20
73.8697
 30
0.000000
  70
    32
  0
VERTEX
  8
3
  5
2480
 10
129.663
 20
73.9092
 30
0.000000
  70
    32
  0
VERTEX
  8
3
  5
2481
 10
129.676
 20
73.9496
 30
0.000000
  70
    32
  0
VERTEX
  8
3
  5
2482
 10
129.688
 20
73.9910
 30
0.000000
  70
    32
  0
VERTEX
  8
3
  5
2483
 10
129.700
 20
74.0333
 30
0.000000
  70
    32
  0
VERTEX
  8
3
  5
2484
 10
129.712
 20
74.0764
 30
0.000000
  70
    32
  0
VERTEX
  8
3
  5
2485
 10
129.723
 20
74.1203
 30
0.000000
  70
    32
  0
VERTEX
  8
3
  5
2486
 10
129.733
 20
74.1651
 30
0.000000
  70
    32
  0
VERTEX
  8
3
  5
2487
 10
129.744
 20
74.2106
 30
0.000000
  70
    32
  0
VERTEX
  8
3
  5
2488
 10
129.754
 20
74.2569
 30
0.000000
  70
    32
  0
VERTEX
  8
3
  5
2489
 10
129.764
 20
74.3039
 30
0.000000
  70
    32
  0
VERTEX
  8
3
  5
248A
 10
129.773
 20
74.3516
 30
0.000000
  70
    32
  0
VERTEX
  8
3
  5
248B
 10
129.782
 20
74.4000
 30
0.000000
  70
    32
  0
VERTEX
  8
3
  5
248C
 10
129.790
 20
74.4490
 30
0.000000
  70
    32
  0
VERTEX
  8
3
  5
248D
 10
129.798
 20
74.4987
 30
0.000000
  70
    32
  0
VERTEX
  8
3
  5
248E
 10
129.806
 20
74.5489
 30
0.000000
  70
    32
  0
VERTEX
  8
3
  5
248F
 10
129.813
 20
74.5996
 30
0.000000
  70
    32
  0
VERTEX
  8
3
  5
2490
 10
129.820
 20
74.6509
 30
0.000000
  70
    32
  0
VERTEX
  8
3
  5
2491
 10
129.826
 20
74.7027
 30
0.000000
  70
    32
  0
VERTEX
  8
3
  5
2492
 10
129.832
 20
74.7549
 30
0.000000
  70
    32
  0
VERTEX
  8
3
  5
2493
 10
129.838
 20
74.8075
 30
0.000000
  70
    32
  0
VERTEX
  8
3
  5
2494
 10
129.843
 20
74.8606
 30
0.000000
  70
    32
  0
VERTEX
  8
3
  5
2495
 10
129.848
 20
74.9139
 30
0.000000
  70
    32
  0
VERTEX
  8
3
  5
2496
 10
129.852
 20
74.9677
 30
0.000000
  70
    32
  0
VERTEX
  8
3
  5
2497
 10
129.856
 20
75.0217
 30
0.000000
  70
    32
  0
VERTEX
  8
3
  5
2498
 10
129.859
 20
75.0760
 30
0.000000
  70
    32
  0
VERTEX
  8
3
  5
2499
 10
129.862
 20
75.1305
 30
0.000000
  70
    32
  0
VERTEX
  8
3
  5
249A
 10
129.865
 20
75.1852
 30
0.000000
  70
    32
  0
VERTEX
  8
3
  5
249B
 10
129.867
 20
75.2401
 30
0.000000
  70
    32
  0
VERTEX
  8
3
  5
249C
 10
129.868
 20
75.2951
 30
0.000000
  70
    32
  0
VERTEX
  8
3
  5
249D
 10
129.869
 20
75.3503
 30
0.000000
  70
    32
  0
VERTEX
  8
3
  5
249E
 10
129.870
 20
75.4054
 30
0.000000
  70
    32
  0
VERTEX
  8
3
  5
249F
 10
129.870
 20
75.4607
 30
0.000000
  70
    32
  0
VERTEX
  8
3
  5
24A0
 10
129.870
 20
75.5159
 30
0.000000
  70
    32
  0
VERTEX
  8
3
  5
24A1
 10
129.869
 20
75.5711
 30
0.000000
  70
    32
  0
VERTEX
  8
3
  5
24A2
 10
129.868
 20
75.6262
 30
0.000000
  70
    32
  0
VERTEX
  8
3
  5
24A3
 10
129.867
 20
75.6812
 30
0.000000
  70
    32
  0
VERTEX
  8
3
  5
24A4
 10
129.865
 20
75.7361
 30
0.000000
  70
    32
  0
VERTEX
  8
3
  5
24A5
 10
129.862
 20
75.7908
 30
0.000000
  70
    32
  0
VERTEX
  8
3
  5
24A6
 10
129.859
 20
75.8453
 30
0.000000
  70
    32
  0
VERTEX
  8
3
  5
24A7
 10
129.856
 20
75.8996
 30
0.000000
  70
    32
  0
VERTEX
  8
3
  5
24A8
 10
129.852
 20
75.9536
 30
0.000000
  70
    32
  0
VERTEX
  8
3
  5
24A9
 10
129.848
 20
76.0074
 30
0.000000
  70
    32
  0
VERTEX
  8
3
  5
24AA
 10
129.843
 20
76.0608
 30
0.000000
  70
    32
  0
VERTEX
  8
3
  5
24AB
 10
129.838
 20
76.1138
 30
0.000000
  70
    32
  0
VERTEX
  8
3
  5
24AC
 10
129.832
 20
76.1664
 30
0.000000
  70
    32
  0
VERTEX
  8
3
  5
24AD
 10
129.826
 20
76.2187
 30
0.000000
  70
    32
  0
VERTEX
  8
3
  5
24AE
 10
129.820
 20
76.2704
 30
0.000000
  70
    32
  0
VERTEX
  8
3
  5
24AF
 10
129.813
 20
76.3217
 30
0.000000
  70
    32
  0
VERTEX
  8
3
  5
24B0
 10
129.806
 20
76.3724
 30
0.000000
  70
    32
  0
VERTEX
  8
3
  5
24B1
 10
129.798
 20
76.4227
 30
0.000000
  70
    32
  0
VERTEX
  8
3
  5
24B2
 10
129.790
 20
76.4723
 30
0.000000
  70
    32
  0
VERTEX
  8
3
  5
24B3
 10
129.782
 20
76.5213
 30
0.000000
  70
    32
  0
VERTEX
  8
3
  5
24B4
 10
129.773
 20
76.5697
 30
0.000000
  70
    32
  0
VERTEX
  8
3
  5
24B5
 10
129.764
 20
76.6174
 30
0.000000
  70
    32
  0
VERTEX
  8
3
  5
24B6
 10
129.754
 20
76.6644
 30
0.000000
  70
    32
  0
VERTEX
  8
3
  5
24B7
 10
129.744
 20
76.7107
 30
0.000000
  70
    32
  0
VERTEX
  8
3
  5
24B8
 10
129.733
 20
76.7562
 30
0.000000
  70
    32
  0
VERTEX
  8
3
  5
24B9
 10
129.723
 20
76.8010
 30
0.000000
  70
    32
  0
VERTEX
  8
3
  5
24BA
 10
129.712
 20
76.8449
 30
0.000000
  70
    32
  0
VERTEX
  8
3
  5
24BB
 10
129.700
 20
76.8880
 30
0.000000
  70
    32
  0
VERTEX
  8
3
  5
24BC
 10
129.688
 20
76.9303
 30
0.000000
  70
    32
  0
VERTEX
  8
3
  5
24BD
 10
129.676
 20
76.9717
 30
0.000000
  70
    32
  0
VERTEX
  8
3
  5
24BE
 10
129.663
 20
77.0121
 30
0.000000
  70
    32
  0
VERTEX
  8
3
  5
24BF
 10
129.651
 20
77.0516
 30
0.000000
  70
    32
  0
VERTEX
  8
3
  5
24C0
 10
129.637
 20
77.0902
 30
0.000000
  70
    32
  0
VERTEX
  8
3
  5
24C1
 10
129.624
 20
77.1278
 30
0.000000
  70
    32
  0
VERTEX
  8
3
  5
24C2
 10
129.610
 20
77.1644
 30
0.000000
  70
    32
  0
VERTEX
  8
3
  5
24C3
 10
129.596
 20
77.1999
 30
0.000000
  70
    32
  0
VERTEX
  8
3
  5
24C4
 10
129.582
 20
77.2344
 30
0.000000
  70
    32
  0
VERTEX
  8
3
  5
24C5
 10
129.567
 20
77.2679
 30
0.000000
  70
    32
  0
VERTEX
  8
3
  5
24C6
 10
129.552
 20
77.3002
 30
0.000000
  70
    32
  0
VERTEX
  8
3
  5
24C7
 10
129.537
 20
77.3315
 30
0.000000
  70
    32
  0
VERTEX
  8
3
  5
24C8
 10
129.522
 20
77.3616
 30
0.000000
  70
    32
  0
VERTEX
  8
3
  5
24C9
 10
129.506
 20
77.3905
 30
0.000000
  70
    32
  0
VERTEX
  8
3
  5
24CA
 10
129.490
 20
77.4184
 30
0.000000
  70
    32
  0
VERTEX
  8
3
  5
24CB
 10
129.474
 20
77.4450
 30
0.000000
  70
    32
  0
VERTEX
  8
3
  5
24CC
 10
129.457
 20
77.4704
 30
0.000000
  70
    32
  0
VERTEX
  8
3
  5
24CD
 10
129.441
 20
77.4946
 30
0.000000
  70
    32
  0
VERTEX
  8
3
  5
24CE
 10
129.424
 20
77.5176
 30
0.000000
  70
    32
  0
VERTEX
  8
3
  5
24CF
 10
129.407
 20
77.5394
 30
0.000000
  70
    32
  0
VERTEX
  8
3
  5
24D0
 10
129.390
 20
77.5599
 30
0.000000
  70
    32
  0
VERTEX
  8
3
  5
24D1
 10
129.373
 20
77.5791
 30
0.000000
  70
    32
  0
VERTEX
  8
3
  5
24D2
 10
129.356
 20
77.5971
 30
0.000000
  70
    32
  0
VERTEX
  8
3
  5
24D3
 10
129.338
 20
77.6138
 30
0.000000
  70
    32
  0
VERTEX
  8
3
  5
24D4
 10
129.320
 20
77.6292
 30
0.000000
  70
    32
  0
VERTEX
  8
3
  5
24D5
 10
129.303
 20
77.6432
 30
0.000000
  70
    32
  0
VERTEX
  8
3
  5
24D6
 10
129.285
 20
77.6560
 30
0.000000
  70
    32
  0
VERTEX
  8
3
  5
24D7
 10
129.267
 20
77.6674
 30
0.000000
  70
    32
  0
VERTEX
  8
3
  5
24D8
 10
129.249
 20
77.6775
 30
0.000000
  70
    32
  0
VERTEX
  8
3
  5
24D9
 10
129.230
 20
77.6863
 30
0.000000
  70
    32
  0
VERTEX
  8
3
  5
24DA
 10
129.212
 20
77.6937
 30
0.000000
  70
    32
  0
VERTEX
  8
3
  5
24DB
 10
129.194
 20
77.6998
 30
0.000000
  70
    32
  0
VERTEX
  8
3
  5
24DC
 10
129.175
 20
77.7046
 30
0.000000
  70
    32
  0
VERTEX
  8
3
  5
24DD
 10
129.157
 20
77.7079
 30
0.000000
  70
    32
  0
VERTEX
  8
3
  5
24DE
 10
129.139
 20
77.7100
 30
0.000000
  70
    32
  0
VERTEX
  8
3
  5
24DF
 10
129.120
 20
77.7107
 30
0.000000
  70
    32
  0
SEQEND
  8
3
  5
24E0
  0
LINE
  5
855
  8
3
 10
159.86842678620269
 20
82.858820021175347
 30
0.0
 11
159.86842678620269
 21
52.858820021175347
 31
0.0
  0
POINT
  5
858
  8
3
 10
159.86842678620269
 20
57.858820021175347
 30
0.0
  0
POINT
  5
859
  8
3
 10
159.87028591127529
 20
58.210655289633053
 30
0.0
  0
POINT
  5
85A
  8
0
 10
159.87028591127529
 20
67.858820021175347
 30
0.0
  0
POINT
  5
85B
  8
3
 10
159.86842678620269
 20
67.858820021175347
 30
0.0
  0
POINT
  5
85C
  8
0
 10
159.87028591127529
 20
67.858820021175305
 30
0.0
  0
POINT
  5
85D
  8
3
 10
159.86842678620269
 20
77.858820021175347
 30
0.0
  0
POINT
  5
85E
  8
3
 10
159.87028591127529
 20
78.210655289633081
 30
0.0
  0
LINE
  5
85F
  8
0
 10
103.0094708672858
 20
142.35882002117529
 30
0.0
 11
103.0094708672858
 21
112.3588200211753
 31
0.0
  0
LINE
  5
860
  8
0
 10
101.0094708672858
 20
104.3588200211753
 30
0.0
 11
101.0094708672858
 21
102.3588200211753
 31
0.0
  0
POINT
  5
862
  8
0
 10
103.0094708672858
 20
142.35882002117529
 30
0.0
  0
POINT
  5
863
  8
0
 10
103.0094708672858
 20
142.35882002117529
 30
0.0
  0
LINE
  5
864
  8
0
 10
279.78170721605579
 20
85.175079977185845
 30
0.0
 11
261.98170721605578
 21
81.82092997718587
 31
0.0
  0
ARC
  5
865
  8
0
 10
261.62987194759808
 20
83.688070021175406
 30
0.0
 40
1.8999999999999999
 50
100.67142040090791
 51
280.67142040090789
  0
LINE
  5
866
  8
1
 10
270.529871947598
 20
14.85882002117542
 30
0.0
 11
270.529871947598
 21
147.3588200211754
 31
0.0
  0
LINE
  5
867
  8
0
 10
283.029871947598
 20
44.858820021175397
 30
0.0
 11
283.029871947598
 21
19.858820021175401
 31
0.0
  0
LINE
  5
868
  8
0
 10
258.029871947598
 20
44.858820021175397
 30
0.0
 11
258.029871947598
 21
19.858820021175401
 31
0.0
  0
LINE
  5
86B
  8
0
 10
258.029871947598
 20
19.858820021175401
 30
0.0
 11
283.029871947598
 21
19.858820021175401
 31
0.0
  0
POINT
  5
86E
  8
0
 10
265.52987194759811
 20
19.858820021175401
 30
0.0
  0
POINT
  5
86F
  8
0
 10
275.529871947598
 20
19.858820021175401
 30
0.0
  0
LINE
  5
870
  8
0
 10
272.35390964677981
 20
70.358820021175347
 30
0.0
 11
275.529871947598
 21
70.358820021175347
 31
0.0
  0
LINE
  5
872
  8
1
 10
266.37987194759808
 20
54.85882002117534
 30
0.0
 11
274.67987194759797
 21
54.858820021175291
 31
0.0
  0
LINE
  5
873
  8
0
 10
258.029871947598
 20
44.858820021175397
 30
0.0
 11
283.029871947598
 21
44.858820021175397
 31
0.0
  0
LINE
  5
874
  8
1
 10
253.02987194759811
 20
32.358820021175397
 30
0.0
 11
288.029871947598
 21
32.358820021175397
 31
0.0
  0
LINE
  5
877
  8
0
 10
279.07803667914038
 20
68.784460065164922
 30
0.0
 11
261.27803667914031
 21
65.430310065164917
 31
0.0
  0
LINE
  5
878
  8
0
 10
279.78170721605579
 20
71.758479977185857
 30
0.0
 11
261.98170721605578
 21
68.404329977185853
 31
0.0
  0
LINE
  5
879
  8
0
 10
279.07803667914033
 20
75.492760065164916
 30
0.0
 11
261.27803667914031
 21
72.138610065164926
 31
0.0
  0
LINE
  5
87A
  8
0
 10
279.78170721605579
 20
78.466779977185865
 30
0.0
 11
261.98170721605578
 21
75.112629977185861
 31
0.0
  0
LINE
  5
87B
  8
0
 10
279.07803667914033
 20
82.201060065164924
 30
0.0
 11
261.27803667914031
 21
78.846910065164934
 31
0.0
  0
LINE
  5
87C
  8
0
 10
279.78170721605579
 20
51.633579977185832
 30
0.0
 11
261.98170721605578
 21
48.279429977185828
 31
0.0
  0
LINE
  5
87D
  8
0
 10
279.07803667914038
 20
55.367860065164933
 30
0.0
 11
261.27803667914031
 21
52.013710065164929
 31
0.0
  0
LINE
  5
87E
  8
0
 10
279.78170721605579
 20
58.34187997718584
 30
0.0
 11
261.98170721605578
 21
54.987729977185829
 31
0.0
  0
LINE
  5
87F
  8
0
 10
279.07803667914033
 20
62.076160065164942
 30
0.0
 11
261.27803667914031
 21
58.722010065164937
 31
0.0
  0
LINE
  5
880
  8
0
 10
279.78170721605579
 20
65.050179977185849
 30
0.0
 11
261.98170721605578
 21
61.696029977185837
 31
0.0
  0
LINE
  5
881
  8
0
 10
279.22468353444242
 20
48.681307978441957
 30
0.0
 11
261.42468353444241
 21
46.747707978441952
 31
0.0
  0
LINE
  5
882
  8
0
 10
258.029871947598
 20
44.858820021175397
 30
0.0
 11
283.029871947598
 21
44.858820021175397
 31
0.0
  0
ARC
  5
883
  8
0
 10
261.62987194759808
 20
56.854870021175401
 30
0.0
 40
1.8999999999999999
 50
100.67142040090791
 51
280.67142040090789
  0
LINE
  5
884
  8
0
 10
261.27803667914031
 20
54.987729977185829
 30
0.0
 11
266.37987194759808
 21
54.026363642034248
 31
0.0
  0
ARC
  5
885
  8
0
 10
261.62987194759808
 20
50.146570021175393
 30
0.0
 40
1.8999999999999999
 50
100.67142040090791
 51
280.67142040090789
  0
ARC
  5
886
  8
0
 10
261.62987194759808
 20
44.858820021175397
 30
0.0
 40
1.8999999999999999
 50
96.199685667784095
 51
180.0
  0
LINE
  5
887
  8
0
 10
263.72987194759799
 20
48.608846085854537
 30
0.0
 11
263.72987194759799
 21
46.998118782693503
 31
0.0
  0
LINE
  5
888
  8
0
 10
261.27803667914031
 20
48.279429977185828
 30
0.0
 11
263.7298719475981
 21
47.817417434169101
 31
0.0
  0
LINE
  5
889
  8
0
 10
263.7298719475981
 20
47.858820021175461
 30
0.0
 11
263.7298719475981
 21
47.858820021175461
 31
0.0
  0
LINE
  5
88A
  8
0
 10
268.02987194759811
 20
49.358820021175433
 30
0.0
 11
268.02987194759811
 21
49.41911827686576
 31
0.0
  0
LINE
  5
88C
  8
0
 10
266.37987194759808
 20
55.816499877989372
 30
0.0
 11
266.37987194759808
 21
52.975076400316482
 31
0.0
  0
ARC
  5
88D
  8
0
 10
261.62987194759808
 20
70.271470021175389
 30
0.0
 40
1.8999999999999999
 50
100.67142040090791
 51
280.67142040090829
  0
LINE
  5
88E
  8
0
 10
261.27803667914031
 20
68.404329977185853
 30
0.0
 11
265.52987194759811
 21
67.603133726303952
 31
0.0
  0
LINE
  5
88F
  8
0
 10
261.27803667914031
 20
61.696029977185837
 30
0.0
 11
265.52987194759811
 21
60.894833726303908
 31
0.0
  0
ARC
  5
890
  8
0
 10
261.62987194759808
 20
63.563170021175381
 30
0.0
 40
1.8999999999999999
 50
100.67142040090791
 51
280.67142040090789
  0
LINE
  5
891
  8
0
 10
265.52987194759811
 20
60.858820021175347
 30
0.0
 11
266.42987194759809
 21
60.858820021175347
 31
0.0
  0
LINE
  5
892
  8
0
 10
266.42987194759809
 20
59.692798169979433
 30
0.0
 11
266.42987194759809
 21
60.858820021175347
 31
0.0
  0
LINE
  5
893
  8
0
 10
265.52987194759811
 20
60.858820021175347
 30
0.0
 11
265.52987194759811
 21
62.364629793719701
 31
0.0
  0
LINE
  5
894
  8
0
 10
265.52987194759811
 20
66.231506316046818
 30
0.0
 11
265.52987194759811
 21
69.07292979371968
 31
0.0
  0
LINE
  5
895
  8
0
 10
261.27803667914031
 20
81.82092997718587
 30
0.0
 11
265.52987194759811
 21
81.019733726303954
 31
0.0
  0
LINE
  5
896
  8
0
 10
261.27803667914031
 20
75.112629977185861
 30
0.0
 11
265.52987194759811
 21
74.31143372630396
 31
0.0
  0
ARC
  5
897
  8
0
 10
261.62987194759808
 20
76.979770021175383
 30
0.0
 40
1.8999999999999999
 50
100.67142040090791
 51
280.67142040090789
  0
LINE
  5
898
  8
2
 10
266.529871947598
 20
75.969665186978091
 30
0.0
 11
266.529871947598
 21
73.128241709305243
 31
0.0
  0
LINE
  5
899
  8
0
 10
265.52987194759811
 20
72.939806316046827
 30
0.0
 11
265.52987194759811
 21
75.781229793719717
 31
0.0
  0
LINE
  5
89A
  8
2
 10
266.529871947598
 20
82.677965186978156
 30
0.0
 11
266.529871947598
 21
79.836541709305195
 31
0.0
  0
LINE
  5
89B
  8
0
 10
265.52987194759811
 20
79.648106316046807
 30
0.0
 11
265.52987194759811
 21
82.489529793719726
 31
0.0
  0
LINE
  5
89C
  8
0
 10
274.67987194759797
 20
57.380513642034323
 30
0.0
 11
274.67987194759797
 21
54.539090164361419
 31
0.0
  0
LINE
  5
89D
  8
0
 10
277.32987194759812
 20
49.858820021175291
 30
0.0
 11
277.32987194759812
 21
48.475476086064297
 31
0.0
  0
LINE
  5
89E
  8
0
 10
277.32987194759801
 20
49.121572608181651
 30
0.0
 11
279.78170721605579
 21
48.659560065164953
 31
0.0
  0
ARC
  5
89F
  8
0
 10
279.42987194759809
 20
46.792420021175388
 30
0.0
 40
1.8999999999999999
 50
276.19968566778402
 51
96.199685667784095
  0
ARC
  5
8A0
  8
0
 10
279.42987194759809
 20
53.50072002117539
 30
0.0
 40
1.8999999999999999
 50
280.67142040090789
 51
100.67142040090791
  0
LINE
  5
8A1
  8
0
 10
274.67987194759797
 20
56.329226400316479
 30
0.0
 11
279.78170721605579
 21
55.367860065164933
 31
0.0
  0
LINE
  5
8A2
  8
0
 10
274.67987194759797
 20
50.672213642034301
 30
0.0
 11
274.67987194759797
 21
49.85882002117534
 31
0.0
  0
LINE
  5
8A3
  8
0
 10
274.67987194759797
 20
49.85882002117534
 30
0.0
 11
277.32987194759812
 21
49.858820021175291
 31
0.0
  0
LINE
  5
8A4
  8
0
 10
275.52987194759811
 20
68.115860248631066
 30
0.0
 11
275.529871947598
 21
70.957283726303984
 31
0.0
  0
LINE
  5
8A5
  8
0
 10
275.52987194759811
 20
61.407560248631121
 30
0.0
 11
275.52987194759811
 21
64.248983726303976
 31
0.0
  0
LINE
  5
8A6
  8
0
 10
275.52987194759811
 20
62.87735631604675
 30
0.0
 11
279.78170721605579
 21
62.076160065164942
 31
0.0
  0
ARC
  5
8A7
  8
0
 10
279.42987194759797
 20
60.20902002117537
 30
0.0
 40
1.8999999999999999
 50
280.67142040090789
 51
100.67142040090791
  0
LINE
  5
8A8
  8
0
 10
275.529871947598
 20
69.585656316046823
 30
0.0
 11
279.78170721605579
 21
68.784460065164922
 31
0.0
  0
ARC
  5
8A9
  8
0
 10
279.42987194759809
 20
66.917320021175385
 30
0.0
 40
1.8999999999999999
 50
280.67142040090789
 51
100.67142040090791
  0
LINE
  5
8AA
  8
2
 10
274.52987194759811
 20
70.768848333045526
 30
0.0
 11
274.52987194759811
 21
70.358820021175347
 31
0.0
  0
LINE
  5
8AB
  8
2
 10
275.529871947598
 20
69.358820021175333
 30
0.0
 11
274.52987194759811
 21
70.358820021175347
 31
0.0
  0
LINE
  5
8AC
  8
0
 10
275.529871947598
 20
76.293956316046831
 30
0.0
 11
279.78170721605579
 21
75.492760065164916
 31
0.0
  0
LINE
  5
8AD
  8
2
 10
274.52987194759811
 20
77.477148333045534
 30
0.0
 11
274.52987194759811
 21
74.635724855372672
 31
0.0
  0
LINE
  5
8AE
  8
0
 10
275.529871947598
 20
74.824160248631131
 30
0.0
 11
275.529871947598
 21
77.665583726303964
 31
0.0
  0
ARC
  5
8AF
  8
0
 10
279.42987194759797
 20
73.625620021175394
 30
0.0
 40
1.8999999999999999
 50
280.67142040090829
 51
100.67142040090791
  0
LINE
  5
8B0
  8
0
 10
275.529871947598
 20
83.002256316046797
 30
0.0
 11
279.78170721605579
 21
82.201060065164924
 31
0.0
  0
LINE
  5
8B1
  8
2
 10
274.52987194759811
 20
84.185448333045542
 30
0.0
 11
274.52987194759811
 21
81.344024855372652
 31
0.0
  0
LINE
  5
8B2
  8
0
 10
275.529871947598
 20
81.532460248631111
 30
0.0
 11
275.529871947598
 21
84.373883726303973
 31
0.0
  0
ARC
  5
8B3
  8
0
 10
279.42987194759797
 20
80.333920021175402
 30
0.0
 40
1.8999999999999999
 50
280.67142040090789
 51
100.67142040090791
  0
LINE
  5
8B4
  8
0
 10
278.02987194759811
 20
142.3588200211754
 30
0.0
 11
278.02987194759811
 21
112.3588200211754
 31
0.0
  0
LINE
  5
8B5
  8
0
 10
263.029871947598
 20
142.3588200211754
 30
0.0
 11
263.029871947598
 21
112.3588200211754
 31
0.0
  0
POLYLINE
  5
8BA
  8
0
 10
265.529871947598
 20
105.10882002117539
 30
0.0
 66
     1
 70
     8
  0
VERTEX
  8
0
  5
24E1
 10
265.530
 20
105.109
 30
0.000000
  70
    32
  0
VERTEX
  8
0
  5
24E2
 10
265.531
 20
105.090
 30
0.000000
  70
    32
  0
VERTEX
  8
0
  5
24E3
 10
265.536
 20
105.072
 30
0.000000
  70
    32
  0
VERTEX
  8
0
  5
24E4
 10
265.543
 20
105.054
 30
0.000000
  70
    32
  0
VERTEX
  8
0
  5
24E5
 10
265.554
 20
105.035
 30
0.000000
  70
    32
  0
VERTEX
  8
0
  5
24E6
 10
265.567
 20
105.017
 30
0.000000
  70
    32
  0
VERTEX
  8
0
  5
24E7
 10
265.584
 20
104.999
 30
0.000000
  70
    32
  0
VERTEX
  8
0
  5
24E8
 10
265.603
 20
104.981
 30
0.000000
  70
    32
  0
VERTEX
  8
0
  5
24E9
 10
265.626
 20
104.963
 30
0.000000
  70
    32
  0
VERTEX
  8
0
  5
24EA
 10
265.651
 20
104.944
 30
0.000000
  70
    32
  0
VERTEX
  8
0
  5
24EB
 10
265.680
 20
104.927
 30
0.000000
  70
    32
  0
VERTEX
  8
0
  5
24EC
 10
265.711
 20
104.909
 30
0.000000
  70
    32
  0
VERTEX
  8
0
  5
24ED
 10
265.745
 20
104.891
 30
0.000000
  70
    32
  0
VERTEX
  8
0
  5
24EE
 10
265.782
 20
104.874
 30
0.000000
  70
    32
  0
VERTEX
  8
0
  5
24EF
 10
265.822
 20
104.856
 30
0.000000
  70
    32
  0
VERTEX
  8
0
  5
24F0
 10
265.865
 20
104.839
 30
0.000000
  70
    32
  0
VERTEX
  8
0
  5
24F1
 10
265.910
 20
104.822
 30
0.000000
  70
    32
  0
VERTEX
  8
0
  5
24F2
 10
265.959
 20
104.805
 30
0.000000
  70
    32
  0
VERTEX
  8
0
  5
24F3
 10
266.010
 20
104.788
 30
0.000000
  70
    32
  0
VERTEX
  8
0
  5
24F4
 10
266.064
 20
104.772
 30
0.000000
  70
    32
  0
VERTEX
  8
0
  5
24F5
 10
266.120
 20
104.755
 30
0.000000
  70
    32
  0
VERTEX
  8
0
  5
24F6
 10
266.179
 20
104.739
 30
0.000000
  70
    32
  0
VERTEX
  8
0
  5
24F7
 10
266.241
 20
104.723
 30
0.000000
  70
    32
  0
VERTEX
  8
0
  5
24F8
 10
266.306
 20
104.708
 30
0.000000
  70
    32
  0
VERTEX
  8
0
  5
24F9
 10
266.373
 20
104.692
 30
0.000000
  70
    32
  0
VERTEX
  8
0
  5
24FA
 10
266.442
 20
104.677
 30
0.000000
  70
    32
  0
VERTEX
  8
0
  5
24FB
 10
266.514
 20
104.662
 30
0.000000
  70
    32
  0
VERTEX
  8
0
  5
24FC
 10
266.588
 20
104.647
 30
0.000000
  70
    32
  0
VERTEX
  8
0
  5
24FD
 10
266.665
 20
104.633
 30
0.000000
  70
    32
  0
VERTEX
  8
0
  5
24FE
 10
266.744
 20
104.619
 30
0.000000
  70
    32
  0
VERTEX
  8
0
  5
24FF
 10
266.825
 20
104.605
 30
0.000000
  70
    32
  0
VERTEX
  8
0
  5
2500
 10
266.909
 20
104.592
 30
0.000000
  70
    32
  0
VERTEX
  8
0
  5
2501
 10
266.994
 20
104.578
 30
0.000000
  70
    32
  0
VERTEX
  8
0
  5
2502
 10
267.082
 20
104.566
 30
0.000000
  70
    32
  0
VERTEX
  8
0
  5
2503
 10
267.172
 20
104.553
 30
0.000000
  70
    32
  0
VERTEX
  8
0
  5
2504
 10
267.264
 20
104.541
 30
0.000000
  70
    32
  0
VERTEX
  8
0
  5
2505
 10
267.358
 20
104.529
 30
0.000000
  70
    32
  0
VERTEX
  8
0
  5
2506
 10
267.454
 20
104.518
 30
0.000000
  70
    32
  0
VERTEX
  8
0
  5
2507
 10
267.551
 20
104.506
 30
0.000000
  70
    32
  0
VERTEX
  8
0
  5
2508
 10
267.651
 20
104.496
 30
0.000000
  70
    32
  0
VERTEX
  8
0
  5
2509
 10
267.752
 20
104.485
 30
0.000000
  70
    32
  0
VERTEX
  8
0
  5
250A
 10
267.855
 20
104.475
 30
0.000000
  70
    32
  0
VERTEX
  8
0
  5
250B
 10
267.959
 20
104.466
 30
0.000000
  70
    32
  0
VERTEX
  8
0
  5
250C
 10
268.065
 20
104.456
 30
0.000000
  70
    32
  0
VERTEX
  8
0
  5
250D
 10
268.173
 20
104.447
 30
0.000000
  70
    32
  0
VERTEX
  8
0
  5
250E
 10
268.282
 20
104.439
 30
0.000000
  70
    32
  0
VERTEX
  8
0
  5
250F
 10
268.392
 20
104.431
 30
0.000000
  70
    32
  0
VERTEX
  8
0
  5
2510
 10
268.504
 20
104.423
 30
0.000000
  70
    32
  0
VERTEX
  8
0
  5
2511
 10
268.616
 20
104.416
 30
0.000000
  70
    32
  0
VERTEX
  8
0
  5
2512
 10
268.730
 20
104.409
 30
0.000000
  70
    32
  0
VERTEX
  8
0
  5
2513
 10
268.845
 20
104.403
 30
0.000000
  70
    32
  0
VERTEX
  8
0
  5
2514
 10
268.961
 20
104.397
 30
0.000000
  70
    32
  0
VERTEX
  8
0
  5
2515
 10
269.078
 20
104.391
 30
0.000000
  70
    32
  0
VERTEX
  8
0
  5
2516
 10
269.196
 20
104.386
 30
0.000000
  70
    32
  0
VERTEX
  8
0
  5
2517
 10
269.315
 20
104.381
 30
0.000000
  70
    32
  0
VERTEX
  8
0
  5
2518
 10
269.434
 20
104.377
 30
0.000000
  70
    32
  0
VERTEX
  8
0
  5
2519
 10
269.554
 20
104.373
 30
0.000000
  70
    32
  0
VERTEX
  8
0
  5
251A
 10
269.675
 20
104.370
 30
0.000000
  70
    32
  0
VERTEX
  8
0
  5
251B
 10
269.796
 20
104.367
 30
0.000000
  70
    32
  0
VERTEX
  8
0
  5
251C
 10
269.918
 20
104.364
 30
0.000000
  70
    32
  0
VERTEX
  8
0
  5
251D
 10
270.040
 20
104.362
 30
0.000000
  70
    32
  0
VERTEX
  8
0
  5
251E
 10
270.162
 20
104.361
 30
0.000000
  70
    32
  0
VERTEX
  8
0
  5
251F
 10
270.285
 20
104.360
 30
0.000000
  70
    32
  0
VERTEX
  8
0
  5
2520
 10
270.407
 20
104.359
 30
0.000000
  70
    32
  0
VERTEX
  8
0
  5
2521
 10
270.530
 20
104.359
 30
0.000000
  70
    32
  0
VERTEX
  8
0
  5
2522
 10
270.653
 20
104.359
 30
0.000000
  70
    32
  0
VERTEX
  8
0
  5
2523
 10
270.775
 20
104.360
 30
0.000000
  70
    32
  0
VERTEX
  8
0
  5
2524
 10
270.898
 20
104.361
 30
0.000000
  70
    32
  0
VERTEX
  8
0
  5
2525
 10
271.020
 20
104.362
 30
0.000000
  70
    32
  0
VERTEX
  8
0
  5
2526
 10
271.142
 20
104.364
 30
0.000000
  70
    32
  0
VERTEX
  8
0
  5
2527
 10
271.264
 20
104.367
 30
0.000000
  70
    32
  0
VERTEX
  8
0
  5
2528
 10
271.385
 20
104.370
 30
0.000000
  70
    32
  0
VERTEX
  8
0
  5
2529
 10
271.505
 20
104.373
 30
0.000000
  70
    32
  0
VERTEX
  8
0
  5
252A
 10
271.625
 20
104.377
 30
0.000000
  70
    32
  0
VERTEX
  8
0
  5
252B
 10
271.745
 20
104.381
 30
0.000000
  70
    32
  0
VERTEX
  8
0
  5
252C
 10
271.863
 20
104.386
 30
0.000000
  70
    32
  0
VERTEX
  8
0
  5
252D
 10
271.981
 20
104.391
 30
0.000000
  70
    32
  0
VERTEX
  8
0
  5
252E
 10
272.098
 20
104.397
 30
0.000000
  70
    32
  0
VERTEX
  8
0
  5
252F
 10
272.214
 20
104.403
 30
0.000000
  70
    32
  0
VERTEX
  8
0
  5
2530
 10
272.329
 20
104.409
 30
0.000000
  70
    32
  0
VERTEX
  8
0
  5
2531
 10
272.443
 20
104.416
 30
0.000000
  70
    32
  0
VERTEX
  8
0
  5
2532
 10
272.556
 20
104.423
 30
0.000000
  70
    32
  0
VERTEX
  8
0
  5
2533
 10
272.668
 20
104.431
 30
0.000000
  70
    32
  0
VERTEX
  8
0
  5
2534
 10
272.778
 20
104.439
 30
0.000000
  70
    32
  0
VERTEX
  8
0
  5
2535
 10
272.887
 20
104.447
 30
0.000000
  70
    32
  0
VERTEX
  8
0
  5
2536
 10
272.994
 20
104.456
 30
0.000000
  70
    32
  0
VERTEX
  8
0
  5
2537
 10
273.100
 20
104.466
 30
0.000000
  70
    32
  0
VERTEX
  8
0
  5
2538
 10
273.205
 20
104.475
 30
0.000000
  70
    32
  0
VERTEX
  8
0
  5
2539
 10
273.308
 20
104.485
 30
0.000000
  70
    32
  0
VERTEX
  8
0
  5
253A
 10
273.409
 20
104.496
 30
0.000000
  70
    32
  0
VERTEX
  8
0
  5
253B
 10
273.508
 20
104.506
 30
0.000000
  70
    32
  0
VERTEX
  8
0
  5
253C
 10
273.606
 20
104.518
 30
0.000000
  70
    32
  0
VERTEX
  8
0
  5
253D
 10
273.702
 20
104.529
 30
0.000000
  70
    32
  0
VERTEX
  8
0
  5
253E
 10
273.796
 20
104.541
 30
0.000000
  70
    32
  0
VERTEX
  8
0
  5
253F
 10
273.888
 20
104.553
 30
0.000000
  70
    32
  0
VERTEX
  8
0
  5
2540
 10
273.978
 20
104.566
 30
0.000000
  70
    32
  0
VERTEX
  8
0
  5
2541
 10
274.065
 20
104.578
 30
0.000000
  70
    32
  0
VERTEX
  8
0
  5
2542
 10
274.151
 20
104.592
 30
0.000000
  70
    32
  0
VERTEX
  8
0
  5
2543
 10
274.235
 20
104.605
 30
0.000000
  70
    32
  0
VERTEX
  8
0
  5
2544
 10
274.316
 20
104.619
 30
0.000000
  70
    32
  0
VERTEX
  8
0
  5
2545
 10
274.395
 20
104.633
 30
0.000000
  70
    32
  0
VERTEX
  8
0
  5
2546
 10
274.472
 20
104.647
 30
0.000000
  70
    32
  0
VERTEX
  8
0
  5
2547
 10
274.546
 20
104.662
 30
0.000000
  70
    32
  0
VERTEX
  8
0
  5
2548
 10
274.618
 20
104.677
 30
0.000000
  70
    32
  0
VERTEX
  8
0
  5
2549
 10
274.687
 20
104.692
 30
0.000000
  70
    32
  0
VERTEX
  8
0
  5
254A
 10
274.754
 20
104.708
 30
0.000000
  70
    32
  0
VERTEX
  8
0
  5
254B
 10
274.819
 20
104.723
 30
0.000000
  70
    32
  0
VERTEX
  8
0
  5
254C
 10
274.880
 20
104.739
 30
0.000000
  70
    32
  0
VERTEX
  8
0
  5
254D
 10
274.939
 20
104.755
 30
0.000000
  70
    32
  0
VERTEX
  8
0
  5
254E
 10
274.996
 20
104.772
 30
0.000000
  70
    32
  0
VERTEX
  8
0
  5
254F
 10
275.050
 20
104.788
 30
0.000000
  70
    32
  0
VERTEX
  8
0
  5
2550
 10
275.101
 20
104.805
 30
0.000000
  70
    32
  0
VERTEX
  8
0
  5
2551
 10
275.149
 20
104.822
 30
0.000000
  70
    32
  0
VERTEX
  8
0
  5
2552
 10
275.195
 20
104.839
 30
0.000000
  70
    32
  0
VERTEX
  8
0
  5
2553
 10
275.238
 20
104.856
 30
0.000000
  70
    32
  0
VERTEX
  8
0
  5
2554
 10
275.278
 20
104.874
 30
0.000000
  70
    32
  0
VERTEX
  8
0
  5
2555
 10
275.315
 20
104.891
 30
0.000000
  70
    32
  0
VERTEX
  8
0
  5
2556
 10
275.349
 20
104.909
 30
0.000000
  70
    32
  0
VERTEX
  8
0
  5
2557
 10
275.380
 20
104.927
 30
0.000000
  70
    32
  0
VERTEX
  8
0
  5
2558
 10
275.408
 20
104.944
 30
0.000000
  70
    32
  0
VERTEX
  8
0
  5
2559
 10
275.434
 20
104.963
 30
0.000000
  70
    32
  0
VERTEX
  8
0
  5
255A
 10
275.456
 20
104.981
 30
0.000000
  70
    32
  0
VERTEX
  8
0
  5
255B
 10
275.476
 20
104.999
 30
0.000000
  70
    32
  0
VERTEX
  8
0
  5
255C
 10
275.492
 20
105.017
 30
0.000000
  70
    32
  0
VERTEX
  8
0
  5
255D
 10
275.506
 20
105.035
 30
0.000000
  70
    32
  0
VERTEX
  8
0
  5
255E
 10
275.516
 20
105.054
 30
0.000000
  70
    32
  0
VERTEX
  8
0
  5
255F
 10
275.524
 20
105.072
 30
0.000000
  70
    32
  0
VERTEX
  8
0
  5
2560
 10
275.528
 20
105.090
 30
0.000000
  70
    32
  0
VERTEX
  8
0
  5
2561
 10
275.530
 20
105.109
 30
0.000000
  70
    32
  0
SEQEND
  8
0
  5
2562
  0
POLYLINE
  5
8BB
  8
0
 10
275.529871947598
 20
111.6088200211754
 30
0.0
 66
     1
 70
     8
  0
VERTEX
  8
0
  5
2563
 10
275.530
 20
111.609
 30
0.000000
  70
    32
  0
VERTEX
  8
0
  5
2564
 10
275.528
 20
111.627
 30
0.000000
  70
    32
  0
VERTEX
  8
0
  5
2565
 10
275.524
 20
111.646
 30
0.000000
  70
    32
  0
VERTEX
  8
0
  5
2566
 10
275.516
 20
111.664
 30
0.000000
  70
    32
  0
VERTEX
  8
0
  5
2567
 10
275.506
 20
111.682
 30
0.000000
  70
    32
  0
VERTEX
  8
0
  5
2568
 10
275.492
 20
111.701
 30
0.000000
  70
    32
  0
VERTEX
  8
0
  5
2569
 10
275.476
 20
111.719
 30
0.000000
  70
    32
  0
VERTEX
  8
0
  5
256A
 10
275.456
 20
111.737
 30
0.000000
  70
    32
  0
VERTEX
  8
0
  5
256B
 10
275.434
 20
111.755
 30
0.000000
  70
    32
  0
VERTEX
  8
0
  5
256C
 10
275.408
 20
111.773
 30
0.000000
  70
    32
  0
VERTEX
  8
0
  5
256D
 10
275.380
 20
111.791
 30
0.000000
  70
    32
  0
VERTEX
  8
0
  5
256E
 10
275.349
 20
111.809
 30
0.000000
  70
    32
  0
VERTEX
  8
0
  5
256F
 10
275.315
 20
111.827
 30
0.000000
  70
    32
  0
VERTEX
  8
0
  5
2570
 10
275.278
 20
111.844
 30
0.000000
  70
    32
  0
VERTEX
  8
0
  5
2571
 10
275.238
 20
111.861
 30
0.000000
  70
    32
  0
VERTEX
  8
0
  5
2572
 10
275.195
 20
111.879
 30
0.000000
  70
    32
  0
VERTEX
  8
0
  5
2573
 10
275.149
 20
111.896
 30
0.000000
  70
    32
  0
VERTEX
  8
0
  5
2574
 10
275.101
 20
111.913
 30
0.000000
  70
    32
  0
VERTEX
  8
0
  5
2575
 10
275.050
 20
111.929
 30
0.000000
  70
    32
  0
VERTEX
  8
0
  5
2576
 10
274.996
 20
111.946
 30
0.000000
  70
    32
  0
VERTEX
  8
0
  5
2577
 10
274.939
 20
111.962
 30
0.000000
  70
    32
  0
VERTEX
  8
0
  5
2578
 10
274.880
 20
111.978
 30
0.000000
  70
    32
  0
VERTEX
  8
0
  5
2579
 10
274.819
 20
111.994
 30
0.000000
  70
    32
  0
VERTEX
  8
0
  5
257A
 10
274.754
 20
112.010
 30
0.000000
  70
    32
  0
VERTEX
  8
0
  5
257B
 10
274.687
 20
112.025
 30
0.000000
  70
    32
  0
VERTEX
  8
0
  5
257C
 10
274.618
 20
112.041
 30
0.000000
  70
    32
  0
VERTEX
  8
0
  5
257D
 10
274.546
 20
112.056
 30
0.000000
  70
    32
  0
VERTEX
  8
0
  5
257E
 10
274.472
 20
112.070
 30
0.000000
  70
    32
  0
VERTEX
  8
0
  5
257F
 10
274.395
 20
112.085
 30
0.000000
  70
    32
  0
VERTEX
  8
0
  5
2580
 10
274.316
 20
112.099
 30
0.000000
  70
    32
  0
VERTEX
  8
0
  5
2581
 10
274.235
 20
112.112
 30
0.000000
  70
    32
  0
VERTEX
  8
0
  5
2582
 10
274.151
 20
112.126
 30
0.000000
  70
    32
  0
VERTEX
  8
0
  5
2583
 10
274.065
 20
112.139
 30
0.000000
  70
    32
  0
VERTEX
  8
0
  5
2584
 10
273.978
 20
112.152
 30
0.000000
  70
    32
  0
VERTEX
  8
0
  5
2585
 10
273.888
 20
112.165
 30
0.000000
  70
    32
  0
VERTEX
  8
0
  5
2586
 10
273.796
 20
112.177
 30
0.000000
  70
    32
  0
VERTEX
  8
0
  5
2587
 10
273.702
 20
112.189
 30
0.000000
  70
    32
  0
VERTEX
  8
0
  5
2588
 10
273.606
 20
112.200
 30
0.000000
  70
    32
  0
VERTEX
  8
0
  5
2589
 10
273.508
 20
112.211
 30
0.000000
  70
    32
  0
VERTEX
  8
0
  5
258A
 10
273.409
 20
112.222
 30
0.000000
  70
    32
  0
VERTEX
  8
0
  5
258B
 10
273.308
 20
112.232
 30
0.000000
  70
    32
  0
VERTEX
  8
0
  5
258C
 10
273.205
 20
112.242
 30
0.000000
  70
    32
  0
VERTEX
  8
0
  5
258D
 10
273.100
 20
112.252
 30
0.000000
  70
    32
  0
VERTEX
  8
0
  5
258E
 10
272.994
 20
112.261
 30
0.000000
  70
    32
  0
VERTEX
  8
0
  5
258F
 10
272.887
 20
112.270
 30
0.000000
  70
    32
  0
VERTEX
  8
0
  5
2590
 10
272.778
 20
112.279
 30
0.000000
  70
    32
  0
VERTEX
  8
0
  5
2591
 10
272.668
 20
112.287
 30
0.000000
  70
    32
  0
VERTEX
  8
0
  5
2592
 10
272.556
 20
112.294
 30
0.000000
  70
    32
  0
VERTEX
  8
0
  5
2593
 10
272.443
 20
112.302
 30
0.000000
  70
    32
  0
VERTEX
  8
0
  5
2594
 10
272.329
 20
112.309
 30
0.000000
  70
    32
  0
VERTEX
  8
0
  5
2595
 10
272.214
 20
112.315
 30
0.000000
  70
    32
  0
VERTEX
  8
0
  5
2596
 10
272.098
 20
112.321
 30
0.000000
  70
    32
  0
VERTEX
  8
0
  5
2597
 10
271.981
 20
112.327
 30
0.000000
  70
    32
  0
VERTEX
  8
0
  5
2598
 10
271.863
 20
112.332
 30
0.000000
  70
    32
  0
VERTEX
  8
0
  5
2599
 10
271.745
 20
112.336
 30
0.000000
  70
    32
  0
VERTEX
  8
0
  5
259A
 10
271.625
 20
112.341
 30
0.000000
  70
    32
  0
VERTEX
  8
0
  5
259B
 10
271.505
 20
112.344
 30
0.000000
  70
    32
  0
VERTEX
  8
0
  5
259C
 10
271.385
 20
112.348
 30
0.000000
  70
    32
  0
VERTEX
  8
0
  5
259D
 10
271.264
 20
112.351
 30
0.000000
  70
    32
  0
VERTEX
  8
0
  5
259E
 10
271.142
 20
112.353
 30
0.000000
  70
    32
  0
VERTEX
  8
0
  5
259F
 10
271.020
 20
112.355
 30
0.000000
  70
    32
  0
VERTEX
  8
0
  5
25A0
 10
270.898
 20
112.357
 30
0.000000
  70
    32
  0
VERTEX
  8
0
  5
25A1
 10
270.775
 20
112.358
 30
0.000000
  70
    32
  0
VERTEX
  8
0
  5
25A2
 10
270.653
 20
112.359
 30
0.000000
  70
    32
  0
VERTEX
  8
0
  5
25A3
 10
270.530
 20
112.359
 30
0.000000
  70
    32
  0
VERTEX
  8
0
  5
25A4
 10
270.407
 20
112.359
 30
0.000000
  70
    32
  0
VERTEX
  8
0
  5
25A5
 10
270.285
 20
112.358
 30
0.000000
  70
    32
  0
VERTEX
  8
0
  5
25A6
 10
270.162
 20
112.357
 30
0.000000
  70
    32
  0
VERTEX
  8
0
  5
25A7
 10
270.040
 20
112.355
 30
0.000000
  70
    32
  0
VERTEX
  8
0
  5
25A8
 10
269.918
 20
112.353
 30
0.000000
  70
    32
  0
VERTEX
  8
0
  5
25A9
 10
269.796
 20
112.351
 30
0.000000
  70
    32
  0
VERTEX
  8
0
  5
25AA
 10
269.675
 20
112.348
 30
0.000000
  70
    32
  0
VERTEX
  8
0
  5
25AB
 10
269.554
 20
112.344
 30
0.000000
  70
    32
  0
VERTEX
  8
0
  5
25AC
 10
269.434
 20
112.341
 30
0.000000
  70
    32
  0
VERTEX
  8
0
  5
25AD
 10
269.315
 20
112.336
 30
0.000000
  70
    32
  0
VERTEX
  8
0
  5
25AE
 10
269.196
 20
112.332
 30
0.000000
  70
    32
  0
VERTEX
  8
0
  5
25AF
 10
269.078
 20
112.327
 30
0.000000
  70
    32
  0
VERTEX
  8
0
  5
25B0
 10
268.961
 20
112.321
 30
0.000000
  70
    32
  0
VERTEX
  8
0
  5
25B1
 10
268.845
 20
112.315
 30
0.000000
  70
    32
  0
VERTEX
  8
0
  5
25B2
 10
268.730
 20
112.309
 30
0.000000
  70
    32
  0
VERTEX
  8
0
  5
25B3
 10
268.616
 20
112.302
 30
0.000000
  70
    32
  0
VERTEX
  8
0
  5
25B4
 10
268.504
 20
112.294
 30
0.000000
  70
    32
  0
VERTEX
  8
0
  5
25B5
 10
268.392
 20
112.287
 30
0.000000
  70
    32
  0
VERTEX
  8
0
  5
25B6
 10
268.282
 20
112.279
 30
0.000000
  70
    32
  0
VERTEX
  8
0
  5
25B7
 10
268.173
 20
112.270
 30
0.000000
  70
    32
  0
VERTEX
  8
0
  5
25B8
 10
268.065
 20
112.261
 30
0.000000
  70
    32
  0
VERTEX
  8
0
  5
25B9
 10
267.959
 20
112.252
 30
0.000000
  70
    32
  0
VERTEX
  8
0
  5
25BA
 10
267.855
 20
112.242
 30
0.000000
  70
    32
  0
VERTEX
  8
0
  5
25BB
 10
267.752
 20
112.232
 30
0.000000
  70
    32
  0
VERTEX
  8
0
  5
25BC
 10
267.651
 20
112.222
 30
0.000000
  70
    32
  0
VERTEX
  8
0
  5
25BD
 10
267.551
 20
112.211
 30
0.000000
  70
    32
  0
VERTEX
  8
0
  5
25BE
 10
267.454
 20
112.200
 30
0.000000
  70
    32
  0
VERTEX
  8
0
  5
25BF
 10
267.358
 20
112.189
 30
0.000000
  70
    32
  0
VERTEX
  8
0
  5
25C0
 10
267.264
 20
112.177
 30
0.000000
  70
    32
  0
VERTEX
  8
0
  5
25C1
 10
267.172
 20
112.165
 30
0.000000
  70
    32
  0
VERTEX
  8
0
  5
25C2
 10
267.082
 20
112.152
 30
0.000000
  70
    32
  0
VERTEX
  8
0
  5
25C3
 10
266.994
 20
112.139
 30
0.000000
  70
    32
  0
VERTEX
  8
0
  5
25C4
 10
266.909
 20
112.126
 30
0.000000
  70
    32
  0
VERTEX
  8
0
  5
25C5
 10
266.825
 20
112.112
 30
0.000000
  70
    32
  0
VERTEX
  8
0
  5
25C6
 10
266.744
 20
112.099
 30
0.000000
  70
    32
  0
VERTEX
  8
0
  5
25C7
 10
266.665
 20
112.085
 30
0.000000
  70
    32
  0
VERTEX
  8
0
  5
25C8
 10
266.588
 20
112.070
 30
0.000000
  70
    32
  0
VERTEX
  8
0
  5
25C9
 10
266.514
 20
112.056
 30
0.000000
  70
    32
  0
VERTEX
  8
0
  5
25CA
 10
266.442
 20
112.041
 30
0.000000
  70
    32
  0
VERTEX
  8
0
  5
25CB
 10
266.373
 20
112.025
 30
0.000000
  70
    32
  0
VERTEX
  8
0
  5
25CC
 10
266.306
 20
112.010
 30
0.000000
  70
    32
  0
VERTEX
  8
0
  5
25CD
 10
266.241
 20
111.994
 30
0.000000
  70
    32
  0
VERTEX
  8
0
  5
25CE
 10
266.179
 20
111.978
 30
0.000000
  70
    32
  0
VERTEX
  8
0
  5
25CF
 10
266.120
 20
111.962
 30
0.000000
  70
    32
  0
VERTEX
  8
0
  5
25D0
 10
266.064
 20
111.946
 30
0.000000
  70
    32
  0
VERTEX
  8
0
  5
25D1
 10
266.010
 20
111.929
 30
0.000000
  70
    32
  0
VERTEX
  8
0
  5
25D2
 10
265.959
 20
111.913
 30
0.000000
  70
    32
  0
VERTEX
  8
0
  5
25D3
 10
265.910
 20
111.896
 30
0.000000
  70
    32
  0
VERTEX
  8
0
  5
25D4
 10
265.865
 20
111.879
 30
0.000000
  70
    32
  0
VERTEX
  8
0
  5
25D5
 10
265.822
 20
111.861
 30
0.000000
  70
    32
  0
VERTEX
  8
0
  5
25D6
 10
265.782
 20
111.844
 30
0.000000
  70
    32
  0
VERTEX
  8
0
  5
25D7
 10
265.745
 20
111.827
 30
0.000000
  70
    32
  0
VERTEX
  8
0
  5
25D8
 10
265.711
 20
111.809
 30
0.000000
  70
    32
  0
VERTEX
  8
0
  5
25D9
 10
265.680
 20
111.791
 30
0.000000
  70
    32
  0
VERTEX
  8
0
  5
25DA
 10
265.651
 20
111.773
 30
0.000000
  70
    32
  0
VERTEX
  8
0
  5
25DB
 10
265.626
 20
111.755
 30
0.000000
  70
    32
  0
VERTEX
  8
0
  5
25DC
 10
265.603
 20
111.737
 30
0.000000
  70
    32
  0
VERTEX
  8
0
  5
25DD
 10
265.584
 20
111.719
 30
0.000000
  70
    32
  0
VERTEX
  8
0
  5
25DE
 10
265.567
 20
111.701
 30
0.000000
  70
    32
  0
VERTEX
  8
0
  5
25DF
 10
265.554
 20
111.682
 30
0.000000
  70
    32
  0
VERTEX
  8
0
  5
25E0
 10
265.543
 20
111.664
 30
0.000000
  70
    32
  0
VERTEX
  8
0
  5
25E1
 10
265.536
 20
111.646
 30
0.000000
  70
    32
  0
VERTEX
  8
0
  5
25E2
 10
265.531
 20
111.627
 30
0.000000
  70
    32
  0
VERTEX
  8
0
  5
25E3
 10
265.530
 20
111.609
 30
0.000000
  70
    32
  0
SEQEND
  8
0
  5
25E4
  0
LINE
  5
8BC
  8
0
 10
258.02987194759839
 20
102.3588200211754
 30
0.0
 11
283.02987194759839
 21
102.3588200211753
 31
0.0
  0
LINE
  5
8BD
  8
0
 10
279.07803667914033
 20
95.617660065164955
 30
0.0
 11
261.27803667914031
 21
92.263510065164951
 31
0.0
  0
LINE
  5
8BE
  8
0
 10
279.07803667914033
 20
88.909360065164947
 30
0.0
 11
261.27803667914031
 21
85.555210065164943
 31
0.0
  0
LINE
  5
8BF
  8
0
 10
279.78170721605579
 20
91.883379977185854
 30
0.0
 11
261.98170721605578
 21
88.529229977185835
 31
0.0
  0
LINE
  5
8C0
  8
0
 10
279.78170721605579
 20
98.591679977185834
 30
0.0
 11
261.98170721605578
 21
95.237529977185858
 31
0.0
  0
LINE
  5
8C1
  8
0
 10
279.07803667914033
 20
102.32596006516491
 30
0.0
 11
261.27803667914031
 21
98.971810065164931
 31
0.0
  0
LINE
  5
8C2
  8
0
 10
277.32987194759801
 20
102.3588200211754
 30
0.0
 11
257.52987194759811
 21
102.3588200211754
 31
0.0
  0
LINE
  5
8C3
  8
0
 10
283.529871947598
 20
104.3588200211754
 30
0.0
 11
257.52987194759811
 21
104.3588200211754
 31
0.0
  0
LINE
  5
8C4
  8
0
 10
276.82987194759812
 20
89.358820021175404
 30
0.0
 11
266.38422433157359
 21
89.358820021175404
 31
0.0
  0
LINE
  5
8C5
  8
0
 10
263.029871947598
 20
112.3588200211754
 30
0.0
 11
278.02987194759811
 21
112.3588200211754
 31
0.0
  0
LINE
  5
8C6
  8
1
 10
258.029871947598
 20
132.3588200211754
 30
0.0
 11
283.02987194759811
 21
132.3588200211754
 31
0.0
  0
LINE
  5
8C7
  8
0
 10
261.27803667914031
 20
88.529229977185835
 30
0.0
 11
265.52987194759811
 21
87.728033726303977
 31
0.0
  0
ARC
  5
8C8
  8
0
 10
261.62987194759808
 20
90.396370021175414
 30
0.0
 40
1.8999999999999999
 50
100.67142040090791
 51
280.67142040090789
  0
ARC
  5
8C9
  8
0
 10
261.62987194759808
 20
97.104670021175394
 30
0.0
 40
1.8999999999999999
 50
100.67142040090791
 51
280.67142040090789
  0
LINE
  5
8CA
  8
0
 10
263.72987194759799
 20
95.566946085854539
 30
0.0
 11
263.72987194759799
 21
92.725522608181635
 31
0.0
  0
LINE
  5
8CB
  8
0
 10
261.27803667914031
 20
95.237529977185858
 30
0.0
 11
263.72987194759799
 21
94.775517434169146
 31
0.0
  0
LINE
  5
8CC
  8
2
 10
266.529871947598
 20
89.386265186978108
 30
0.0
 11
266.529871947598
 21
86.544841709305274
 31
0.0
  0
LINE
  5
8CD
  8
0
 10
265.52987194759811
 20
86.356406316046844
 30
0.0
 11
265.52987194759811
 21
89.197829793719677
 31
0.0
  0
POLYLINE
  5
8CE
  8
0
 10
261.02987194759811
 20
105.1088200211754
 30
0.0
 66
     1
 70
     8
  0
VERTEX
  8
0
  5
25E5
 10
261.030
 20
105.109
 30
0.000000
  70
    32
  0
VERTEX
  8
0
  5
25E6
 10
261.031
 20
105.090
 30
0.000000
  70
    32
  0
VERTEX
  8
0
  5
25E7
 10
261.033
 20
105.072
 30
0.000000
  70
    32
  0
VERTEX
  8
0
  5
25E8
 10
261.036
 20
105.054
 30
0.000000
  70
    32
  0
VERTEX
  8
0
  5
25E9
 10
261.041
 20
105.035
 30
0.000000
  70
    32
  0
VERTEX
  8
0
  5
25EA
 10
261.047
 20
105.017
 30
0.000000
  70
    32
  0
VERTEX
  8
0
  5
25EB
 10
261.054
 20
104.999
 30
0.000000
  70
    32
  0
VERTEX
  8
0
  5
25EC
 10
261.063
 20
104.981
 30
0.000000
  70
    32
  0
VERTEX
  8
0
  5
25ED
 10
261.073
 20
104.963
 30
0.000000
  70
    32
  0
VERTEX
  8
0
  5
25EE
 10
261.085
 20
104.944
 30
0.000000
  70
    32
  0
VERTEX
  8
0
  5
25EF
 10
261.097
 20
104.927
 30
0.000000
  70
    32
  0
VERTEX
  8
0
  5
25F0
 10
261.111
 20
104.909
 30
0.000000
  70
    32
  0
VERTEX
  8
0
  5
25F1
 10
261.127
 20
104.891
 30
0.000000
  70
    32
  0
VERTEX
  8
0
  5
25F2
 10
261.143
 20
104.874
 30
0.000000
  70
    32
  0
VERTEX
  8
0
  5
25F3
 10
261.161
 20
104.856
 30
0.000000
  70
    32
  0
VERTEX
  8
0
  5
25F4
 10
261.181
 20
104.839
 30
0.000000
  70
    32
  0
VERTEX
  8
0
  5
25F5
 10
261.201
 20
104.822
 30
0.000000
  70
    32
  0
VERTEX
  8
0
  5
25F6
 10
261.223
 20
104.805
 30
0.000000
  70
    32
  0
VERTEX
  8
0
  5
25F7
 10
261.246
 20
104.788
 30
0.000000
  70
    32
  0
VERTEX
  8
0
  5
25F8
 10
261.270
 20
104.772
 30
0.000000
  70
    32
  0
VERTEX
  8
0
  5
25F9
 10
261.296
 20
104.755
 30
0.000000
  70
    32
  0
VERTEX
  8
0
  5
25FA
 10
261.322
 20
104.739
 30
0.000000
  70
    32
  0
VERTEX
  8
0
  5
25FB
 10
261.350
 20
104.723
 30
0.000000
  70
    32
  0
VERTEX
  8
0
  5
25FC
 10
261.379
 20
104.708
 30
0.000000
  70
    32
  0
VERTEX
  8
0
  5
25FD
 10
261.409
 20
104.692
 30
0.000000
  70
    32
  0
VERTEX
  8
0
  5
25FE
 10
261.440
 20
104.677
 30
0.000000
  70
    32
  0
VERTEX
  8
0
  5
25FF
 10
261.473
 20
104.662
 30
0.000000
  70
    32
  0
VERTEX
  8
0
  5
2600
 10
261.506
 20
104.647
 30
0.000000
  70
    32
  0
VERTEX
  8
0
  5
2601
 10
261.541
 20
104.633
 30
0.000000
  70
    32
  0
VERTEX
  8
0
  5
2602
 10
261.576
 20
104.619
 30
0.000000
  70
    32
  0
VERTEX
  8
0
  5
2603
 10
261.613
 20
104.605
 30
0.000000
  70
    32
  0
VERTEX
  8
0
  5
2604
 10
261.650
 20
104.592
 30
0.000000
  70
    32
  0
VERTEX
  8
0
  5
2605
 10
261.689
 20
104.578
 30
0.000000
  70
    32
  0
VERTEX
  8
0
  5
2606
 10
261.728
 20
104.566
 30
0.000000
  70
    32
  0
VERTEX
  8
0
  5
2607
 10
261.769
 20
104.553
 30
0.000000
  70
    32
  0
VERTEX
  8
0
  5
2608
 10
261.810
 20
104.541
 30
0.000000
  70
    32
  0
VERTEX
  8
0
  5
2609
 10
261.852
 20
104.529
 30
0.000000
  70
    32
  0
VERTEX
  8
0
  5
260A
 10
261.896
 20
104.518
 30
0.000000
  70
    32
  0
VERTEX
  8
0
  5
260B
 10
261.940
 20
104.506
 30
0.000000
  70
    32
  0
VERTEX
  8
0
  5
260C
 10
261.984
 20
104.496
 30
0.000000
  70
    32
  0
VERTEX
  8
0
  5
260D
 10
262.030
 20
104.485
 30
0.000000
  70
    32
  0
VERTEX
  8
0
  5
260E
 10
262.076
 20
104.475
 30
0.000000
  70
    32
  0
VERTEX
  8
0
  5
260F
 10
262.123
 20
104.466
 30
0.000000
  70
    32
  0
VERTEX
  8
0
  5
2610
 10
262.171
 20
104.456
 30
0.000000
  70
    32
  0
VERTEX
  8
0
  5
2611
 10
262.219
 20
104.447
 30
0.000000
  70
    32
  0
VERTEX
  8
0
  5
2612
 10
262.268
 20
104.439
 30
0.000000
  70
    32
  0
VERTEX
  8
0
  5
2613
 10
262.318
 20
104.431
 30
0.000000
  70
    32
  0
VERTEX
  8
0
  5
2614
 10
262.368
 20
104.423
 30
0.000000
  70
    32
  0
VERTEX
  8
0
  5
2615
 10
262.419
 20
104.416
 30
0.000000
  70
    32
  0
VERTEX
  8
0
  5
2616
 10
262.470
 20
104.409
 30
0.000000
  70
    32
  0
VERTEX
  8
0
  5
2617
 10
262.522
 20
104.403
 30
0.000000
  70
    32
  0
VERTEX
  8
0
  5
2618
 10
262.574
 20
104.397
 30
0.000000
  70
    32
  0
VERTEX
  8
0
  5
2619
 10
262.627
 20
104.391
 30
0.000000
  70
    32
  0
VERTEX
  8
0
  5
261A
 10
262.680
 20
104.386
 30
0.000000
  70
    32
  0
VERTEX
  8
0
  5
261B
 10
262.733
 20
104.381
 30
0.000000
  70
    32
  0
VERTEX
  8
0
  5
261C
 10
262.787
 20
104.377
 30
0.000000
  70
    32
  0
VERTEX
  8
0
  5
261D
 10
262.841
 20
104.373
 30
0.000000
  70
    32
  0
VERTEX
  8
0
  5
261E
 10
262.895
 20
104.370
 30
0.000000
  70
    32
  0
VERTEX
  8
0
  5
261F
 10
262.950
 20
104.367
 30
0.000000
  70
    32
  0
VERTEX
  8
0
  5
2620
 10
263.004
 20
104.364
 30
0.000000
  70
    32
  0
VERTEX
  8
0
  5
2621
 10
263.059
 20
104.362
 30
0.000000
  70
    32
  0
VERTEX
  8
0
  5
2622
 10
263.114
 20
104.361
 30
0.000000
  70
    32
  0
VERTEX
  8
0
  5
2623
 10
263.169
 20
104.360
 30
0.000000
  70
    32
  0
VERTEX
  8
0
  5
2624
 10
263.225
 20
104.359
 30
0.000000
  70
    32
  0
VERTEX
  8
0
  5
2625
 10
263.280
 20
104.359
 30
0.000000
  70
    32
  0
VERTEX
  8
0
  5
2626
 10
263.335
 20
104.359
 30
0.000000
  70
    32
  0
VERTEX
  8
0
  5
2627
 10
263.390
 20
104.360
 30
0.000000
  70
    32
  0
VERTEX
  8
0
  5
2628
 10
263.445
 20
104.361
 30
0.000000
  70
    32
  0
VERTEX
  8
0
  5
2629
 10
263.500
 20
104.362
 30
0.000000
  70
    32
  0
VERTEX
  8
0
  5
262A
 10
263.555
 20
104.364
 30
0.000000
  70
    32
  0
VERTEX
  8
0
  5
262B
 10
263.610
 20
104.367
 30
0.000000
  70
    32
  0
VERTEX
  8
0
  5
262C
 10
263.665
 20
104.370
 30
0.000000
  70
    32
  0
VERTEX
  8
0
  5
262D
 10
263.719
 20
104.373
 30
0.000000
  70
    32
  0
VERTEX
  8
0
  5
262E
 10
263.773
 20
104.377
 30
0.000000
  70
    32
  0
VERTEX
  8
0
  5
262F
 10
263.827
 20
104.381
 30
0.000000
  70
    32
  0
VERTEX
  8
0
  5
2630
 10
263.880
 20
104.386
 30
0.000000
  70
    32
  0
VERTEX
  8
0
  5
2631
 10
263.933
 20
104.391
 30
0.000000
  70
    32
  0
VERTEX
  8
0
  5
2632
 10
263.986
 20
104.397
 30
0.000000
  70
    32
  0
VERTEX
  8
0
  5
2633
 10
264.038
 20
104.403
 30
0.000000
  70
    32
  0
VERTEX
  8
0
  5
2634
 10
264.090
 20
104.409
 30
0.000000
  70
    32
  0
VERTEX
  8
0
  5
2635
 10
264.141
 20
104.416
 30
0.000000
  70
    32
  0
VERTEX
  8
0
  5
2636
 10
264.192
 20
104.423
 30
0.000000
  70
    32
  0
VERTEX
  8
0
  5
2637
 10
264.242
 20
104.431
 30
0.000000
  70
    32
  0
VERTEX
  8
0
  5
2638
 10
264.291
 20
104.439
 30
0.000000
  70
    32
  0
VERTEX
  8
0
  5
2639
 10
264.341
 20
104.447
 30
0.000000
  70
    32
  0
VERTEX
  8
0
  5
263A
 10
264.389
 20
104.456
 30
0.000000
  70
    32
  0
VERTEX
  8
0
  5
263B
 10
264.437
 20
104.466
 30
0.000000
  70
    32
  0
VERTEX
  8
0
  5
263C
 10
264.484
 20
104.475
 30
0.000000
  70
    32
  0
VERTEX
  8
0
  5
263D
 10
264.530
 20
104.485
 30
0.000000
  70
    32
  0
VERTEX
  8
0
  5
263E
 10
264.575
 20
104.496
 30
0.000000
  70
    32
  0
VERTEX
  8
0
  5
263F
 10
264.620
 20
104.506
 30
0.000000
  70
    32
  0
VERTEX
  8
0
  5
2640
 10
264.664
 20
104.518
 30
0.000000
  70
    32
  0
VERTEX
  8
0
  5
2641
 10
264.707
 20
104.529
 30
0.000000
  70
    32
  0
VERTEX
  8
0
  5
2642
 10
264.750
 20
104.541
 30
0.000000
  70
    32
  0
VERTEX
  8
0
  5
2643
 10
264.791
 20
104.553
 30
0.000000
  70
    32
  0
VERTEX
  8
0
  5
2644
 10
264.831
 20
104.566
 30
0.000000
  70
    32
  0
VERTEX
  8
0
  5
2645
 10
264.871
 20
104.578
 30
0.000000
  70
    32
  0
VERTEX
  8
0
  5
2646
 10
264.909
 20
104.592
 30
0.000000
  70
    32
  0
VERTEX
  8
0
  5
2647
 10
264.947
 20
104.605
 30
0.000000
  70
    32
  0
VERTEX
  8
0
  5
2648
 10
264.984
 20
104.619
 30
0.000000
  70
    32
  0
VERTEX
  8
0
  5
2649
 10
265.019
 20
104.633
 30
0.000000
  70
    32
  0
VERTEX
  8
0
  5
264A
 10
265.054
 20
104.647
 30
0.000000
  70
    32
  0
VERTEX
  8
0
  5
264B
 10
265.087
 20
104.662
 30
0.000000
  70
    32
  0
VERTEX
  8
0
  5
264C
 10
265.119
 20
104.677
 30
0.000000
  70
    32
  0
VERTEX
  8
0
  5
264D
 10
265.151
 20
104.692
 30
0.000000
  70
    32
  0
VERTEX
  8
0
  5
264E
 10
265.181
 20
104.708
 30
0.000000
  70
    32
  0
VERTEX
  8
0
  5
264F
 10
265.210
 20
104.723
 30
0.000000
  70
    32
  0
VERTEX
  8
0
  5
2650
 10
265.238
 20
104.739
 30
0.000000
  70
    32
  0
VERTEX
  8
0
  5
2651
 10
265.264
 20
104.755
 30
0.000000
  70
    32
  0
VERTEX
  8
0
  5
2652
 10
265.290
 20
104.772
 30
0.000000
  70
    32
  0
VERTEX
  8
0
  5
2653
 10
265.314
 20
104.788
 30
0.000000
  70
    32
  0
VERTEX
  8
0
  5
2654
 10
265.337
 20
104.805
 30
0.000000
  70
    32
  0
VERTEX
  8
0
  5
2655
 10
265.359
 20
104.822
 30
0.000000
  70
    32
  0
VERTEX
  8
0
  5
2656
 10
265.379
 20
104.839
 30
0.000000
  70
    32
  0
VERTEX
  8
0
  5
2657
 10
265.398
 20
104.856
 30
0.000000
  70
    32
  0
VERTEX
  8
0
  5
2658
 10
265.416
 20
104.874
 30
0.000000
  70
    32
  0
VERTEX
  8
0
  5
2659
 10
265.433
 20
104.891
 30
0.000000
  70
    32
  0
VERTEX
  8
0
  5
265A
 10
265.448
 20
104.909
 30
0.000000
  70
    32
  0
VERTEX
  8
0
  5
265B
 10
265.462
 20
104.927
 30
0.000000
  70
    32
  0
VERTEX
  8
0
  5
265C
 10
265.475
 20
104.944
 30
0.000000
  70
    32
  0
VERTEX
  8
0
  5
265D
 10
265.487
 20
104.963
 30
0.000000
  70
    32
  0
VERTEX
  8
0
  5
265E
 10
265.497
 20
104.981
 30
0.000000
  70
    32
  0
VERTEX
  8
0
  5
265F
 10
265.506
 20
104.999
 30
0.000000
  70
    32
  0
VERTEX
  8
0
  5
2660
 10
265.513
 20
105.017
 30
0.000000
  70
    32
  0
VERTEX
  8
0
  5
2661
 10
265.519
 20
105.035
 30
0.000000
  70
    32
  0
VERTEX
  8
0
  5
2662
 10
265.524
 20
105.054
 30
0.000000
  70
    32
  0
VERTEX
  8
0
  5
2663
 10
265.527
 20
105.072
 30
0.000000
  70
    32
  0
VERTEX
  8
0
  5
2664
 10
265.529
 20
105.090
 30
0.000000
  70
    32
  0
VERTEX
  8
0
  5
2665
 10
265.530
 20
105.109
 30
0.000000
  70
    32
  0
SEQEND
  8
0
  5
2666
  0
POLYLINE
  5
8CF
  8
0
 10
265.52987194759811
 20
111.6088200211754
 30
0.0
 66
     1
 70
     8
  0
VERTEX
  8
0
  5
2667
 10
265.530
 20
111.609
 30
0.000000
  70
    32
  0
VERTEX
  8
0
  5
2668
 10
265.529
 20
111.627
 30
0.000000
  70
    32
  0
VERTEX
  8
0
  5
2669
 10
265.527
 20
111.646
 30
0.000000
  70
    32
  0
VERTEX
  8
0
  5
266A
 10
265.524
 20
111.664
 30
0.000000
  70
    32
  0
VERTEX
  8
0
  5
266B
 10
265.519
 20
111.682
 30
0.000000
  70
    32
  0
VERTEX
  8
0
  5
266C
 10
265.513
 20
111.701
 30
0.000000
  70
    32
  0
VERTEX
  8
0
  5
266D
 10
265.506
 20
111.719
 30
0.000000
  70
    32
  0
VERTEX
  8
0
  5
266E
 10
265.497
 20
111.737
 30
0.000000
  70
    32
  0
VERTEX
  8
0
  5
266F
 10
265.487
 20
111.755
 30
0.000000
  70
    32
  0
VERTEX
  8
0
  5
2670
 10
265.475
 20
111.773
 30
0.000000
  70
    32
  0
VERTEX
  8
0
  5
2671
 10
265.462
 20
111.791
 30
0.000000
  70
    32
  0
VERTEX
  8
0
  5
2672
 10
265.448
 20
111.809
 30
0.000000
  70
    32
  0
VERTEX
  8
0
  5
2673
 10
265.433
 20
111.827
 30
0.000000
  70
    32
  0
VERTEX
  8
0
  5
2674
 10
265.416
 20
111.844
 30
0.000000
  70
    32
  0
VERTEX
  8
0
  5
2675
 10
265.398
 20
111.861
 30
0.000000
  70
    32
  0
VERTEX
  8
0
  5
2676
 10
265.379
 20
111.879
 30
0.000000
  70
    32
  0
VERTEX
  8
0
  5
2677
 10
265.359
 20
111.896
 30
0.000000
  70
    32
  0
VERTEX
  8
0
  5
2678
 10
265.337
 20
111.913
 30
0.000000
  70
    32
  0
VERTEX
  8
0
  5
2679
 10
265.314
 20
111.929
 30
0.000000
  70
    32
  0
VERTEX
  8
0
  5
267A
 10
265.290
 20
111.946
 30
0.000000
  70
    32
  0
VERTEX
  8
0
  5
267B
 10
265.264
 20
111.962
 30
0.000000
  70
    32
  0
VERTEX
  8
0
  5
267C
 10
265.238
 20
111.978
 30
0.000000
  70
    32
  0
VERTEX
  8
0
  5
267D
 10
265.210
 20
111.994
 30
0.000000
  70
    32
  0
VERTEX
  8
0
  5
267E
 10
265.181
 20
112.010
 30
0.000000
  70
    32
  0
VERTEX
  8
0
  5
267F
 10
265.151
 20
112.025
 30
0.000000
  70
    32
  0
VERTEX
  8
0
  5
2680
 10
265.119
 20
112.041
 30
0.000000
  70
    32
  0
VERTEX
  8
0
  5
2681
 10
265.087
 20
112.056
 30
0.000000
  70
    32
  0
VERTEX
  8
0
  5
2682
 10
265.054
 20
112.070
 30
0.000000
  70
    32
  0
VERTEX
  8
0
  5
2683
 10
265.019
 20
112.085
 30
0.000000
  70
    32
  0
VERTEX
  8
0
  5
2684
 10
264.984
 20
112.099
 30
0.000000
  70
    32
  0
VERTEX
  8
0
  5
2685
 10
264.947
 20
112.112
 30
0.000000
  70
    32
  0
VERTEX
  8
0
  5
2686
 10
264.909
 20
112.126
 30
0.000000
  70
    32
  0
VERTEX
  8
0
  5
2687
 10
264.871
 20
112.139
 30
0.000000
  70
    32
  0
VERTEX
  8
0
  5
2688
 10
264.831
 20
112.152
 30
0.000000
  70
    32
  0
VERTEX
  8
0
  5
2689
 10
264.791
 20
112.165
 30
0.000000
  70
    32
  0
VERTEX
  8
0
  5
268A
 10
264.750
 20
112.177
 30
0.000000
  70
    32
  0
VERTEX
  8
0
  5
268B
 10
264.707
 20
112.189
 30
0.000000
  70
    32
  0
VERTEX
  8
0
  5
268C
 10
264.664
 20
112.200
 30
0.000000
  70
    32
  0
VERTEX
  8
0
  5
268D
 10
264.620
 20
112.211
 30
0.000000
  70
    32
  0
VERTEX
  8
0
  5
268E
 10
264.575
 20
112.222
 30
0.000000
  70
    32
  0
VERTEX
  8
0
  5
268F
 10
264.530
 20
112.232
 30
0.000000
  70
    32
  0
VERTEX
  8
0
  5
2690
 10
264.484
 20
112.242
 30
0.000000
  70
    32
  0
VERTEX
  8
0
  5
2691
 10
264.437
 20
112.252
 30
0.000000
  70
    32
  0
VERTEX
  8
0
  5
2692
 10
264.389
 20
112.261
 30
0.000000
  70
    32
  0
VERTEX
  8
0
  5
2693
 10
264.341
 20
112.270
 30
0.000000
  70
    32
  0
VERTEX
  8
0
  5
2694
 10
264.291
 20
112.279
 30
0.000000
  70
    32
  0
VERTEX
  8
0
  5
2695
 10
264.242
 20
112.287
 30
0.000000
  70
    32
  0
VERTEX
  8
0
  5
2696
 10
264.192
 20
112.294
 30
0.000000
  70
    32
  0
VERTEX
  8
0
  5
2697
 10
264.141
 20
112.302
 30
0.000000
  70
    32
  0
VERTEX
  8
0
  5
2698
 10
264.090
 20
112.309
 30
0.000000
  70
    32
  0
VERTEX
  8
0
  5
2699
 10
264.038
 20
112.315
 30
0.000000
  70
    32
  0
VERTEX
  8
0
  5
269A
 10
263.986
 20
112.321
 30
0.000000
  70
    32
  0
VERTEX
  8
0
  5
269B
 10
263.933
 20
112.327
 30
0.000000
  70
    32
  0
VERTEX
  8
0
  5
269C
 10
263.880
 20
112.332
 30
0.000000
  70
    32
  0
VERTEX
  8
0
  5
269D
 10
263.827
 20
112.336
 30
0.000000
  70
    32
  0
VERTEX
  8
0
  5
269E
 10
263.773
 20
112.341
 30
0.000000
  70
    32
  0
VERTEX
  8
0
  5
269F
 10
263.719
 20
112.344
 30
0.000000
  70
    32
  0
VERTEX
  8
0
  5
26A0
 10
263.665
 20
112.348
 30
0.000000
  70
    32
  0
VERTEX
  8
0
  5
26A1
 10
263.610
 20
112.351
 30
0.000000
  70
    32
  0
VERTEX
  8
0
  5
26A2
 10
263.555
 20
112.353
 30
0.000000
  70
    32
  0
VERTEX
  8
0
  5
26A3
 10
263.500
 20
112.355
 30
0.000000
  70
    32
  0
VERTEX
  8
0
  5
26A4
 10
263.445
 20
112.357
 30
0.000000
  70
    32
  0
VERTEX
  8
0
  5
26A5
 10
263.390
 20
112.358
 30
0.000000
  70
    32
  0
VERTEX
  8
0
  5
26A6
 10
263.335
 20
112.359
 30
0.000000
  70
    32
  0
VERTEX
  8
0
  5
26A7
 10
263.280
 20
112.359
 30
0.000000
  70
    32
  0
VERTEX
  8
0
  5
26A8
 10
263.225
 20
112.359
 30
0.000000
  70
    32
  0
VERTEX
  8
0
  5
26A9
 10
263.169
 20
112.358
 30
0.000000
  70
    32
  0
VERTEX
  8
0
  5
26AA
 10
263.114
 20
112.357
 30
0.000000
  70
    32
  0
VERTEX
  8
0
  5
26AB
 10
263.059
 20
112.355
 30
0.000000
  70
    32
  0
VERTEX
  8
0
  5
26AC
 10
263.004
 20
112.353
 30
0.000000
  70
    32
  0
VERTEX
  8
0
  5
26AD
 10
262.950
 20
112.351
 30
0.000000
  70
    32
  0
VERTEX
  8
0
  5
26AE
 10
262.895
 20
112.348
 30
0.000000
  70
    32
  0
VERTEX
  8
0
  5
26AF
 10
262.841
 20
112.344
 30
0.000000
  70
    32
  0
VERTEX
  8
0
  5
26B0
 10
262.787
 20
112.341
 30
0.000000
  70
    32
  0
VERTEX
  8
0
  5
26B1
 10
262.733
 20
112.336
 30
0.000000
  70
    32
  0
VERTEX
  8
0
  5
26B2
 10
262.680
 20
112.332
 30
0.000000
  70
    32
  0
VERTEX
  8
0
  5
26B3
 10
262.627
 20
112.327
 30
0.000000
  70
    32
  0
VERTEX
  8
0
  5
26B4
 10
262.574
 20
112.321
 30
0.000000
  70
    32
  0
VERTEX
  8
0
  5
26B5
 10
262.522
 20
112.315
 30
0.000000
  70
    32
  0
VERTEX
  8
0
  5
26B6
 10
262.470
 20
112.309
 30
0.000000
  70
    32
  0
VERTEX
  8
0
  5
26B7
 10
262.419
 20
112.302
 30
0.000000
  70
    32
  0
VERTEX
  8
0
  5
26B8
 10
262.368
 20
112.294
 30
0.000000
  70
    32
  0
VERTEX
  8
0
  5
26B9
 10
262.318
 20
112.287
 30
0.000000
  70
    32
  0
VERTEX
  8
0
  5
26BA
 10
262.268
 20
112.279
 30
0.000000
  70
    32
  0
VERTEX
  8
0
  5
26BB
 10
262.219
 20
112.270
 30
0.000000
  70
    32
  0
VERTEX
  8
0
  5
26BC
 10
262.171
 20
112.261
 30
0.000000
  70
    32
  0
VERTEX
  8
0
  5
26BD
 10
262.123
 20
112.252
 30
0.000000
  70
    32
  0
VERTEX
  8
0
  5
26BE
 10
262.076
 20
112.242
 30
0.000000
  70
    32
  0
VERTEX
  8
0
  5
26BF
 10
262.030
 20
112.232
 30
0.000000
  70
    32
  0
VERTEX
  8
0
  5
26C0
 10
261.984
 20
112.222
 30
0.000000
  70
    32
  0
VERTEX
  8
0
  5
26C1
 10
261.940
 20
112.211
 30
0.000000
  70
    32
  0
VERTEX
  8
0
  5
26C2
 10
261.896
 20
112.200
 30
0.000000
  70
    32
  0
VERTEX
  8
0
  5
26C3
 10
261.852
 20
112.189
 30
0.000000
  70
    32
  0
VERTEX
  8
0
  5
26C4
 10
261.810
 20
112.177
 30
0.000000
  70
    32
  0
VERTEX
  8
0
  5
26C5
 10
261.769
 20
112.165
 30
0.000000
  70
    32
  0
VERTEX
  8
0
  5
26C6
 10
261.728
 20
112.152
 30
0.000000
  70
    32
  0
VERTEX
  8
0
  5
26C7
 10
261.689
 20
112.139
 30
0.000000
  70
    32
  0
VERTEX
  8
0
  5
26C8
 10
261.650
 20
112.126
 30
0.000000
  70
    32
  0
VERTEX
  8
0
  5
26C9
 10
261.613
 20
112.112
 30
0.000000
  70
    32
  0
VERTEX
  8
0
  5
26CA
 10
261.576
 20
112.099
 30
0.000000
  70
    32
  0
VERTEX
  8
0
  5
26CB
 10
261.541
 20
112.085
 30
0.000000
  70
    32
  0
VERTEX
  8
0
  5
26CC
 10
261.506
 20
112.070
 30
0.000000
  70
    32
  0
VERTEX
  8
0
  5
26CD
 10
261.473
 20
112.056
 30
0.000000
  70
    32
  0
VERTEX
  8
0
  5
26CE
 10
261.440
 20
112.041
 30
0.000000
  70
    32
  0
VERTEX
  8
0
  5
26CF
 10
261.409
 20
112.025
 30
0.000000
  70
    32
  0
VERTEX
  8
0
  5
26D0
 10
261.379
 20
112.010
 30
0.000000
  70
    32
  0
VERTEX
  8
0
  5
26D1
 10
261.350
 20
111.994
 30
0.000000
  70
    32
  0
VERTEX
  8
0
  5
26D2
 10
261.322
 20
111.978
 30
0.000000
  70
    32
  0
VERTEX
  8
0
  5
26D3
 10
261.296
 20
111.962
 30
0.000000
  70
    32
  0
VERTEX
  8
0
  5
26D4
 10
261.270
 20
111.946
 30
0.000000
  70
    32
  0
VERTEX
  8
0
  5
26D5
 10
261.246
 20
111.929
 30
0.000000
  70
    32
  0
VERTEX
  8
0
  5
26D6
 10
261.223
 20
111.913
 30
0.000000
  70
    32
  0
VERTEX
  8
0
  5
26D7
 10
261.201
 20
111.896
 30
0.000000
  70
    32
  0
VERTEX
  8
0
  5
26D8
 10
261.181
 20
111.879
 30
0.000000
  70
    32
  0
VERTEX
  8
0
  5
26D9
 10
261.161
 20
111.861
 30
0.000000
  70
    32
  0
VERTEX
  8
0
  5
26DA
 10
261.143
 20
111.844
 30
0.000000
  70
    32
  0
VERTEX
  8
0
  5
26DB
 10
261.127
 20
111.827
 30
0.000000
  70
    32
  0
VERTEX
  8
0
  5
26DC
 10
261.111
 20
111.809
 30
0.000000
  70
    32
  0
VERTEX
  8
0
  5
26DD
 10
261.097
 20
111.791
 30
0.000000
  70
    32
  0
VERTEX
  8
0
  5
26DE
 10
261.085
 20
111.773
 30
0.000000
  70
    32
  0
VERTEX
  8
0
  5
26DF
 10
261.073
 20
111.755
 30
0.000000
  70
    32
  0
VERTEX
  8
0
  5
26E0
 10
261.063
 20
111.737
 30
0.000000
  70
    32
  0
VERTEX
  8
0
  5
26E1
 10
261.054
 20
111.719
 30
0.000000
  70
    32
  0
VERTEX
  8
0
  5
26E2
 10
261.047
 20
111.701
 30
0.000000
  70
    32
  0
VERTEX
  8
0
  5
26E3
 10
261.041
 20
111.682
 30
0.000000
  70
    32
  0
VERTEX
  8
0
  5
26E4
 10
261.036
 20
111.664
 30
0.000000
  70
    32
  0
VERTEX
  8
0
  5
26E5
 10
261.033
 20
111.646
 30
0.000000
  70
    32
  0
VERTEX
  8
0
  5
26E6
 10
261.031
 20
111.627
 30
0.000000
  70
    32
  0
VERTEX
  8
0
  5
26E7
 10
261.030
 20
111.609
 30
0.000000
  70
    32
  0
SEQEND
  8
0
  5
26E8
  0
LINE
  5
8D0
  8
0
 10
261.02987194759811
 20
105.10882002117521
 30
0.0
 11
261.02987194759811
 21
111.6088200211754
 31
0.0
  0
ARC
  5
8D1
  8
0
 10
261.62987194759808
 20
102.3588200211754
 30
0.0
 40
1.8999999999999999
 50
180.0
 51
263.90722834266398
  0
LINE
  5
8D2
  8
0
 10
257.52987194759811
 20
104.3588200211754
 30
0.0
 11
257.52987194759811
 21
102.3588200211754
 31
0.0
  0
LINE
  5
8D3
  8
0
 10
261.42820855738529
 20
100.4695524707612
 30
0.0
 11
263.7298719475981
 21
100.2238692998958
 31
0.0
  0
LINE
  5
8D4
  8
0
 10
263.7298719475981
 20
102.3588200211754
 30
0.0
 11
263.7298719475981
 21
99.433822608181657
 31
0.0
  0
LINE
  5
8D5
  8
0
 10
265.52987194759811
 20
105.1088200211757
 30
0.0
 11
265.52987194759811
 21
111.6088200211756
 31
0.0
  0
ARC
  5
8D6
  8
0
 10
279.42987194759797
 20
100.4588200211754
 30
0.0
 40
1.8999999999999999
 50
280.67142040090789
 51
100.67142040090791
  0
ARC
  5
8D7
  8
0
 10
279.42987194759797
 20
93.750520021175404
 30
0.0
 40
1.8999999999999999
 50
280.67142040090789
 51
100.67142040090791
  0
LINE
  5
8D8
  8
0
 10
276.91971299763838
 20
89.448661071215781
 30
0.0
 11
279.78170721605579
 21
88.909360065164947
 31
0.0
  0
LINE
  5
8D9
  8
2
 10
274.52987194759811
 20
90.893748333045508
 30
0.0
 11
274.52987194759811
 21
88.052324855372689
 31
0.0
  0
LINE
  5
8DA
  8
0
 10
275.529871947598
 20
88.240760248631076
 30
0.0
 11
275.529871947598
 21
91.082183726303981
 31
0.0
  0
LINE
  5
8DB
  8
0
 10
277.32987194759812
 20
91.421367434169156
 30
0.0
 11
277.32987194759812
 21
89.858820021175404
 31
0.0
  0
LINE
  5
8DC
  8
0
 10
277.32987194759812
 20
89.858820021175404
 30
0.0
 11
276.82987194759812
 21
89.358820021175404
 31
0.0
  0
ARC
  5
8DD
  8
0
 10
279.42987194759797
 20
87.04222002117541
 30
0.0
 40
1.8999999999999999
 50
280.67142040090789
 51
100.67142040090791
  0
LINE
  5
8DE
  8
0
 10
277.32987194759801
 20
96.079672608181653
 30
0.0
 11
279.78170721605579
 21
95.617660065164955
 31
0.0
  0
LINE
  5
8DF
  8
0
 10
277.32987194759801
 20
98.129667434169136
 30
0.0
 11
277.32987194759801
 21
95.288243956496245
 31
0.0
  0
LINE
  5
8E0
  8
0
 10
283.529871947598
 20
102.3588200211754
 30
0.0
 11
277.32987194759812
 21
102.3588200211754
 31
0.0
  0
LINE
  5
8E1
  8
0
 10
280.02987194759811
 20
105.1088200211757
 30
0.0
 11
280.02987194759811
 21
111.6088200211756
 31
0.0
  0
LINE
  5
8E2
  8
0
 10
275.529871947598
 20
105.10882002117521
 30
0.0
 11
275.529871947598
 21
111.6088200211754
 31
0.0
  0
POLYLINE
  5
8E3
  8
0
 10
275.52987194759811
 20
105.1088200211754
 30
0.0
 66
     1
 70
     8
  0
VERTEX
  8
0
  5
26E9
 10
275.530
 20
105.109
 30
0.000000
  70
    32
  0
VERTEX
  8
0
  5
26EA
 10
275.531
 20
105.090
 30
0.000000
  70
    32
  0
VERTEX
  8
0
  5
26EB
 10
275.533
 20
105.072
 30
0.000000
  70
    32
  0
VERTEX
  8
0
  5
26EC
 10
275.536
 20
105.054
 30
0.000000
  70
    32
  0
VERTEX
  8
0
  5
26ED
 10
275.541
 20
105.035
 30
0.000000
  70
    32
  0
VERTEX
  8
0
  5
26EE
 10
275.547
 20
105.017
 30
0.000000
  70
    32
  0
VERTEX
  8
0
  5
26EF
 10
275.554
 20
104.999
 30
0.000000
  70
    32
  0
VERTEX
  8
0
  5
26F0
 10
275.563
 20
104.981
 30
0.000000
  70
    32
  0
VERTEX
  8
0
  5
26F1
 10
275.573
 20
104.963
 30
0.000000
  70
    32
  0
VERTEX
  8
0
  5
26F2
 10
275.585
 20
104.944
 30
0.000000
  70
    32
  0
VERTEX
  8
0
  5
26F3
 10
275.597
 20
104.927
 30
0.000000
  70
    32
  0
VERTEX
  8
0
  5
26F4
 10
275.611
 20
104.909
 30
0.000000
  70
    32
  0
VERTEX
  8
0
  5
26F5
 10
275.627
 20
104.891
 30
0.000000
  70
    32
  0
VERTEX
  8
0
  5
26F6
 10
275.643
 20
104.874
 30
0.000000
  70
    32
  0
VERTEX
  8
0
  5
26F7
 10
275.661
 20
104.856
 30
0.000000
  70
    32
  0
VERTEX
  8
0
  5
26F8
 10
275.681
 20
104.839
 30
0.000000
  70
    32
  0
VERTEX
  8
0
  5
26F9
 10
275.701
 20
104.822
 30
0.000000
  70
    32
  0
VERTEX
  8
0
  5
26FA
 10
275.723
 20
104.805
 30
0.000000
  70
    32
  0
VERTEX
  8
0
  5
26FB
 10
275.746
 20
104.788
 30
0.000000
  70
    32
  0
VERTEX
  8
0
  5
26FC
 10
275.770
 20
104.772
 30
0.000000
  70
    32
  0
VERTEX
  8
0
  5
26FD
 10
275.796
 20
104.755
 30
0.000000
  70
    32
  0
VERTEX
  8
0
  5
26FE
 10
275.822
 20
104.739
 30
0.000000
  70
    32
  0
VERTEX
  8
0
  5
26FF
 10
275.850
 20
104.723
 30
0.000000
  70
    32
  0
VERTEX
  8
0
  5
2700
 10
275.879
 20
104.708
 30
0.000000
  70
    32
  0
VERTEX
  8
0
  5
2701
 10
275.909
 20
104.692
 30
0.000000
  70
    32
  0
VERTEX
  8
0
  5
2702
 10
275.940
 20
104.677
 30
0.000000
  70
    32
  0
VERTEX
  8
0
  5
2703
 10
275.973
 20
104.662
 30
0.000000
  70
    32
  0
VERTEX
  8
0
  5
2704
 10
276.006
 20
104.647
 30
0.000000
  70
    32
  0
VERTEX
  8
0
  5
2705
 10
276.041
 20
104.633
 30
0.000000
  70
    32
  0
VERTEX
  8
0
  5
2706
 10
276.076
 20
104.619
 30
0.000000
  70
    32
  0
VERTEX
  8
0
  5
2707
 10
276.113
 20
104.605
 30
0.000000
  70
    32
  0
VERTEX
  8
0
  5
2708
 10
276.150
 20
104.592
 30
0.000000
  70
    32
  0
VERTEX
  8
0
  5
2709
 10
276.189
 20
104.578
 30
0.000000
  70
    32
  0
VERTEX
  8
0
  5
270A
 10
276.228
 20
104.566
 30
0.000000
  70
    32
  0
VERTEX
  8
0
  5
270B
 10
276.269
 20
104.553
 30
0.000000
  70
    32
  0
VERTEX
  8
0
  5
270C
 10
276.310
 20
104.541
 30
0.000000
  70
    32
  0
VERTEX
  8
0
  5
270D
 10
276.352
 20
104.529
 30
0.000000
  70
    32
  0
VERTEX
  8
0
  5
270E
 10
276.396
 20
104.518
 30
0.000000
  70
    32
  0
VERTEX
  8
0
  5
270F
 10
276.440
 20
104.506
 30
0.000000
  70
    32
  0
VERTEX
  8
0
  5
2710
 10
276.484
 20
104.496
 30
0.000000
  70
    32
  0
VERTEX
  8
0
  5
2711
 10
276.530
 20
104.485
 30
0.000000
  70
    32
  0
VERTEX
  8
0
  5
2712
 10
276.576
 20
104.475
 30
0.000000
  70
    32
  0
VERTEX
  8
0
  5
2713
 10
276.623
 20
104.466
 30
0.000000
  70
    32
  0
VERTEX
  8
0
  5
2714
 10
276.671
 20
104.456
 30
0.000000
  70
    32
  0
VERTEX
  8
0
  5
2715
 10
276.719
 20
104.447
 30
0.000000
  70
    32
  0
VERTEX
  8
0
  5
2716
 10
276.768
 20
104.439
 30
0.000000
  70
    32
  0
VERTEX
  8
0
  5
2717
 10
276.818
 20
104.431
 30
0.000000
  70
    32
  0
VERTEX
  8
0
  5
2718
 10
276.868
 20
104.423
 30
0.000000
  70
    32
  0
VERTEX
  8
0
  5
2719
 10
276.919
 20
104.416
 30
0.000000
  70
    32
  0
VERTEX
  8
0
  5
271A
 10
276.970
 20
104.409
 30
0.000000
  70
    32
  0
VERTEX
  8
0
  5
271B
 10
277.022
 20
104.403
 30
0.000000
  70
    32
  0
VERTEX
  8
0
  5
271C
 10
277.074
 20
104.397
 30
0.000000
  70
    32
  0
VERTEX
  8
0
  5
271D
 10
277.127
 20
104.391
 30
0.000000
  70
    32
  0
VERTEX
  8
0
  5
271E
 10
277.180
 20
104.386
 30
0.000000
  70
    32
  0
VERTEX
  8
0
  5
271F
 10
277.233
 20
104.381
 30
0.000000
  70
    32
  0
VERTEX
  8
0
  5
2720
 10
277.287
 20
104.377
 30
0.000000
  70
    32
  0
VERTEX
  8
0
  5
2721
 10
277.341
 20
104.373
 30
0.000000
  70
    32
  0
VERTEX
  8
0
  5
2722
 10
277.395
 20
104.370
 30
0.000000
  70
    32
  0
VERTEX
  8
0
  5
2723
 10
277.450
 20
104.367
 30
0.000000
  70
    32
  0
VERTEX
  8
0
  5
2724
 10
277.504
 20
104.364
 30
0.000000
  70
    32
  0
VERTEX
  8
0
  5
2725
 10
277.559
 20
104.362
 30
0.000000
  70
    32
  0
VERTEX
  8
0
  5
2726
 10
277.614
 20
104.361
 30
0.000000
  70
    32
  0
VERTEX
  8
0
  5
2727
 10
277.669
 20
104.360
 30
0.000000
  70
    32
  0
VERTEX
  8
0
  5
2728
 10
277.725
 20
104.359
 30
0.000000
  70
    32
  0
VERTEX
  8
0
  5
2729
 10
277.780
 20
104.359
 30
0.000000
  70
    32
  0
VERTEX
  8
0
  5
272A
 10
277.835
 20
104.359
 30
0.000000
  70
    32
  0
VERTEX
  8
0
  5
272B
 10
277.890
 20
104.360
 30
0.000000
  70
    32
  0
VERTEX
  8
0
  5
272C
 10
277.945
 20
104.361
 30
0.000000
  70
    32
  0
VERTEX
  8
0
  5
272D
 10
278.000
 20
104.362
 30
0.000000
  70
    32
  0
VERTEX
  8
0
  5
272E
 10
278.055
 20
104.364
 30
0.000000
  70
    32
  0
VERTEX
  8
0
  5
272F
 10
278.110
 20
104.367
 30
0.000000
  70
    32
  0
VERTEX
  8
0
  5
2730
 10
278.165
 20
104.370
 30
0.000000
  70
    32
  0
VERTEX
  8
0
  5
2731
 10
278.219
 20
104.373
 30
0.000000
  70
    32
  0
VERTEX
  8
0
  5
2732
 10
278.273
 20
104.377
 30
0.000000
  70
    32
  0
VERTEX
  8
0
  5
2733
 10
278.327
 20
104.381
 30
0.000000
  70
    32
  0
VERTEX
  8
0
  5
2734
 10
278.380
 20
104.386
 30
0.000000
  70
    32
  0
VERTEX
  8
0
  5
2735
 10
278.433
 20
104.391
 30
0.000000
  70
    32
  0
VERTEX
  8
0
  5
2736
 10
278.486
 20
104.397
 30
0.000000
  70
    32
  0
VERTEX
  8
0
  5
2737
 10
278.538
 20
104.403
 30
0.000000
  70
    32
  0
VERTEX
  8
0
  5
2738
 10
278.590
 20
104.409
 30
0.000000
  70
    32
  0
VERTEX
  8
0
  5
2739
 10
278.641
 20
104.416
 30
0.000000
  70
    32
  0
VERTEX
  8
0
  5
273A
 10
278.692
 20
104.423
 30
0.000000
  70
    32
  0
VERTEX
  8
0
  5
273B
 10
278.742
 20
104.431
 30
0.000000
  70
    32
  0
VERTEX
  8
0
  5
273C
 10
278.791
 20
104.439
 30
0.000000
  70
    32
  0
VERTEX
  8
0
  5
273D
 10
278.841
 20
104.447
 30
0.000000
  70
    32
  0
VERTEX
  8
0
  5
273E
 10
278.889
 20
104.456
 30
0.000000
  70
    32
  0
VERTEX
  8
0
  5
273F
 10
278.937
 20
104.466
 30
0.000000
  70
    32
  0
VERTEX
  8
0
  5
2740
 10
278.984
 20
104.475
 30
0.000000
  70
    32
  0
VERTEX
  8
0
  5
2741
 10
279.030
 20
104.485
 30
0.000000
  70
    32
  0
VERTEX
  8
0
  5
2742
 10
279.075
 20
104.496
 30
0.000000
  70
    32
  0
VERTEX
  8
0
  5
2743
 10
279.120
 20
104.506
 30
0.000000
  70
    32
  0
VERTEX
  8
0
  5
2744
 10
279.164
 20
104.518
 30
0.000000
  70
    32
  0
VERTEX
  8
0
  5
2745
 10
279.207
 20
104.529
 30
0.000000
  70
    32
  0
VERTEX
  8
0
  5
2746
 10
279.250
 20
104.541
 30
0.000000
  70
    32
  0
VERTEX
  8
0
  5
2747
 10
279.291
 20
104.553
 30
0.000000
  70
    32
  0
VERTEX
  8
0
  5
2748
 10
279.331
 20
104.566
 30
0.000000
  70
    32
  0
VERTEX
  8
0
  5
2749
 10
279.371
 20
104.578
 30
0.000000
  70
    32
  0
VERTEX
  8
0
  5
274A
 10
279.409
 20
104.592
 30
0.000000
  70
    32
  0
VERTEX
  8
0
  5
274B
 10
279.447
 20
104.605
 30
0.000000
  70
    32
  0
VERTEX
  8
0
  5
274C
 10
279.484
 20
104.619
 30
0.000000
  70
    32
  0
VERTEX
  8
0
  5
274D
 10
279.519
 20
104.633
 30
0.000000
  70
    32
  0
VERTEX
  8
0
  5
274E
 10
279.554
 20
104.647
 30
0.000000
  70
    32
  0
VERTEX
  8
0
  5
274F
 10
279.587
 20
104.662
 30
0.000000
  70
    32
  0
VERTEX
  8
0
  5
2750
 10
279.619
 20
104.677
 30
0.000000
  70
    32
  0
VERTEX
  8
0
  5
2751
 10
279.651
 20
104.692
 30
0.000000
  70
    32
  0
VERTEX
  8
0
  5
2752
 10
279.681
 20
104.708
 30
0.000000
  70
    32
  0
VERTEX
  8
0
  5
2753
 10
279.710
 20
104.723
 30
0.000000
  70
    32
  0
VERTEX
  8
0
  5
2754
 10
279.738
 20
104.739
 30
0.000000
  70
    32
  0
VERTEX
  8
0
  5
2755
 10
279.764
 20
104.755
 30
0.000000
  70
    32
  0
VERTEX
  8
0
  5
2756
 10
279.790
 20
104.772
 30
0.000000
  70
    32
  0
VERTEX
  8
0
  5
2757
 10
279.814
 20
104.788
 30
0.000000
  70
    32
  0
VERTEX
  8
0
  5
2758
 10
279.837
 20
104.805
 30
0.000000
  70
    32
  0
VERTEX
  8
0
  5
2759
 10
279.859
 20
104.822
 30
0.000000
  70
    32
  0
VERTEX
  8
0
  5
275A
 10
279.879
 20
104.839
 30
0.000000
  70
    32
  0
VERTEX
  8
0
  5
275B
 10
279.898
 20
104.856
 30
0.000000
  70
    32
  0
VERTEX
  8
0
  5
275C
 10
279.916
 20
104.874
 30
0.000000
  70
    32
  0
VERTEX
  8
0
  5
275D
 10
279.933
 20
104.891
 30
0.000000
  70
    32
  0
VERTEX
  8
0
  5
275E
 10
279.948
 20
104.909
 30
0.000000
  70
    32
  0
VERTEX
  8
0
  5
275F
 10
279.962
 20
104.927
 30
0.000000
  70
    32
  0
VERTEX
  8
0
  5
2760
 10
279.975
 20
104.944
 30
0.000000
  70
    32
  0
VERTEX
  8
0
  5
2761
 10
279.987
 20
104.963
 30
0.000000
  70
    32
  0
VERTEX
  8
0
  5
2762
 10
279.997
 20
104.981
 30
0.000000
  70
    32
  0
VERTEX
  8
0
  5
2763
 10
280.006
 20
104.999
 30
0.000000
  70
    32
  0
VERTEX
  8
0
  5
2764
 10
280.013
 20
105.017
 30
0.000000
  70
    32
  0
VERTEX
  8
0
  5
2765
 10
280.019
 20
105.035
 30
0.000000
  70
    32
  0
VERTEX
  8
0
  5
2766
 10
280.024
 20
105.054
 30
0.000000
  70
    32
  0
VERTEX
  8
0
  5
2767
 10
280.027
 20
105.072
 30
0.000000
  70
    32
  0
VERTEX
  8
0
  5
2768
 10
280.029
 20
105.090
 30
0.000000
  70
    32
  0
VERTEX
  8
0
  5
2769
 10
280.030
 20
105.109
 30
0.000000
  70
    32
  0
SEQEND
  8
0
  5
276A
  0
LINE
  5
8E4
  8
0
 10
277.32987194759801
 20
102.3588200211754
 30
0.0
 11
277.32987194759801
 21
101.9965439564962
 31
0.0
  0
POLYLINE
  5
8E5
  8
0
 10
280.02987194759811
 20
111.6088200211754
 30
0.0
 66
     1
 70
     8
  0
VERTEX
  8
0
  5
276B
 10
280.030
 20
111.609
 30
0.000000
  70
    32
  0
VERTEX
  8
0
  5
276C
 10
280.029
 20
111.627
 30
0.000000
  70
    32
  0
VERTEX
  8
0
  5
276D
 10
280.027
 20
111.646
 30
0.000000
  70
    32
  0
VERTEX
  8
0
  5
276E
 10
280.024
 20
111.664
 30
0.000000
  70
    32
  0
VERTEX
  8
0
  5
276F
 10
280.019
 20
111.682
 30
0.000000
  70
    32
  0
VERTEX
  8
0
  5
2770
 10
280.013
 20
111.701
 30
0.000000
  70
    32
  0
VERTEX
  8
0
  5
2771
 10
280.006
 20
111.719
 30
0.000000
  70
    32
  0
VERTEX
  8
0
  5
2772
 10
279.997
 20
111.737
 30
0.000000
  70
    32
  0
VERTEX
  8
0
  5
2773
 10
279.987
 20
111.755
 30
0.000000
  70
    32
  0
VERTEX
  8
0
  5
2774
 10
279.975
 20
111.773
 30
0.000000
  70
    32
  0
VERTEX
  8
0
  5
2775
 10
279.962
 20
111.791
 30
0.000000
  70
    32
  0
VERTEX
  8
0
  5
2776
 10
279.948
 20
111.809
 30
0.000000
  70
    32
  0
VERTEX
  8
0
  5
2777
 10
279.933
 20
111.827
 30
0.000000
  70
    32
  0
VERTEX
  8
0
  5
2778
 10
279.916
 20
111.844
 30
0.000000
  70
    32
  0
VERTEX
  8
0
  5
2779
 10
279.898
 20
111.861
 30
0.000000
  70
    32
  0
VERTEX
  8
0
  5
277A
 10
279.879
 20
111.879
 30
0.000000
  70
    32
  0
VERTEX
  8
0
  5
277B
 10
279.859
 20
111.896
 30
0.000000
  70
    32
  0
VERTEX
  8
0
  5
277C
 10
279.837
 20
111.913
 30
0.000000
  70
    32
  0
VERTEX
  8
0
  5
277D
 10
279.814
 20
111.929
 30
0.000000
  70
    32
  0
VERTEX
  8
0
  5
277E
 10
279.790
 20
111.946
 30
0.000000
  70
    32
  0
VERTEX
  8
0
  5
277F
 10
279.764
 20
111.962
 30
0.000000
  70
    32
  0
VERTEX
  8
0
  5
2780
 10
279.738
 20
111.978
 30
0.000000
  70
    32
  0
VERTEX
  8
0
  5
2781
 10
279.710
 20
111.994
 30
0.000000
  70
    32
  0
VERTEX
  8
0
  5
2782
 10
279.681
 20
112.010
 30
0.000000
  70
    32
  0
VERTEX
  8
0
  5
2783
 10
279.651
 20
112.025
 30
0.000000
  70
    32
  0
VERTEX
  8
0
  5
2784
 10
279.619
 20
112.041
 30
0.000000
  70
    32
  0
VERTEX
  8
0
  5
2785
 10
279.587
 20
112.056
 30
0.000000
  70
    32
  0
VERTEX
  8
0
  5
2786
 10
279.554
 20
112.070
 30
0.000000
  70
    32
  0
VERTEX
  8
0
  5
2787
 10
279.519
 20
112.085
 30
0.000000
  70
    32
  0
VERTEX
  8
0
  5
2788
 10
279.484
 20
112.099
 30
0.000000
  70
    32
  0
VERTEX
  8
0
  5
2789
 10
279.447
 20
112.112
 30
0.000000
  70
    32
  0
VERTEX
  8
0
  5
278A
 10
279.409
 20
112.126
 30
0.000000
  70
    32
  0
VERTEX
  8
0
  5
278B
 10
279.371
 20
112.139
 30
0.000000
  70
    32
  0
VERTEX
  8
0
  5
278C
 10
279.331
 20
112.152
 30
0.000000
  70
    32
  0
VERTEX
  8
0
  5
278D
 10
279.291
 20
112.165
 30
0.000000
  70
    32
  0
VERTEX
  8
0
  5
278E
 10
279.250
 20
112.177
 30
0.000000
  70
    32
  0
VERTEX
  8
0
  5
278F
 10
279.207
 20
112.189
 30
0.000000
  70
    32
  0
VERTEX
  8
0
  5
2790
 10
279.164
 20
112.200
 30
0.000000
  70
    32
  0
VERTEX
  8
0
  5
2791
 10
279.120
 20
112.211
 30
0.000000
  70
    32
  0
VERTEX
  8
0
  5
2792
 10
279.075
 20
112.222
 30
0.000000
  70
    32
  0
VERTEX
  8
0
  5
2793
 10
279.030
 20
112.232
 30
0.000000
  70
    32
  0
VERTEX
  8
0
  5
2794
 10
278.984
 20
112.242
 30
0.000000
  70
    32
  0
VERTEX
  8
0
  5
2795
 10
278.937
 20
112.252
 30
0.000000
  70
    32
  0
VERTEX
  8
0
  5
2796
 10
278.889
 20
112.261
 30
0.000000
  70
    32
  0
VERTEX
  8
0
  5
2797
 10
278.841
 20
112.270
 30
0.000000
  70
    32
  0
VERTEX
  8
0
  5
2798
 10
278.791
 20
112.279
 30
0.000000
  70
    32
  0
VERTEX
  8
0
  5
2799
 10
278.742
 20
112.287
 30
0.000000
  70
    32
  0
VERTEX
  8
0
  5
279A
 10
278.692
 20
112.294
 30
0.000000
  70
    32
  0
VERTEX
  8
0
  5
279B
 10
278.641
 20
112.302
 30
0.000000
  70
    32
  0
VERTEX
  8
0
  5
279C
 10
278.590
 20
112.309
 30
0.000000
  70
    32
  0
VERTEX
  8
0
  5
279D
 10
278.538
 20
112.315
 30
0.000000
  70
    32
  0
VERTEX
  8
0
  5
279E
 10
278.486
 20
112.321
 30
0.000000
  70
    32
  0
VERTEX
  8
0
  5
279F
 10
278.433
 20
112.327
 30
0.000000
  70
    32
  0
VERTEX
  8
0
  5
27A0
 10
278.380
 20
112.332
 30
0.000000
  70
    32
  0
VERTEX
  8
0
  5
27A1
 10
278.327
 20
112.336
 30
0.000000
  70
    32
  0
VERTEX
  8
0
  5
27A2
 10
278.273
 20
112.341
 30
0.000000
  70
    32
  0
VERTEX
  8
0
  5
27A3
 10
278.219
 20
112.344
 30
0.000000
  70
    32
  0
VERTEX
  8
0
  5
27A4
 10
278.165
 20
112.348
 30
0.000000
  70
    32
  0
VERTEX
  8
0
  5
27A5
 10
278.110
 20
112.351
 30
0.000000
  70
    32
  0
VERTEX
  8
0
  5
27A6
 10
278.055
 20
112.353
 30
0.000000
  70
    32
  0
VERTEX
  8
0
  5
27A7
 10
278.000
 20
112.355
 30
0.000000
  70
    32
  0
VERTEX
  8
0
  5
27A8
 10
277.945
 20
112.357
 30
0.000000
  70
    32
  0
VERTEX
  8
0
  5
27A9
 10
277.890
 20
112.358
 30
0.000000
  70
    32
  0
VERTEX
  8
0
  5
27AA
 10
277.835
 20
112.359
 30
0.000000
  70
    32
  0
VERTEX
  8
0
  5
27AB
 10
277.780
 20
112.359
 30
0.000000
  70
    32
  0
VERTEX
  8
0
  5
27AC
 10
277.725
 20
112.359
 30
0.000000
  70
    32
  0
VERTEX
  8
0
  5
27AD
 10
277.669
 20
112.358
 30
0.000000
  70
    32
  0
VERTEX
  8
0
  5
27AE
 10
277.614
 20
112.357
 30
0.000000
  70
    32
  0
VERTEX
  8
0
  5
27AF
 10
277.559
 20
112.355
 30
0.000000
  70
    32
  0
VERTEX
  8
0
  5
27B0
 10
277.504
 20
112.353
 30
0.000000
  70
    32
  0
VERTEX
  8
0
  5
27B1
 10
277.450
 20
112.351
 30
0.000000
  70
    32
  0
VERTEX
  8
0
  5
27B2
 10
277.395
 20
112.348
 30
0.000000
  70
    32
  0
VERTEX
  8
0
  5
27B3
 10
277.341
 20
112.344
 30
0.000000
  70
    32
  0
VERTEX
  8
0
  5
27B4
 10
277.287
 20
112.341
 30
0.000000
  70
    32
  0
VERTEX
  8
0
  5
27B5
 10
277.233
 20
112.336
 30
0.000000
  70
    32
  0
VERTEX
  8
0
  5
27B6
 10
277.180
 20
112.332
 30
0.000000
  70
    32
  0
VERTEX
  8
0
  5
27B7
 10
277.127
 20
112.327
 30
0.000000
  70
    32
  0
VERTEX
  8
0
  5
27B8
 10
277.074
 20
112.321
 30
0.000000
  70
    32
  0
VERTEX
  8
0
  5
27B9
 10
277.022
 20
112.315
 30
0.000000
  70
    32
  0
VERTEX
  8
0
  5
27BA
 10
276.970
 20
112.309
 30
0.000000
  70
    32
  0
VERTEX
  8
0
  5
27BB
 10
276.919
 20
112.302
 30
0.000000
  70
    32
  0
VERTEX
  8
0
  5
27BC
 10
276.868
 20
112.294
 30
0.000000
  70
    32
  0
VERTEX
  8
0
  5
27BD
 10
276.818
 20
112.287
 30
0.000000
  70
    32
  0
VERTEX
  8
0
  5
27BE
 10
276.768
 20
112.279
 30
0.000000
  70
    32
  0
VERTEX
  8
0
  5
27BF
 10
276.719
 20
112.270
 30
0.000000
  70
    32
  0
VERTEX
  8
0
  5
27C0
 10
276.671
 20
112.261
 30
0.000000
  70
    32
  0
VERTEX
  8
0
  5
27C1
 10
276.623
 20
112.252
 30
0.000000
  70
    32
  0
VERTEX
  8
0
  5
27C2
 10
276.576
 20
112.242
 30
0.000000
  70
    32
  0
VERTEX
  8
0
  5
27C3
 10
276.530
 20
112.232
 30
0.000000
  70
    32
  0
VERTEX
  8
0
  5
27C4
 10
276.484
 20
112.222
 30
0.000000
  70
    32
  0
VERTEX
  8
0
  5
27C5
 10
276.440
 20
112.211
 30
0.000000
  70
    32
  0
VERTEX
  8
0
  5
27C6
 10
276.396
 20
112.200
 30
0.000000
  70
    32
  0
VERTEX
  8
0
  5
27C7
 10
276.352
 20
112.189
 30
0.000000
  70
    32
  0
VERTEX
  8
0
  5
27C8
 10
276.310
 20
112.177
 30
0.000000
  70
    32
  0
VERTEX
  8
0
  5
27C9
 10
276.269
 20
112.165
 30
0.000000
  70
    32
  0
VERTEX
  8
0
  5
27CA
 10
276.228
 20
112.152
 30
0.000000
  70
    32
  0
VERTEX
  8
0
  5
27CB
 10
276.189
 20
112.139
 30
0.000000
  70
    32
  0
VERTEX
  8
0
  5
27CC
 10
276.150
 20
112.126
 30
0.000000
  70
    32
  0
VERTEX
  8
0
  5
27CD
 10
276.113
 20
112.112
 30
0.000000
  70
    32
  0
VERTEX
  8
0
  5
27CE
 10
276.076
 20
112.099
 30
0.000000
  70
    32
  0
VERTEX
  8
0
  5
27CF
 10
276.041
 20
112.085
 30
0.000000
  70
    32
  0
VERTEX
  8
0
  5
27D0
 10
276.006
 20
112.070
 30
0.000000
  70
    32
  0
VERTEX
  8
0
  5
27D1
 10
275.973
 20
112.056
 30
0.000000
  70
    32
  0
VERTEX
  8
0
  5
27D2
 10
275.940
 20
112.041
 30
0.000000
  70
    32
  0
VERTEX
  8
0
  5
27D3
 10
275.909
 20
112.025
 30
0.000000
  70
    32
  0
VERTEX
  8
0
  5
27D4
 10
275.879
 20
112.010
 30
0.000000
  70
    32
  0
VERTEX
  8
0
  5
27D5
 10
275.850
 20
111.994
 30
0.000000
  70
    32
  0
VERTEX
  8
0
  5
27D6
 10
275.822
 20
111.978
 30
0.000000
  70
    32
  0
VERTEX
  8
0
  5
27D7
 10
275.796
 20
111.962
 30
0.000000
  70
    32
  0
VERTEX
  8
0
  5
27D8
 10
275.770
 20
111.946
 30
0.000000
  70
    32
  0
VERTEX
  8
0
  5
27D9
 10
275.746
 20
111.929
 30
0.000000
  70
    32
  0
VERTEX
  8
0
  5
27DA
 10
275.723
 20
111.913
 30
0.000000
  70
    32
  0
VERTEX
  8
0
  5
27DB
 10
275.701
 20
111.896
 30
0.000000
  70
    32
  0
VERTEX
  8
0
  5
27DC
 10
275.681
 20
111.879
 30
0.000000
  70
    32
  0
VERTEX
  8
0
  5
27DD
 10
275.661
 20
111.861
 30
0.000000
  70
    32
  0
VERTEX
  8
0
  5
27DE
 10
275.643
 20
111.844
 30
0.000000
  70
    32
  0
VERTEX
  8
0
  5
27DF
 10
275.627
 20
111.827
 30
0.000000
  70
    32
  0
VERTEX
  8
0
  5
27E0
 10
275.611
 20
111.809
 30
0.000000
  70
    32
  0
VERTEX
  8
0
  5
27E1
 10
275.597
 20
111.791
 30
0.000000
  70
    32
  0
VERTEX
  8
0
  5
27E2
 10
275.585
 20
111.773
 30
0.000000
  70
    32
  0
VERTEX
  8
0
  5
27E3
 10
275.573
 20
111.755
 30
0.000000
  70
    32
  0
VERTEX
  8
0
  5
27E4
 10
275.563
 20
111.737
 30
0.000000
  70
    32
  0
VERTEX
  8
0
  5
27E5
 10
275.554
 20
111.719
 30
0.000000
  70
    32
  0
VERTEX
  8
0
  5
27E6
 10
275.547
 20
111.701
 30
0.000000
  70
    32
  0
VERTEX
  8
0
  5
27E7
 10
275.541
 20
111.682
 30
0.000000
  70
    32
  0
VERTEX
  8
0
  5
27E8
 10
275.536
 20
111.664
 30
0.000000
  70
    32
  0
VERTEX
  8
0
  5
27E9
 10
275.533
 20
111.646
 30
0.000000
  70
    32
  0
VERTEX
  8
0
  5
27EA
 10
275.531
 20
111.627
 30
0.000000
  70
    32
  0
VERTEX
  8
0
  5
27EB
 10
275.530
 20
111.609
 30
0.000000
  70
    32
  0
SEQEND
  8
0
  5
27EC
  0
LINE
  5
8E6
  8
0
 10
283.529871947598
 20
104.3588200211754
 30
0.0
 11
283.529871947598
 21
102.3588200211754
 31
0.0
  0
LINE
  5
8E7
  8
0
 10
263.029871947598
 20
142.3588200211754
 30
0.0
 11
278.02987194759811
 21
142.3588200211754
 31
0.0
  0
CIRCLE
  5
1810
  8
3
 10
88.009470867285813
 20
32.358820021175347
 30
0.0
 40
5.0
  0
CIRCLE
  5
1811
  8
0
 10
88.009470867285813
 20
32.358820021175347
 30
0.0
 40
4.188000000000101
  0
CIRCLE
  5
1828
  8
0
 10
270.529871947598
 20
32.358820021175397
 30
0.0
 40
4.188000000000101
  0
CIRCLE
  5
1829
  8
3
 10
270.529871947598
 20
32.358820021175397
 30
0.0
 40
5.0
  0
LINE
  5
182A
  8
2
 10
75.509470867285813
 20
37.358820021175397
 30
0.0
 11
100.5094708672858
 21
37.358820021175397
 31
0.0
  0
LINE
  5
182B
  8
2
 10
75.509470867285842
 20
36.546820021175513
 30
0.0
 11
100.5094708672858
 21
36.546820021175513
 31
0.0
  0
LINE
  5
182C
  8
2
 10
75.509470867285813
 20
28.170820021175299
 30
0.0
 11
100.5094708672858
 21
28.170820021175299
 31
0.0
  0
LINE
  5
182D
  8
2
 10
75.509470867285813
 20
27.358820021175401
 30
0.0
 11
100.5094708672858
 21
27.358820021175401
 31
0.0
  0
LINE
  5
182E
  8
2
 10
258.029871947598
 20
37.358820021175397
 30
0.0
 11
283.029871947598
 21
37.358820021175397
 31
0.0
  0
LINE
  5
182F
  8
2
 10
258.029871947598
 20
36.546820021175513
 30
0.0
 11
283.029871947598
 21
36.546820021175513
 31
0.0
  0
LINE
  5
1830
  8
2
 10
258.029871947598
 20
28.170820021175299
 30
0.0
 11
283.029871947598
 21
28.170820021175299
 31
0.0
  0
LINE
  5
1831
  8
2
 10
258.029871947598
 20
27.358820021175401
 30
0.0
 11
283.029871947598
 21
27.358820021175401
 31
0.0
  0
CIRCLE
  5
1858
  8
3
 10
88.009470867285813
 20
132.35882002117529
 30
0.0
 40
8.0
  0
CIRCLE
  5
1859
  8
0
 10
88.009470867285813
 20
132.35882002117529
 30
0.0
 40
6.9175000000000182
  0
LINE
  5
185A
  8
2
 10
263.029871947598
 20
140.35882002117529
 30
0.0
 11
278.02987194759811
 21
140.35882002117529
 31
0.0
  0
LINE
  5
185B
  8
2
 10
263.029871947598
 20
139.27632002117531
 30
0.0
 11
278.02987194759811
 21
139.27632002117531
 31
0.0
  0
LINE
  5
185C
  8
2
 10
263.029871947598
 20
125.4413200211753
 30
0.0
 11
278.02987194759811
 21
125.4413200211753
 31
0.0
  0
LINE
  5
185D
  8
2
 10
263.029871947598
 20
124.3588200211753
 30
0.0
 11
278.02987194759811
 21
124.3588200211753
 31
0.0
  0
CIRCLE
  5
1873
  8
3
 10
26.150514948368929
 20
67.858820021175347
 30
0.0
 40
6.9175000000000182
  0
CIRCLE
  5
1874
  8
3
 10
26.150514948368929
 20
67.858820021175347
 30
0.0
 40
8.0
  0
CIRCLE
  5
1875
  8
3
 10
149.86842678620269
 20
67.858820021175347
 30
0.0
 40
6.9175000000000182
  0
CIRCLE
  5
1876
  8
3
 10
149.86842678620269
 20
67.858820021175347
 30
0.0
 40
8.0
  0
TEXT
  5
1B22
  8
0
 62
     3
 10
0.0
 20
0.0
 30
0.0
 40
10.0
  1
TC-ABN20-16
  7
STANDARD1
  0
ENDSEC
  0
EOF
