  0
SECTION
  2
HEADER
  9
$ACADVER
  1
AC1009
  9
$INSBASE
 10
0.0
 20
0.0
 30
0.0
  9
$EXTMIN
 10
0.0
 20
-2.960436562073669
 30
0.0
  9
$EXTMAX
 10
180.681158165406
 20
91.218334962783217
 30
0.0
  9
$LIMMIN
 10
0.0
 20
0.0
  9
$LIMMAX
 10
375.0
 20
270.0
  9
$ORTHOMODE
 70
     0
  9
$REGENMODE
 70
     1
  9
$FILLMODE
 70
     1
  9
$QTEXTMODE
 70
     0
  9
$MIRRTEXT
 70
     0
  9
$DRAGMODE
 70
     2
  9
$LTSCALE
 40
10.0
  9
$OSMODE
 70
    37
  9
$ATTMODE
 70
     1
  9
$TEXTSIZE
 40
6.0
  9
$TRACEWID
 40
0.05
  9
$TEXTSTYLE
  7
STANDARD
  9
$CLAYER
  8
0
  9
$CELTYPE
  6
BYLAYER
  9
$CECOLOR
 62
   256
  9
$DIMSCALE
 40
1.0
  9
$DIMASZ
 40
3.0
  9
$DIMEXO
 40
2.0
  9
$DIMDLI
 40
0.3799999999999999
  9
$DIMRND
 40
0.0
  9
$DIMDLE
 40
0.0
  9
$DIMEXE
 40
2.0
  9
$DIMTP
 40
0.0
  9
$DIMTM
 40
0.0
  9
$DIMTXT
 40
3.2000000000000002
  9
$DIMCEN
 40
0.09
  9
$DIMTSZ
 40
0.0
  9
$DIMTOL
 70
     0
  9
$DIMLIM
 70
     0
  9
$DIMTIH
 70
     0
  9
$DIMTOH
 70
     0
  9
$DIMSE1
 70
     0
  9
$DIMSE2
 70
     0
  9
$DIMTAD
 70
     1
  9
$DIMZIN
 70
     8
  9
$DIMBLK
  1

  9
$DIMASO
 70
     0
  9
$DIMSHO
 70
     0
  9
$DIMPOST
  1

  9
$DIMAPOST
  1

  9
$DIMALT
 70
     0
  9
$DIMALTD
 70
     2
  9
$DIMALTF
 40
25.399999999999999
  9
$DIMLFAC
 40
1.0
  9
$DIMTOFL
 70
     0
  9
$DIMTVP
 40
0.0
  9
$DIMTIX
 70
     0
  9
$DIMSOXD
 70
     0
  9
$DIMSAH
 70
     0
  9
$DIMBLK1
  1

  9
$DIMBLK2
  1

  9
$DIMSTYLE
  2
STANDARD
  9
$DIMCLRD
 70
   256
  9
$DIMCLRE
 70
     0
  9
$DIMCLRT
 70
   256
  9
$DIMTFAC
 40
1.0
  9
$DIMGAP
 40
0.09
  9
$LUNITS
 70
     2
  9
$LUPREC
 70
     4
  9
$SKETCHINC
 40
0.1
  9
$FILLETRAD
 40
20.0
  9
$AUNITS
 70
     0
  9
$AUPREC
 70
     0
  9
$MENU
  1
E:\r13\win\SUPPORT\ACAD
  9
$ELEVATION
 40
0.0
  9
$PELEVATION
 40
0.0
  9
$THICKNESS
 40
0.0
  9
$LIMCHECK
 70
     0
  9
$BLIPMODE
 70
     0
  9
$CHAMFERA
 40
0.0
  9
$CHAMFERB
 40
0.0
  9
$SKPOLY
 70
     0
  9
$TDCREATE
 40
2449840.6320370371
  9
$TDUPDATE
 40
2458835.7073809952
  9
$TDINDWG
 40
0.1161446412
  9
$TDUSRTIMER
 40
2456598.3615507642
  9
$USRTIMER
 70
     1
  9
$ANGBASE
 50
0.0
  9
$ANGDIR
 70
     0
  9
$PDMODE
 70
     0
  9
$PDSIZE
 40
0.0
  9
$PLINEWID
 40
0.0
  9
$COORDS
 70
     1
  9
$SPLFRAME
 70
     0
  9
$SPLINETYPE
 70
     6
  9
$SPLINESEGS
 70
     8
  9
$ATTDIA
 70
     0
  9
$ATTREQ
 70
     1
  9
$HANDLING
 70
     1
  9
$HANDSEED
  5
A6A
  9
$SURFTAB1
 70
     6
  9
$SURFTAB2
 70
     6
  9
$SURFTYPE
 70
     6
  9
$SURFU
 70
     6
  9
$SURFV
 70
     6
  9
$UCSNAME
  2

  9
$UCSORG
 10
0.0
 20
0.0
 30
0.0
  9
$UCSXDIR
 10
1.0
 20
0.0
 30
0.0
  9
$UCSYDIR
 10
0.0
 20
1.0
 30
0.0
  9
$PUCSNAME
  2

  9
$PUCSORG
 10
0.0
 20
0.0
 30
0.0
  9
$PUCSXDIR
 10
1.0
 20
0.0
 30
0.0
  9
$PUCSYDIR
 10
0.0
 20
1.0
 30
0.0
  9
$USERI1
 70
     0
  9
$USERI2
 70
     1
  9
$USERI3
 70
     0
  9
$USERI4
 70
     0
  9
$USERI5
 70
     0
  9
$USERR1
 40
0.0
  9
$USERR2
 40
0.0
  9
$USERR3
 40
0.0
  9
$USERR4
 40
0.0
  9
$USERR5
 40
0.0
  9
$WORLDVIEW
 70
     1
  9
$SHADEDGE
 70
     3
  9
$SHADEDIF
 70
    70
  9
$TILEMODE
 70
     1
  9
$MAXACTVP
 70
    16
  9
$PLIMCHECK
 70
     0
  9
$PEXTMIN
 10
1.0000000000000000E+020
 20
1.0000000000000000E+020
 30
1.0000000000000000E+020
  9
$PEXTMAX
 10
-1.0000000000000000E+020
 20
-1.0000000000000000E+020
 30
-1.0000000000000000E+020
  9
$PLIMMIN
 10
0.0
 20
0.0
  9
$PLIMMAX
 10
12.0
 20
9.0
  9
$UNITMODE
 70
     0
  9
$VISRETAIN
 70
     0
  9
$PLINEGEN
 70
     0
  9
$PSLTSCALE
 70
     0
  0
ENDSEC
  0
SECTION
  2
TABLES
  0
TABLE
  2
VPORT
 70
     1
  0
VPORT
  2
*ACTIVE
 70
     0
 10
0.0
 20
0.0
 11
1.0
 21
1.0
 12
346.43458915977652
 22
2.9060065200646639
 13
0.0
 23
0.0
 14
10.0
 24
10.0
 15
10.0
 25
10.0
 16
0.0
 26
0.0
 36
1.0
 17
0.0
 27
0.0
 37
0.0
 40
357.59679565492831
 41
2.3366214549938338
 42
50.0
 43
0.0
 44
0.0
 50
0.0
 51
0.0
 71
     0
 72
   500
 73
     1
 74
     0
 75
     0
 76
     0
 77
     0
 78
     0
  0
ENDTAB
  0
TABLE
  2
LTYPE
 70
     3
  0
LTYPE
  2
CONTINUOUS
 70
     0
  3
Solid Line
 72
    65
 73
     0
 40
0.0
  0
LTYPE
  2
CENTER
 70
     0
  3
____ _ ____ _ ____ _ ____ _ ____ _ ____ _ ____
 72
    65
 73
     4
 40
2.0
 49
1.25
 49
-0.25
 49
0.25
 49
-0.25
  0
LTYPE
  2
PHANTOM2
 70
     0
  3
___ _ _ ___ _ _ ___ _ _ ___ _ _
 72
    65
 73
     6
 40
1.25
 49
0.625
 49
-0.125
 49
0.125
 49
-0.125
 49
0.125
 49
-0.125
  0
ENDTAB
  0
TABLE
  2
LAYER
 70
     4
  0
LAYER
  2
0
 70
     0
 62
     7
  6
CONTINUOUS
  0
LAYER
  2
1
 70
     0
 62
     1
  6
CENTER
  0
LAYER
  2
3
 70
     0
 62
     3
  6
CONTINUOUS
  0
LAYER
  2
DEFPOINTS
 70
     0
 62
     7
  6
CONTINUOUS
  0
ENDTAB
  0
TABLE
  2
STYLE
 70
     2
  0
STYLE
  2
STANDARD
 70
     0
 40
0.0
 41
1.0
 50
0.0
 71
     0
 42
6.0
  3
TXT
  4
BIGFONT
  0
STYLE
  2
STANDARD1
 70
     0
 40
0.0
 41
1.0
 50
0.0
 71
     0
 42
3.0
  3
txt
  4

  0
ENDTAB
  0
TABLE
  2
VIEW
 70
     1
  0
VIEW
  2
ALL
 70
     0
 40
270.0
 10
213.25689075630251
 20
135.0
 41
0.0
 11
0.0
 21
0.0
 31
1.0
 12
0.0
 22
0.0
 32
0.0
 42
50.0
 43
0.0
 44
0.0
 50
0.0
 71
     0
  0
ENDTAB
  0
TABLE
  2
UCS
 70
     0
  0
ENDTAB
  0
TABLE
  2
APPID
 70
     4
  0
APPID
  2
ACAD
 70
     0
  0
APPID
  2
ACAD_MLEADERVER
 70
     0
  0
APPID
  2
ACAD_NAV_VCDISPLAY
 70
     0
  0
APPID
  2
ACAD_EXEMPT_FROM_CAD_STANDARDS
 70
     0
  0
ENDTAB
  0
TABLE
  2
DIMSTYLE
 70
     1
  0
DIMSTYLE
  2
STANDARD
 70
     0
  3

  4

  5

  6

  7

 40
1.0
 41
0.18
 42
0.0625
 43
0.38
 44
0.18
 45
0.0
 46
0.0
 47
0.0
 48
0.0
140
0.18
141
0.09
142
0.0
143
25.399999999999999
144
1.0
145
0.0
146
1.0
147
0.09
 71
     0
 72
     0
 73
     1
 74
     1
 75
     0
 76
     0
 77
     0
 78
     0
170
     0
171
     2
172
     0
173
     0
174
     0
175
     0
176
     0
177
     0
178
     0
  0
ENDTAB
  0
ENDSEC
  0
SECTION
  2
BLOCKS
  0
BLOCK
  8
0
  2
$MODEL_SPACE
 70
     0
 10
0.0
 20
0.0
 30
0.0
  3
$MODEL_SPACE
  1

  0
ENDBLK
  5
126
  8
0
  0
BLOCK
 67
     1
  8
0
  2
$PAPER_SPACE
 70
     0
 10
0.0
 20
0.0
 30
0.0
  3
$PAPER_SPACE
  1

  0
ENDBLK
  5
124
 67
     1
  8
0
  0
ENDSEC
  0
SECTION
  2
ENTITIES
  0
LINE
  5
3D0
  8
0
 10
45.712618307325783
 20
81.718334962783217
 30
0.0
 11
45.712618307325783
 21
85.810000217499066
 31
0.0
  0
LINE
  5
3D1
  8
0
 10
61.712618307325791
 20
65.718334962783217
 30
0.0
 11
65.804283562041633
 21
65.718334962783217
 31
0.0
  0
LINE
  5
3D2
  8
0
 10
61.712618307325791
 20
56.71833496278321
 30
0.0
 11
65.804283562041633
 21
56.71833496278321
 31
0.0
  0
LINE
  5
3D4
  8
0
 10
50.712618307325783
 20
62.324936680581473
 30
0.0
 11
50.712618307325783
 21
60.111733244985032
 31
0.0
  0
ARC
  5
3D5
  8
0
 10
50.712618307325783
 20
64.446257024141062
 30
0.0
 40
1.5
 50
225.0
 51
0.0
  0
LINE
  5
3D6
  8
0
 10
40.106016589527613
 20
70.718334962783217
 30
0.0
 11
42.319220025124082
 21
70.718334962783217
 31
0.0
  0
ARC
  5
3D7
  8
0
 10
37.984696245967832
 20
70.718334962783103
 30
0.0
 40
1.5
 50
314.99999999999989
 51
90.0
  0
ARC
  5
3D8
  8
0
 10
44.440540368683607
 20
70.718334962783217
 30
0.0
 40
1.5
 50
90.0
 51
225.0000000000002
  0
LINE
  5
3D9
  8
0
 10
42.319220025123968
 20
70.718334962783217
 30
0.0
 11
50.712618307325783
 21
62.324936680581402
 31
0.0
  0
LINE
  5
3DB
  8
0
 10
42.319220025123968
 20
51.71833496278321
 30
0.0
 11
40.106016589527471
 21
51.71833496278321
 31
0.0
  0
ARC
  5
3DC
  8
0
 10
37.984696245967832
 20
51.71833496278321
 30
0.0
 40
1.5
 50
270.0
 51
45.0
  0
ARC
  5
3DD
  8
0
 10
44.440540368683607
 20
51.71833496278321
 30
0.0
 40
1.5
 50
135.0
 51
270.0
  0
LINE
  5
3DE
  8
0
 10
50.712618307325783
 20
60.111733244985032
 30
0.0
 11
42.319220025123968
 21
51.71833496278321
 31
0.0
  0
ARC
  5
3DF
  8
0
 10
50.712618307325783
 20
57.990412901425373
 30
0.0
 40
1.5
 50
0.0
 51
135.0
  0
ARC
  5
3E0
  8
0
 10
61.712618307325791
 20
61.218334962783217
 30
0.0
 40
4.5
 50
90.0
 51
270.0
  0
LINE
  5
3E1
  8
0
 10
45.712618307325783
 20
40.718334962783217
 30
0.0
 11
45.712618307325783
 21
36.626669708067368
 31
0.0
  0
ARC
  5
3E2
  8
0
 10
41.212618307325783
 20
61.218334962783217
 30
0.0
 40
25.0
 50
280.36975980548101
 51
349.63024019452217
  0
ARC
  5
3E3
  8
0
 10
41.212618307325783
 20
61.218334962783217
 30
0.0
 40
25.0
 50
10.369759805477811
 51
79.63024019451899
  0
LINE
  5
3E4
  8
1
 10
41.212618307325783
 20
31.218334962783221
 30
0.0
 11
41.212618307325783
 21
91.218334962783217
 31
0.0
  0
LINE
  5
3E5
  8
0
 10
36.712618307325791
 20
81.718334962783217
 30
0.0
 11
36.712618307325791
 21
85.810000217499066
 31
0.0
  0
ARC
  5
3E6
  8
0
 10
150.55102350633661
 20
85.718334962783203
 30
0.0
 40
0.5
 50
90.0
 51
180.0
  0
LINE
  5
3E7
  8
0
 10
150.55102350633661
 20
86.218334962783217
 30
0.0
 11
158.05102350633661
 21
86.218334962783217
 31
0.0
  0
ARC
  5
3E8
  8
0
 10
149.55102350633661
 20
77.708026791289797
 30
0.0
 40
0.5
 50
271.1934894239842
 51
0.0
  0
LINE
  5
3EA
  8
0
 10
31.712618307325791
 20
60.111733244984961
 30
0.0
 11
31.712618307325791
 21
62.324936680581473
 31
0.0
  0
ARC
  5
3EB
  8
0
 10
31.712618307325791
 20
64.446257024141119
 30
0.0
 40
1.5
 50
180.0
 51
315.0
  0
LINE
  5
3EC
  8
0
 10
20.71261830732578
 20
65.718334962783217
 30
0.0
 11
16.620953052609931
 21
65.718334962783217
 31
0.0
  0
LINE
  5
3EE
  8
0
 10
20.71261830732578
 20
56.71833496278321
 30
0.0
 11
16.620953052609931
 21
56.71833496278321
 31
0.0
  0
ARC
  5
3EF
  8
0
 10
20.71261830732578
 20
61.218334962783217
 30
0.0
 40
4.5
 50
270.0
 51
90.0
  0
ARC
  5
3F0
  8
0
 10
31.712618307325791
 20
57.990412901425252
 30
0.0
 40
1.5
 50
45.0
 51
180.0
  0
LINE
  5
3F1
  8
0
 10
175.681158165406
 20
66.847500087382045
 30
0.0
 11
175.681158165406
 21
64.971111712515778
 31
0.0
  0
ARC
  5
3F2
  8
0
 10
173.4207414987394
 20
66.847500087382045
 30
0.0
 40
2.2604166666666541
 50
303.89023816900851
 51
56.109761830991502
  0
LINE
  5
3F3
  8
0
 10
175.681158165406
 20
57.465558213050649
 30
0.0
 11
175.681158165406
 21
55.589169838184318
 31
0.0
  0
ARC
  5
3F4
  8
0
 10
173.4207414987394
 20
55.589169838184318
 30
0.0
 40
2.260416666666619
 50
303.89023816900828
 51
56.109761830991708
  0
ARC
  5
3F5
  8
0
 10
168.13949149873949
 20
61.218334962783217
 30
0.0
 40
7.5416666666665799
 50
330.15827583531689
 51
29.841724164683061
  0
LINE
  5
3F6
  8
0
 10
175.681158165406
 20
64.971111712515778
 30
0.0
 11
175.681158165406
 21
57.465558213050649
 31
0.0
  0
LINE
  5
3F7
  8
0
 10
36.712618307325791
 20
40.718334962783217
 30
0.0
 11
36.712618307325791
 21
36.626669708067368
 31
0.0
  0
ARC
  5
3F8
  8
0
 10
41.212618307325783
 20
61.218334962783217
 30
0.0
 40
25.0
 50
190.3697598054776
 51
259.63024019451899
  0
LINE
  5
3F9
  8
0
 10
168.181158165406
 20
68.218334962783217
 30
0.0
 11
170.181158165406
 21
68.218334962783217
 31
0.0
  0
LINE
  5
3FA
  8
0
 10
168.12873688139069
 20
65.218334962783217
 30
0.0
 11
158.05102350633661
 21
65.218334962783231
 31
0.0
  0
LINE
  5
3FB
  8
0
 10
168.181158165406
 20
61.4448141199411
 30
0.0
 11
170.181158165406
 21
59.688733323670078
 31
0.0
  0
LINE
  5
3FC
  8
0
 10
168.181158165406
 20
62.85672997844717
 30
0.0
 11
170.181158165406
 21
61.100649182176198
 31
0.0
  0
LINE
  5
3FF
  8
0
 10
158.05102350633661
 20
65.718334962783217
 30
0.0
 11
150.05102350633661
 21
65.718334962783217
 31
0.0
  0
LINE
  5
400
  8
3
 10
158.05102350633661
 20
64.541834962783383
 30
0.0
 11
168.18115816540609
 21
64.541834962783383
 31
0.0
  0
LINE
  5
402
  8
0
 10
168.12873688139069
 20
57.21833496278321
 30
0.0
 11
158.05102350633661
 21
57.21833496278321
 31
0.0
  0
LINE
  5
403
  8
0
 10
168.181158165406
 20
54.21833496278321
 30
0.0
 11
170.181158165406
 21
54.21833496278321
 31
0.0
  0
LINE
  5
405
  8
0
 10
158.05102350633661
 20
56.71833496278321
 30
0.0
 11
150.05102350633661
 21
56.71833496278321
 31
0.0
  0
ARC
  5
406
  8
0
 10
149.55102350633661
 20
44.728643134276624
 30
0.0
 40
0.5
 50
0.0
 51
88.806510576022305
  0
LINE
  5
407
  8
3
 10
158.05102350633661
 20
57.894834962783143
 30
0.0
 11
168.181158165406
 21
57.894834962783143
 31
0.0
  0
LINE
  5
409
  8
0
 10
170.181158165406
 20
68.72388846224834
 30
0.0
 11
170.181158165406
 21
53.712781463318088
 31
0.0
  0
LINE
  5
40A
  8
0
 10
168.181158165406
 20
68.218334962783217
 30
0.0
 11
168.181158165406
 21
54.21833496278321
 31
0.0
  0
ARC
  5
40B
  8
0
 10
150.55102350633661
 20
36.718334962783217
 30
0.0
 40
0.5
 50
180.0
 51
270.0
  0
LINE
  5
40C
  8
0
 10
150.55102350633661
 20
36.218334962783217
 30
0.0
 11
158.05102350633661
 21
36.218334962783217
 31
0.0
  0
LINE
  5
40D
  8
0
 10
170.181158165406
 20
57.465558213050649
 30
0.0
 11
174.681158165406
 21
57.465558213050649
 31
0.0
  0
LINE
  5
40E
  8
0
 10
170.181158165406
 20
53.712781463318088
 30
0.0
 11
174.681158165406
 21
53.712781463318088
 31
0.0
  0
LINE
  5
40F
  8
0
 10
170.181158165406
 20
64.971111712515778
 30
0.0
 11
174.681158165406
 21
64.971111712515778
 31
0.0
  0
LINE
  5
410
  8
0
 10
170.181158165406
 20
68.72388846224834
 30
0.0
 11
174.681158165406
 21
68.72388846224834
 31
0.0
  0
LINE
  5
411
  8
0
 10
150.05102350633661
 20
85.718334962783203
 30
0.0
 11
150.05102350633661
 21
36.718334962783217
 31
0.0
  0
LINE
  5
412
  8
0
 10
158.05102350633661
 20
86.218334962783217
 30
0.0
 11
158.05102350633661
 21
36.218334962783217
 31
0.0
  0
ARC
  5
413
  8
0
 10
41.212618307325783
 20
61.218334962783217
 30
0.0
 40
25.0
 50
100.369759805481
 51
169.6302401945222
  0
LINE
  5
414
  8
0
 10
102.05102350633661
 20
70.718334962783217
 30
0.0
 11
101.05102350633661
 21
70.718334962783217
 31
0.0
  0
LINE
  5
415
  8
0
 10
102.05102350633661
 20
62.324936680581402
 30
0.0
 11
101.05102350633661
 21
62.324936680581473
 31
0.0
  0
LINE
  5
416
  8
0
 10
102.05102350633661
 20
60.111733244984961
 30
0.0
 11
101.05102350633661
 21
60.111733244984961
 31
0.0
  0
LINE
  5
417
  8
0
 10
102.05102350633661
 20
51.71833496278321
 30
0.0
 11
101.05102350633661
 21
51.71833496278321
 31
0.0
  0
LINE
  5
418
  8
0
 10
101.05102350633661
 20
70.718334962783217
 30
0.0
 11
101.05102350633661
 21
51.71833496278321
 31
0.0
  0
LINE
  5
419
  8
0
 10
102.05102350633661
 20
76.218334962783217
 30
0.0
 11
102.05102350633661
 21
46.218334962783217
 31
0.0
  0
LINE
  5
41A
  8
1
 10
96.051023506336591
 20
61.218334962783153
 30
0.0
 11
180.681158165406
 21
61.218334962783217
 31
0.0
  0
LINE
  5
41B
  8
0
 10
149.56143791317751
 20
45.228534662640683
 30
0.0
 11
102.05102350633661
 21
46.218334962783217
 31
0.0
  0
LINE
  5
41C
  8
0
 10
149.56143791317751
 20
77.208135262925737
 30
0.0
 11
102.05102350633661
 21
76.218334962783217
 31
0.0
  0
ARC
  5
41D
  8
0
 10
41.212618307325783
 20
40.718334962783217
 30
0.0
 40
4.5
 50
0.0
 51
180.0
  0
ARC
  5
41E
  8
0
 10
41.212618307325783
 20
81.718334962783217
 30
0.0
 40
4.5
 50
180.0
 51
0.0
  0
POLYLINE
  5
420
  8
0
 66
     1
 10
0.0
 20
0.0
 30
0.0
 70
     1
  0
VERTEX
  5
A20
  8
0
 10
25.212618307325791
 20
72.218334962783203
 30
0.0
  0
VERTEX
  5
A21
  8
0
 10
25.212618307325791
 20
50.218334962783217
 30
0.0
 42
0.4142135623730951
  0
VERTEX
  5
A22
  8
0
 10
30.212618307325791
 20
45.21833496278321
 30
0.0
  0
VERTEX
  5
A23
  8
0
 10
52.212618307325783
 20
45.21833496278321
 30
0.0
 42
0.4142135623730951
  0
VERTEX
  5
A24
  8
0
 10
57.212618307325783
 20
50.218334962783217
 30
0.0
  0
VERTEX
  5
A25
  8
0
 10
57.212618307325783
 20
72.218334962783203
 30
0.0
 42
0.4142135623730951
  0
VERTEX
  5
A26
  8
0
 10
52.212618307325783
 20
77.218334962783203
 30
0.0
  0
VERTEX
  5
A27
  8
0
 10
30.212618307325791
 20
77.218334962783203
 30
0.0
 42
0.4142135623730951
  0
SEQEND
  5
A28
  8
0
  0
POLYLINE
  5
422
  8
0
 66
     1
 10
0.0
 20
0.0
 30
0.0
 70
     1
  0
VERTEX
  5
A29
  8
0
 10
30.212618307325791
 20
72.218334962783203
 30
0.0
  0
VERTEX
  5
A2A
  8
0
 10
30.212618307325791
 20
50.218334962783217
 30
0.0
  0
VERTEX
  5
A2B
  8
0
 10
52.212618307325783
 20
50.218334962783217
 30
0.0
  0
VERTEX
  5
A2C
  8
0
 10
52.212618307325783
 20
72.218334962783203
 30
0.0
  0
SEQEND
  5
A2D
  8
0
  0
LINE
  5
423
  8
1
 10
11.212618307325769
 20
61.218334962783217
 30
0.0
 11
71.212618307325798
 21
61.218334962783217
 31
0.0
  0
LINE
  5
425
  8
0
 10
40.106016589527471
 20
51.71833496278321
 30
0.0
 11
31.712618307325791
 21
60.111733244984961
 31
0.0
  0
LINE
  5
427
  8
0
 10
31.712618307325791
 20
62.324936680581402
 30
0.0
 11
40.106016589527613
 21
70.718334962783217
 31
0.0
  0
LINE
  5
5CD
  8
1
 10
35.212618307325791
 20
66.218334962783217
 30
0.0
 11
47.212618307325783
 21
66.218334962783217
 31
0.0
  0
LINE
  5
5CE
  8
1
 10
35.212618307325791
 20
56.218334962783217
 30
0.0
 11
47.212618307325783
 21
56.218334962783217
 31
0.0
  0
CIRCLE
  5
65E
  8
3
 10
41.212618307325783
 20
66.218334962783217
 30
0.0
 40
3.0
  0
CIRCLE
  5
65F
  8
0
 10
41.212618307325783
 20
66.218334962783217
 30
0.0
 40
2.4585000000001269
  0
CIRCLE
  5
660
  8
3
 10
41.212618307325783
 20
56.218334962783217
 30
0.0
 40
3.0
  0
CIRCLE
  5
661
  8
0
 10
41.212618307325783
 20
56.218334962783217
 30
0.0
 40
2.4585000000001269
  0
TEXT
  5
875
  8
0
 62
     3
 10
0.0
 20
0.0
 30
0.0
 40
10.0
  1
TC-PXP20
  7
STANDARD1
  0
ENDSEC
  0
EOF
