  0
SECTION
  2
HEADER
  9
$ACADVER
  1
AC1009
  9
$INSBASE
 10
0.0
 20
0.0
 30
0.0
  9
$EXTMIN
 10
0.0
 20
-2.960436562073669
 30
0.0
  9
$EXTMAX
 10
287.5000000000002842
 20
288.0000000000002274
 30
0.0
  9
$LIMMIN
 10
0.0
 20
0.0
  9
$LIMMAX
 10
375.0
 20
270.0
  9
$ORTHOMODE
 70
     1
  9
$REGENMODE
 70
     1
  9
$FILLMODE
 70
     1
  9
$QTEXTMODE
 70
     0
  9
$MIRRTEXT
 70
     0
  9
$DRAGMODE
 70
     2
  9
$LTSCALE
 40
10.0
  9
$OSMODE
 70
    37
  9
$ATTMODE
 70
     1
  9
$TEXTSIZE
 40
0.2
  9
$TRACEWID
 40
0.05
  9
$TEXTSTYLE
  7
STANDARD
  9
$CLAYER
  8
0
  9
$CELTYPE
  6
BYLAYER
  9
$CECOLOR
 62
   256
  9
$DIMSCALE
 40
1.0
  9
$DIMASZ
 40
3.0
  9
$DIMEXO
 40
2.0
  9
$DIMDLI
 40
0.38
  9
$DIMRND
 40
0.0
  9
$DIMDLE
 40
0.0
  9
$DIMEXE
 40
2.0
  9
$DIMTP
 40
0.0
  9
$DIMTM
 40
0.0
  9
$DIMTXT
 40
3.2000000000000002
  9
$DIMCEN
 40
0.0
  9
$DIMTSZ
 40
0.0
  9
$DIMTOL
 70
     0
  9
$DIMLIM
 70
     0
  9
$DIMTIH
 70
     0
  9
$DIMTOH
 70
     0
  9
$DIMSE1
 70
     0
  9
$DIMSE2
 70
     0
  9
$DIMTAD
 70
     1
  9
$DIMZIN
 70
     0
  9
$DIMBLK
  1

  9
$DIMASO
 70
     0
  9
$DIMSHO
 70
     0
  9
$DIMPOST
  1

  9
$DIMAPOST
  1

  9
$DIMALT
 70
     0
  9
$DIMALTD
 70
     2
  9
$DIMALTF
 40
25.3999999999999986
  9
$DIMLFAC
 40
1.0
  9
$DIMTOFL
 70
     1
  9
$DIMTVP
 40
1.6000000000000001
  9
$DIMTIX
 70
     1
  9
$DIMSOXD
 70
     0
  9
$DIMSAH
 70
     0
  9
$DIMBLK1
  1

  9
$DIMBLK2
  1

  9
$DIMSTYLE
  2
STANDARD
  9
$DIMCLRD
 70
     0
  9
$DIMCLRE
 70
     0
  9
$DIMCLRT
 70
     0
  9
$DIMTFAC
 40
1.0
  9
$DIMGAP
 40
0.09
  9
$LUNITS
 70
     2
  9
$LUPREC
 70
     4
  9
$SKETCHINC
 40
0.1
  9
$FILLETRAD
 40
0.0
  9
$AUNITS
 70
     0
  9
$AUPREC
 70
     4
  9
$MENU
  1
E:\r13\win\SUPPORT\ACAD
  9
$ELEVATION
 40
0.0
  9
$PELEVATION
 40
0.0
  9
$THICKNESS
 40
0.0
  9
$LIMCHECK
 70
     0
  9
$BLIPMODE
 70
     0
  9
$CHAMFERA
 40
0.0
  9
$CHAMFERB
 40
0.0
  9
$SKPOLY
 70
     0
  9
$TDCREATE
 40
2449840.6474999999627471
  9
$TDUPDATE
 40
2460210.4461342599242926
  9
$TDINDWG
 40
1.1301067477
  9
$TDUSRTIMER
 40
1.1301067477
  9
$USRTIMER
 70
     1
  9
$ANGBASE
 50
0.0
  9
$ANGDIR
 70
     0
  9
$PDMODE
 70
     0
  9
$PDSIZE
 40
0.0
  9
$PLINEWID
 40
0.0
  9
$COORDS
 70
     1
  9
$SPLFRAME
 70
     0
  9
$SPLINETYPE
 70
     6
  9
$SPLINESEGS
 70
     8
  9
$ATTDIA
 70
     1
  9
$ATTREQ
 70
     1
  9
$HANDLING
 70
     1
  9
$HANDSEED
  5
38EE
  9
$SURFTAB1
 70
     6
  9
$SURFTAB2
 70
     6
  9
$SURFTYPE
 70
     6
  9
$SURFU
 70
     6
  9
$SURFV
 70
     6
  9
$UCSNAME
  2

  9
$UCSORG
 10
0.0
 20
0.0
 30
0.0
  9
$UCSXDIR
 10
1.0
 20
0.0
 30
0.0
  9
$UCSYDIR
 10
0.0
 20
1.0
 30
0.0
  9
$PUCSNAME
  2

  9
$PUCSORG
 10
0.0
 20
0.0
 30
0.0
  9
$PUCSXDIR
 10
1.0
 20
0.0
 30
0.0
  9
$PUCSYDIR
 10
0.0
 20
1.0
 30
0.0
  9
$USERI1
 70
     0
  9
$USERI2
 70
     1
  9
$USERI3
 70
     0
  9
$USERI4
 70
     0
  9
$USERI5
 70
     0
  9
$USERR1
 40
0.0
  9
$USERR2
 40
0.0
  9
$USERR3
 40
0.0
  9
$USERR4
 40
0.0
  9
$USERR5
 40
0.0
  9
$WORLDVIEW
 70
     1
  9
$SHADEDGE
 70
     3
  9
$SHADEDIF
 70
    70
  9
$TILEMODE
 70
     1
  9
$MAXACTVP
 70
    16
  9
$PLIMCHECK
 70
     0
  9
$PEXTMIN
 10
1.0000000000000000E+20
 20
1.0000000000000000E+20
 30
1.0000000000000000E+20
  9
$PEXTMAX
 10
-1.0000000000000000E+20
 20
-1.0000000000000000E+20
 30
-1.0000000000000000E+20
  9
$PLIMMIN
 10
0.0
 20
0.0
  9
$PLIMMAX
 10
12.0
 20
9.0
  9
$UNITMODE
 70
     0
  9
$VISRETAIN
 70
     0
  9
$PLINEGEN
 70
     0
  9
$PSLTSCALE
 70
     0
  0
ENDSEC
  0
SECTION
  2
TABLES
  0
TABLE
  2
VPORT
 70
     1
  0
VPORT
  2
*ACTIVE
 70
     0
 10
0.0
 20
0.0
 11
1.0
 21
1.0
 12
348.8414634146341768
 22
150.0
 13
0.0
 23
0.0
 14
10.0
 24
10.0
 15
10.0
 25
10.0
 16
0.0
 26
0.0
 36
1.0
 17
0.0
 27
0.0
 37
0.0
 40
300.0
 41
2.325609756097561
 42
50.0
 43
0.0
 44
0.0
 50
0.0
 51
0.0
 71
     0
 72
   500
 73
     1
 74
     0
 75
     0
 76
     0
 77
     0
 78
     2
  0
ENDTAB
  0
TABLE
  2
LTYPE
 70
    11
  0
LTYPE
  2
CONTINUOUS
 70
     0
  3
Solid Line
 72
    65
 73
     0
 40
0.0
  0
LTYPE
  2
CENTER
 70
     0
  3
____ _ ____ _ ____ _ ____ _ ____ _ ____ _ ____
 72
    65
 73
     4
 40
2.0
 49
1.25
 49
-0.25
 49
0.25
 49
-0.25
  0
LTYPE
  2
HIDDEN
 70
     0
  3
_ _ _ _ _ _ _ _ _ _ _ _ _ _ _ _ _ _ _ _ _ _ _
 72
    65
 73
     2
 40
0.375
 49
0.25
 49
-0.125
  0
LTYPE
  2
PHANTOM2
 70
     0
  3
Phantom (.5x) ___ _ _ ___ _ _ ___ _ _ ___ _ _
 72
    65
 73
     6
 40
1.25
 49
0.625
 49
-0.125
 49
0.125
 49
-0.125
 49
0.125
 49
-0.125
  0
LTYPE
  2
CENTER2
 70
     0
  3
Center (.5x) ___ _ ___ _ ___ _ ___ _ ___ _ ___
 72
    65
 73
     4
 40
1.125
 49
0.75
 49
-0.125
 49
0.125
 49
-0.125
  0
LTYPE
  2
HIDDEN2
 70
     0
  3
Hidden (.5x) _ _ _ _ _ _ _ _ _ _ _ _ _ _ _ _ _
 72
    65
 73
     2
 40
0.1875
 49
0.125
 49
-0.0625
  0
LTYPE
  2
ACANSTGB
 70
     0
  3
__ . . __ . .
 72
    65
 73
     6
 40
0.35433070866
 49
0.15748031496
 49
-0.03937007874
 49
0.03937007874
 49
-0.03937007874
 49
0.03937007874
 49
-0.03937007874
  0
LTYPE
  2
ACANSTGL
 70
     0
  3
_ _ _ _ _
 72
    65
 73
     2
 40
0.11811023622
 49
0.07874015748
 49
-0.03937007874
  0
LTYPE
  2
ACISOWELD
 70
     0
  3
_ _ _ _ _
 72
    65
 73
     2
 40
2.0
 49
2.0
 49
-1.0
  0
LTYPE
  2
ACISOTGL
 70
     0
  3
_ _ _ _ _
 72
    65
 73
     2
 40
3.0
 49
2.0
 49
-1.0
  0
LTYPE
  2
ACISOTGB
 70
     0
  3
__ . . __ . .
 72
    65
 73
     6
 40
9.0
 49
4.0
 49
-1.0
 49
1.0
 49
-1.0
 49
1.0
 49
-1.0
  0
ENDTAB
  0
TABLE
  2
LAYER
 70
     5
  0
LAYER
  2
0
 70
     0
 62
     7
  6
CONTINUOUS
  0
LAYER
  2
1
 70
     0
 62
     1
  6
CENTER
  0
LAYER
  2
DEFPOINTS
 70
     0
 62
     7
  6
CONTINUOUS
  0
LAYER
  2
3
 70
     0
 62
     3
  6
CONTINUOUS
  0
LAYER
  2
2
 70
     0
 62
     2
  6
HIDDEN
  0
ENDTAB
  0
TABLE
  2
STYLE
 70
     4
  0
STYLE
  2
STANDARD
 70
     0
 40
0.0
 41
1.0
 50
0.0
 71
     0
 42
0.2
  3
TXT
  4
BIGFONT
  0
STYLE
  2
STANDARD1
 70
     0
 40
0.0
 41
1.0
 50
0.0
 71
     0
 42
3.0
  3
txt
  4

  0
STYLE
  2
ACANSGDT
 70
     0
 40
0.0
 41
1.0
 50
0.0
 71
     0
 42
0.2
  3
amgdt.shx
  4

  0
STYLE
  2
ACISOGDT
 70
     0
 40
0.0
 41
1.0
 50
0.0
 71
     0
 42
2.5
  3
amgdt.shx
  4

  0
ENDTAB
  0
TABLE
  2
VIEW
 70
     1
  0
VIEW
  2
ALL
 70
     0
 40
270.0
 10
220.9915966386554942
 20
135.0
 41
0.0
 11
0.0
 21
0.0
 31
1.0
 12
0.0
 22
0.0
 32
0.0
 42
0.0
 43
0.0
 44
0.0
 50
0.0
 71
     0
  0
ENDTAB
  0
TABLE
  2
UCS
 70
     0
  0
ENDTAB
  0
TABLE
  2
APPID
 70
    22
  0
APPID
  2
ACAD
 70
     0
  0
APPID
  2
ACAD_EXEMPT_FROM_CAD_STANDARDS
 70
     0
  0
APPID
  2
ACAD_MLEADERVER
 70
     0
  0
APPID
  2
MCAD_NO_VIS
 70
     0
  0
APPID
  2
ACAD_TEMP_GRAPHIC
 70
     0
  0
APPID
  2
ACATTRIBSERVICES
 70
     0
  0
APPID
  2
DESIGNERASSEMBLIES
 70
     0
  0
APPID
  2
ACAD_DSTYLE_DIMJAG
 70
     0
  0
APPID
  2
ACAD_DSTYLE_DIMBREAK
 70
     0
  0
APPID
  2
ACAD_NAV_VCDISPLAY
 70
     0
  0
APPID
  2
ACAECLAYERSTANDARD
 70
     0
  0
APPID
  2
GENIUS_GENODEF_13
 70
     0
  0
APPID
  2
GENIUS_GENOBJ-N-CEN_13
 70
     0
  0
APPID
  2
GENIUS_GENCEN_19
 70
     0
  0
APPID
  2
GENIUS_GENDTOL_13
 70
     0
  0
APPID
  2
ACAD_DSTYLE_DIMINSPECT
 70
     0
  0
APPID
  2
ACADANNOMONITORALERTICONDI
 70
     0
  0
APPID
  2
ACAD_DSTYLE_DIMRADIAL_EXTENSION
 70
     0
  0
APPID
  2
GENIUS_GENREC_14
 70
     0
  0
APPID
  2
GENIUS_GENOBJ-N-REC_13
 70
     0
  0
APPID
  2
GENIUS_GENOBJ-N-FIL_13
 70
     0
  0
APPID
  2
ACAD_TC
 70
     0
  0
ENDTAB
  0
TABLE
  2
DIMSTYLE
 70
    14
  0
DIMSTYLE
  2
STANDARD
 70
     0
  3

  4

  5

  6

  7

 40
1.0
 41
0.18
 42
0.0625
 43
0.38
 44
0.18
 45
0.0
 46
0.0
 47
0.0
 48
0.0
140
0.18
141
0.09
142
0.0
143
25.3999999999999986
144
1.0
145
0.0
146
1.0
147
0.09
 71
     0
 72
     0
 73
     1
 74
     1
 75
     0
 76
     0
 77
     0
 78
     0
170
     0
171
     2
172
     0
173
     0
174
     0
175
     0
176
     0
177
     0
178
     0
  0
DIMSTYLE
  2
AM_ANSI
 70
     0
  3

  4
mm
  5

  6

  7

 40
1.0
 41
0.12
 42
0.05
 43
0.5
 44
0.1
 45
0.0
 46
0.0
 47
0.1
 48
0.1
140
0.12
141
0.0
142
0.0
143
25.3999999999999986
144
1.0
145
0.0
146
0.71
147
0.06
 71
     0
 72
     0
 73
     1
 74
     1
 75
     0
 76
     0
 77
     0
 78
     7
170
     0
171
     2
172
     0
173
     0
174
     0
175
     0
176
   256
177
   256
178
     2
  0
DIMSTYLE
  2
AM_ANSI$3
 70
     0
  3

  4
mm
  5

  6

  7

 40
1.0
 41
0.12
 42
0.05
 43
0.5
 44
0.1
 45
0.0
 46
0.0
 47
0.1
 48
0.1
140
0.12
141
0.0
142
0.0
143
25.3999999999999986
144
1.0
145
0.0
146
0.71
147
0.06
 71
     0
 72
     0
 73
     1
 74
     1
 75
     0
 76
     0
 77
     0
 78
     7
170
     0
171
     2
172
     0
173
     0
174
     0
175
     0
176
   256
177
   256
178
     2
  0
DIMSTYLE
  2
AM_ANSI$4
 70
     0
  3

  4
mm
  5

  6

  7

 40
1.0
 41
0.12
 42
0.05
 43
0.5
 44
0.1
 45
0.0
 46
0.0
 47
0.1
 48
0.1
140
0.12
141
0.0
142
0.0
143
25.3999999999999986
144
1.0
145
0.0
146
0.71
147
0.06
 71
     0
 72
     0
 73
     1
 74
     1
 75
     0
 76
     0
 77
     0
 78
     7
170
     0
171
     2
172
     0
173
     0
174
     0
175
     0
176
   256
177
   256
178
     2
  0
DIMSTYLE
  2
AM_ANSI$7
 70
     0
  3

  4
mm
  5

  6

  7

 40
1.0
 41
0.12
 42
0.05
 43
0.5
 44
0.1
 45
0.0
 46
0.0
 47
0.1
 48
0.1
140
0.12
141
0.0
142
0.0
143
25.3999999999999986
144
1.0
145
0.0
146
0.71
147
0.06
 71
     0
 72
     0
 73
     1
 74
     1
 75
     0
 76
     0
 77
     0
 78
     7
170
     0
171
     2
172
     0
173
     0
174
     0
175
     0
176
   256
177
   256
178
     2
  0
DIMSTYLE
  2
AM_ANSI$SF
 70
     0
  3

  4
mm
  5

  6

  7

 40
1.0
 41
0.12
 42
0.05
 43
0.5
 44
0.1
 45
0.0
 46
0.0
 47
0.1
 48
0.1
140
0.12
141
0.0
142
0.0
143
25.3999999999999986
144
1.0
145
0.0
146
0.71
147
0.06
 71
     0
 72
     0
 73
     1
 74
     1
 75
     1
 76
     1
 77
     0
 78
     7
170
     0
171
     2
172
     0
173
     0
174
     0
175
     0
176
   256
177
   256
178
     2
  0
DIMSTYLE
  2
AM_ANSI$SH
 70
     0
  3

  4
mm
  5

  6
GENAXEH
  7

 40
1.0
 41
0.12
 42
0.05
 43
0.5
 44
0.1
 45
0.0
 46
0.0
 47
0.1
 48
0.1
140
0.12
141
0.0
142
0.0
143
25.3999999999999986
144
1.0
145
0.0
146
0.71
147
0.06
 71
     0
 72
     0
 73
     1
 74
     1
 75
     1
 76
     1
 77
     0
 78
     7
170
     0
171
     2
172
     0
173
     1
174
     0
175
     0
176
   256
177
   256
178
     2
  0
DIMSTYLE
  2
AM_ISO
 70
     0
  3

  4
"
  5

  6

  7

 40
1.0
 41
3.5
 42
1.0
 43
10.0
 44
1.0
 45
0.0
 46
0.0
 47
0.1
 48
0.1
140
3.5
141
0.0
142
0.0
143
0.0393701
144
1.0
145
0.0
146
0.71
147
1.5
 71
     0
 72
     0
 73
     0
 74
     0
 75
     0
 76
     0
 77
     1
 78
     8
170
     0
171
     2
172
     1
173
     0
174
     0
175
     0
176
   256
177
   256
178
     2
  0
DIMSTYLE
  2
AM_ISO$3
 70
     0
  3

  4
"
  5

  6

  7

 40
1.0
 41
3.5
 42
1.0
 43
10.0
 44
1.0
 45
0.0
 46
0.0
 47
0.1
 48
0.1
140
3.5
141
0.0
142
0.0
143
0.0393701
144
1.0
145
0.0
146
0.71
147
1.5
 71
     0
 72
     0
 73
     0
 74
     1
 75
     0
 76
     0
 77
     1
 78
     8
170
     0
171
     2
172
     0
173
     0
174
     0
175
     0
176
   256
177
   256
178
     2
  0
DIMSTYLE
  2
AM_ISO$4
 70
     0
  3

  4
"
  5

  6

  7

 40
1.0
 41
3.5
 42
1.0
 43
10.0
 44
1.0
 45
0.0
 46
0.0
 47
0.1
 48
0.1
140
3.5
141
0.0
142
0.0
143
0.0393701
144
1.0
145
0.0
146
0.71
147
1.5
 71
     0
 72
     0
 73
     0
 74
     1
 75
     0
 76
     0
 77
     1
 78
     8
170
     0
171
     2
172
     0
173
     0
174
     0
175
     0
176
   256
177
   256
178
     2
  0
DIMSTYLE
  2
AM_ISO$6
 70
     0
  3

  4
"
  5

  6

  7

 40
1.0
 41
3.5
 42
1.0
 43
10.0
 44
1.0
 45
0.0
 46
0.0
 47
0.1
 48
0.1
140
3.5
141
0.0
142
0.0
143
0.0393701
144
1.0
145
0.0
146
0.71
147
1.5
 71
     0
 72
     0
 73
     0
 74
     0
 75
     0
 76
     0
 77
     0
 78
     8
170
     0
171
     2
172
     1
173
     0
174
     0
175
     0
176
   256
177
   256
178
     2
  0
DIMSTYLE
  2
AM_ISO$7
 70
     0
  3

  4
"
  5

  6

  7

 40
1.0
 41
3.5
 42
1.0
 43
10.0
 44
1.0
 45
0.0
 46
0.0
 47
0.1
 48
0.1
140
3.5
141
0.0
142
0.0
143
0.0393701
144
1.0
145
0.0
146
0.71
147
1.5
 71
     0
 72
     0
 73
     0
 74
     0
 75
     0
 76
     0
 77
     1
 78
     8
170
     0
171
     2
172
     1
173
     0
174
     0
175
     0
176
   256
177
   256
178
     2
  0
DIMSTYLE
  2
AM_ISO$SF
 70
     0
  3

  4
"
  5

  6

  7

 40
1.0
 41
3.5
 42
1.0
 43
10.0
 44
1.0
 45
0.0
 46
0.0
 47
0.1
 48
0.1
140
3.5
141
0.0
142
0.0
143
0.0393701
144
1.0
145
0.0
146
0.71
147
1.5
 71
     0
 72
     0
 73
     0
 74
     0
 75
     1
 76
     1
 77
     1
 78
     8
170
     0
171
     2
172
     1
173
     0
174
     0
175
     0
176
   256
177
   256
178
     2
  0
DIMSTYLE
  2
AM_ISO$SH
 70
     0
  3

  4
"
  5

  6
GENAXEH
  7

 40
1.0
 41
3.5
 42
1.0
 43
10.0
 44
1.0
 45
0.0
 46
0.0
 47
0.1
 48
0.1
140
3.5
141
0.0
142
0.0
143
0.0393701
144
2.0
145
0.0
146
0.71
147
1.5
 71
     0
 72
     0
 73
     0
 74
     0
 75
     1
 76
     1
 77
     1
 78
     8
170
     0
171
     2
172
     1
173
     1
174
     0
175
     0
176
   256
177
   256
178
     2
  0
ENDTAB
  0
ENDSEC
  0
SECTION
  2
BLOCKS
  0
BLOCK
  8
0
  2
$MODEL_SPACE
 70
     0
 10
0.0
 20
0.0
 30
0.0
  3
$MODEL_SPACE
  1

  0
ENDBLK
  5
AA
  8
0
  0
BLOCK
 67
     1
  8
0
  2
$PAPER_SPACE
 70
     0
 10
0.0
 20
0.0
 30
0.0
  3
$PAPER_SPACE
  1

  0
ENDBLK
  5
A8
 67
     1
  8
0
  0
BLOCK
  8
0
  2
*U0
 70
     1
 10
0.0
 20
0.0
 30
0.0
  3
*U0
  1

  0
ENDBLK
  5
20F
  8
0
  0
BLOCK
  8
0
  2
GENAXEH
 70
     0
 10
0.0
 20
0.0
 30
0.0
  3
GENAXEH
  1

  0
LINE
  5
239
  8
0
 10
-1.0
 20
0.0
 30
0.0
 11
1.0
 21
0.0
 31
0.0
  0
ENDBLK
  5
23B
  8
0
  0
ENDSEC
  0
SECTION
  2
ENTITIES
  0
TEXT
  5
1CC
  8
0
 62
     3
 10
0.0
 20
0.0
 30
0.0
 40
10.0
  1
TCC30-AP-PBF-S-B
  7
STANDARD1
  0
LINE
  5
28DE
  8
0
 10
29.0
 20
150.9999999999986073
 30
0.0
 11
29.0
 21
118.8348478491688951
 31
0.0
  0
LINE
  5
28DF
  8
0
 10
71.0
 20
118.8348193177202035
 30
0.0
 11
71.0
 21
150.9999999999986073
 31
0.0
  0
POLYLINE
  5
28F8
  8
0
 10
56.4031274357081642
 20
111.7540501508354538
 30
0.0
 66
     1
 70
     8
  0
VERTEX
  8
0
  5
35E2
 10
56.4031
 20
111.754
 30
0.00000
  70
    32
  0
VERTEX
  8
0
  5
35E3
 10
56.4158
 20
111.755
 30
0.00000
  70
    32
  0
VERTEX
  8
0
  5
35E4
 10
56.4284
 20
111.757
 30
0.00000
  70
    32
  0
VERTEX
  8
0
  5
35E5
 10
56.4411
 20
111.758
 30
0.00000
  70
    32
  0
VERTEX
  8
0
  5
35E6
 10
56.4537
 20
111.760
 30
0.00000
  70
    32
  0
VERTEX
  8
0
  5
35E7
 10
56.4664
 20
111.761
 30
0.00000
  70
    32
  0
VERTEX
  8
0
  5
35E8
 10
56.4790
 20
111.763
 30
0.00000
  70
    32
  0
VERTEX
  8
0
  5
35E9
 10
56.4916
 20
111.764
 30
0.00000
  70
    32
  0
VERTEX
  8
0
  5
35EA
 10
56.5043
 20
111.766
 30
0.00000
  70
    32
  0
VERTEX
  8
0
  5
35EB
 10
56.5169
 20
111.767
 30
0.00000
  70
    32
  0
VERTEX
  8
0
  5
35EC
 10
56.5295
 20
111.769
 30
0.00000
  70
    32
  0
VERTEX
  8
0
  5
35ED
 10
56.5422
 20
111.770
 30
0.00000
  70
    32
  0
VERTEX
  8
0
  5
35EE
 10
56.5548
 20
111.771
 30
0.00000
  70
    32
  0
VERTEX
  8
0
  5
35EF
 10
56.5674
 20
111.773
 30
0.00000
  70
    32
  0
VERTEX
  8
0
  5
35F0
 10
56.5800
 20
111.774
 30
0.00000
  70
    32
  0
VERTEX
  8
0
  5
35F1
 10
56.5926
 20
111.776
 30
0.00000
  70
    32
  0
VERTEX
  8
0
  5
35F2
 10
56.6052
 20
111.777
 30
0.00000
  70
    32
  0
VERTEX
  8
0
  5
35F3
 10
56.6179
 20
111.779
 30
0.00000
  70
    32
  0
VERTEX
  8
0
  5
35F4
 10
56.6305
 20
111.780
 30
0.00000
  70
    32
  0
VERTEX
  8
0
  5
35F5
 10
56.6431
 20
111.782
 30
0.00000
  70
    32
  0
VERTEX
  8
0
  5
35F6
 10
56.6557
 20
111.783
 30
0.00000
  70
    32
  0
VERTEX
  8
0
  5
35F7
 10
56.6683
 20
111.785
 30
0.00000
  70
    32
  0
VERTEX
  8
0
  5
35F8
 10
56.6809
 20
111.786
 30
0.00000
  70
    32
  0
VERTEX
  8
0
  5
35F9
 10
56.6935
 20
111.788
 30
0.00000
  70
    32
  0
VERTEX
  8
0
  5
35FA
 10
56.7061
 20
111.789
 30
0.00000
  70
    32
  0
VERTEX
  8
0
  5
35FB
 10
56.7186
 20
111.791
 30
0.00000
  70
    32
  0
VERTEX
  8
0
  5
35FC
 10
56.7312
 20
111.792
 30
0.00000
  70
    32
  0
VERTEX
  8
0
  5
35FD
 10
56.7438
 20
111.794
 30
0.00000
  70
    32
  0
VERTEX
  8
0
  5
35FE
 10
56.7564
 20
111.795
 30
0.00000
  70
    32
  0
VERTEX
  8
0
  5
35FF
 10
56.7690
 20
111.797
 30
0.00000
  70
    32
  0
VERTEX
  8
0
  5
3600
 10
56.7816
 20
111.798
 30
0.00000
  70
    32
  0
VERTEX
  8
0
  5
3601
 10
56.7941
 20
111.800
 30
0.00000
  70
    32
  0
VERTEX
  8
0
  5
3602
 10
56.8067
 20
111.801
 30
0.00000
  70
    32
  0
VERTEX
  8
0
  5
3603
 10
56.8193
 20
111.803
 30
0.00000
  70
    32
  0
VERTEX
  8
0
  5
3604
 10
56.8318
 20
111.804
 30
0.00000
  70
    32
  0
VERTEX
  8
0
  5
3605
 10
56.8444
 20
111.806
 30
0.00000
  70
    32
  0
VERTEX
  8
0
  5
3606
 10
56.8569
 20
111.808
 30
0.00000
  70
    32
  0
VERTEX
  8
0
  5
3607
 10
56.8695
 20
111.809
 30
0.00000
  70
    32
  0
VERTEX
  8
0
  5
3608
 10
56.8821
 20
111.811
 30
0.00000
  70
    32
  0
VERTEX
  8
0
  5
3609
 10
56.8946
 20
111.812
 30
0.00000
  70
    32
  0
VERTEX
  8
0
  5
360A
 10
56.9072
 20
111.814
 30
0.00000
  70
    32
  0
VERTEX
  8
0
  5
360B
 10
56.9197
 20
111.815
 30
0.00000
  70
    32
  0
VERTEX
  8
0
  5
360C
 10
56.9322
 20
111.817
 30
0.00000
  70
    32
  0
VERTEX
  8
0
  5
360D
 10
56.9448
 20
111.818
 30
0.00000
  70
    32
  0
VERTEX
  8
0
  5
360E
 10
56.9573
 20
111.820
 30
0.00000
  70
    32
  0
VERTEX
  8
0
  5
360F
 10
56.9699
 20
111.821
 30
0.00000
  70
    32
  0
VERTEX
  8
0
  5
3610
 10
56.9824
 20
111.823
 30
0.00000
  70
    32
  0
VERTEX
  8
0
  5
3611
 10
56.9949
 20
111.825
 30
0.00000
  70
    32
  0
VERTEX
  8
0
  5
3612
 10
57.0074
 20
111.826
 30
0.00000
  70
    32
  0
VERTEX
  8
0
  5
3613
 10
57.0200
 20
111.828
 30
0.00000
  70
    32
  0
VERTEX
  8
0
  5
3614
 10
57.0325
 20
111.829
 30
0.00000
  70
    32
  0
VERTEX
  8
0
  5
3615
 10
57.0450
 20
111.831
 30
0.00000
  70
    32
  0
VERTEX
  8
0
  5
3616
 10
57.0575
 20
111.832
 30
0.00000
  70
    32
  0
VERTEX
  8
0
  5
3617
 10
57.0700
 20
111.834
 30
0.00000
  70
    32
  0
VERTEX
  8
0
  5
3618
 10
57.0825
 20
111.836
 30
0.00000
  70
    32
  0
VERTEX
  8
0
  5
3619
 10
57.0950
 20
111.837
 30
0.00000
  70
    32
  0
VERTEX
  8
0
  5
361A
 10
57.1075
 20
111.839
 30
0.00000
  70
    32
  0
VERTEX
  8
0
  5
361B
 10
57.1200
 20
111.840
 30
0.00000
  70
    32
  0
VERTEX
  8
0
  5
361C
 10
57.1325
 20
111.842
 30
0.00000
  70
    32
  0
VERTEX
  8
0
  5
361D
 10
57.1450
 20
111.844
 30
0.00000
  70
    32
  0
VERTEX
  8
0
  5
361E
 10
57.1575
 20
111.845
 30
0.00000
  70
    32
  0
VERTEX
  8
0
  5
361F
 10
57.1700
 20
111.847
 30
0.00000
  70
    32
  0
VERTEX
  8
0
  5
3620
 10
57.1825
 20
111.848
 30
0.00000
  70
    32
  0
VERTEX
  8
0
  5
3621
 10
57.1950
 20
111.850
 30
0.00000
  70
    32
  0
VERTEX
  8
0
  5
3622
 10
57.2075
 20
111.852
 30
0.00000
  70
    32
  0
VERTEX
  8
0
  5
3623
 10
57.2199
 20
111.853
 30
0.00000
  70
    32
  0
VERTEX
  8
0
  5
3624
 10
57.2324
 20
111.855
 30
0.00000
  70
    32
  0
VERTEX
  8
0
  5
3625
 10
57.2449
 20
111.856
 30
0.00000
  70
    32
  0
VERTEX
  8
0
  5
3626
 10
57.2574
 20
111.858
 30
0.00000
  70
    32
  0
VERTEX
  8
0
  5
3627
 10
57.2698
 20
111.860
 30
0.00000
  70
    32
  0
VERTEX
  8
0
  5
3628
 10
57.2823
 20
111.861
 30
0.00000
  70
    32
  0
VERTEX
  8
0
  5
3629
 10
57.2948
 20
111.863
 30
0.00000
  70
    32
  0
VERTEX
  8
0
  5
362A
 10
57.3072
 20
111.865
 30
0.00000
  70
    32
  0
VERTEX
  8
0
  5
362B
 10
57.3197
 20
111.866
 30
0.00000
  70
    32
  0
VERTEX
  8
0
  5
362C
 10
57.3321
 20
111.868
 30
0.00000
  70
    32
  0
VERTEX
  8
0
  5
362D
 10
57.3446
 20
111.870
 30
0.00000
  70
    32
  0
VERTEX
  8
0
  5
362E
 10
57.3570
 20
111.871
 30
0.00000
  70
    32
  0
VERTEX
  8
0
  5
362F
 10
57.3695
 20
111.873
 30
0.00000
  70
    32
  0
VERTEX
  8
0
  5
3630
 10
57.3819
 20
111.874
 30
0.00000
  70
    32
  0
VERTEX
  8
0
  5
3631
 10
57.3943
 20
111.876
 30
0.00000
  70
    32
  0
VERTEX
  8
0
  5
3632
 10
57.4068
 20
111.878
 30
0.00000
  70
    32
  0
VERTEX
  8
0
  5
3633
 10
57.4192
 20
111.879
 30
0.00000
  70
    32
  0
VERTEX
  8
0
  5
3634
 10
57.4316
 20
111.881
 30
0.00000
  70
    32
  0
VERTEX
  8
0
  5
3635
 10
57.4440
 20
111.883
 30
0.00000
  70
    32
  0
VERTEX
  8
0
  5
3636
 10
57.4565
 20
111.884
 30
0.00000
  70
    32
  0
VERTEX
  8
0
  5
3637
 10
57.4689
 20
111.886
 30
0.00000
  70
    32
  0
VERTEX
  8
0
  5
3638
 10
57.4813
 20
111.888
 30
0.00000
  70
    32
  0
VERTEX
  8
0
  5
3639
 10
57.4937
 20
111.889
 30
0.00000
  70
    32
  0
VERTEX
  8
0
  5
363A
 10
57.5061
 20
111.891
 30
0.00000
  70
    32
  0
VERTEX
  8
0
  5
363B
 10
57.5185
 20
111.893
 30
0.00000
  70
    32
  0
VERTEX
  8
0
  5
363C
 10
57.5309
 20
111.895
 30
0.00000
  70
    32
  0
VERTEX
  8
0
  5
363D
 10
57.5433
 20
111.896
 30
0.00000
  70
    32
  0
VERTEX
  8
0
  5
363E
 10
57.5557
 20
111.898
 30
0.00000
  70
    32
  0
VERTEX
  8
0
  5
363F
 10
57.5681
 20
111.900
 30
0.00000
  70
    32
  0
VERTEX
  8
0
  5
3640
 10
57.5805
 20
111.901
 30
0.00000
  70
    32
  0
VERTEX
  8
0
  5
3641
 10
57.5929
 20
111.903
 30
0.00000
  70
    32
  0
VERTEX
  8
0
  5
3642
 10
57.6053
 20
111.905
 30
0.00000
  70
    32
  0
VERTEX
  8
0
  5
3643
 10
57.6177
 20
111.906
 30
0.00000
  70
    32
  0
VERTEX
  8
0
  5
3644
 10
57.6301
 20
111.908
 30
0.00000
  70
    32
  0
VERTEX
  8
0
  5
3645
 10
57.6424
 20
111.910
 30
0.00000
  70
    32
  0
VERTEX
  8
0
  5
3646
 10
57.6548
 20
111.912
 30
0.00000
  70
    32
  0
VERTEX
  8
0
  5
3647
 10
57.6672
 20
111.913
 30
0.00000
  70
    32
  0
VERTEX
  8
0
  5
3648
 10
57.6795
 20
111.915
 30
0.00000
  70
    32
  0
VERTEX
  8
0
  5
3649
 10
57.6919
 20
111.917
 30
0.00000
  70
    32
  0
VERTEX
  8
0
  5
364A
 10
57.7043
 20
111.918
 30
0.00000
  70
    32
  0
VERTEX
  8
0
  5
364B
 10
57.7166
 20
111.920
 30
0.00000
  70
    32
  0
VERTEX
  8
0
  5
364C
 10
57.7290
 20
111.922
 30
0.00000
  70
    32
  0
VERTEX
  8
0
  5
364D
 10
57.7413
 20
111.924
 30
0.00000
  70
    32
  0
VERTEX
  8
0
  5
364E
 10
57.7537
 20
111.925
 30
0.00000
  70
    32
  0
VERTEX
  8
0
  5
364F
 10
57.7660
 20
111.927
 30
0.00000
  70
    32
  0
VERTEX
  8
0
  5
3650
 10
57.7784
 20
111.929
 30
0.00000
  70
    32
  0
VERTEX
  8
0
  5
3651
 10
57.7907
 20
111.931
 30
0.00000
  70
    32
  0
VERTEX
  8
0
  5
3652
 10
57.8030
 20
111.932
 30
0.00000
  70
    32
  0
VERTEX
  8
0
  5
3653
 10
57.8154
 20
111.934
 30
0.00000
  70
    32
  0
VERTEX
  8
0
  5
3654
 10
57.8277
 20
111.936
 30
0.00000
  70
    32
  0
VERTEX
  8
0
  5
3655
 10
57.8400
 20
111.938
 30
0.00000
  70
    32
  0
VERTEX
  8
0
  5
3656
 10
57.8524
 20
111.939
 30
0.00000
  70
    32
  0
VERTEX
  8
0
  5
3657
 10
57.8647
 20
111.941
 30
0.00000
  70
    32
  0
VERTEX
  8
0
  5
3658
 10
57.8770
 20
111.943
 30
0.00000
  70
    32
  0
VERTEX
  8
0
  5
3659
 10
57.8893
 20
111.945
 30
0.00000
  70
    32
  0
VERTEX
  8
0
  5
365A
 10
57.9016
 20
111.946
 30
0.00000
  70
    32
  0
VERTEX
  8
0
  5
365B
 10
57.9139
 20
111.948
 30
0.00000
  70
    32
  0
VERTEX
  8
0
  5
365C
 10
57.9262
 20
111.950
 30
0.00000
  70
    32
  0
VERTEX
  8
0
  5
365D
 10
57.9385
 20
111.952
 30
0.00000
  70
    32
  0
VERTEX
  8
0
  5
365E
 10
57.9508
 20
111.953
 30
0.00000
  70
    32
  0
VERTEX
  8
0
  5
365F
 10
57.9631
 20
111.955
 30
0.00000
  70
    32
  0
VERTEX
  8
0
  5
3660
 10
57.9754
 20
111.957
 30
0.00000
  70
    32
  0
VERTEX
  8
0
  5
3661
 10
57.9877
 20
111.959
 30
0.00000
  70
    32
  0
VERTEX
  8
0
  5
3662
 10
58.0000
 20
111.961
 30
0.00000
  70
    32
  0
SEQEND
  8
0
  5
3663
  0
POLYLINE
  5
28FB
  8
0
 10
41.9999999812736604
 20
111.9606421482304768
 30
0.0
 66
     1
 70
     8
  0
VERTEX
  8
0
  5
3664
 10
42.0000
 20
111.961
 30
0.00000
  70
    32
  0
VERTEX
  8
0
  5
3665
 10
42.0123
 20
111.959
 30
0.00000
  70
    32
  0
VERTEX
  8
0
  5
3666
 10
42.0246
 20
111.957
 30
0.00000
  70
    32
  0
VERTEX
  8
0
  5
3667
 10
42.0369
 20
111.955
 30
0.00000
  70
    32
  0
VERTEX
  8
0
  5
3668
 10
42.0492
 20
111.953
 30
0.00000
  70
    32
  0
VERTEX
  8
0
  5
3669
 10
42.0615
 20
111.952
 30
0.00000
  70
    32
  0
VERTEX
  8
0
  5
366A
 10
42.0738
 20
111.950
 30
0.00000
  70
    32
  0
VERTEX
  8
0
  5
366B
 10
42.0861
 20
111.948
 30
0.00000
  70
    32
  0
VERTEX
  8
0
  5
366C
 10
42.0984
 20
111.946
 30
0.00000
  70
    32
  0
VERTEX
  8
0
  5
366D
 10
42.1107
 20
111.945
 30
0.00000
  70
    32
  0
VERTEX
  8
0
  5
366E
 10
42.1230
 20
111.943
 30
0.00000
  70
    32
  0
VERTEX
  8
0
  5
366F
 10
42.1353
 20
111.941
 30
0.00000
  70
    32
  0
VERTEX
  8
0
  5
3670
 10
42.1476
 20
111.939
 30
0.00000
  70
    32
  0
VERTEX
  8
0
  5
3671
 10
42.1600
 20
111.938
 30
0.00000
  70
    32
  0
VERTEX
  8
0
  5
3672
 10
42.1723
 20
111.936
 30
0.00000
  70
    32
  0
VERTEX
  8
0
  5
3673
 10
42.1846
 20
111.934
 30
0.00000
  70
    32
  0
VERTEX
  8
0
  5
3674
 10
42.1970
 20
111.932
 30
0.00000
  70
    32
  0
VERTEX
  8
0
  5
3675
 10
42.2093
 20
111.931
 30
0.00000
  70
    32
  0
VERTEX
  8
0
  5
3676
 10
42.2216
 20
111.929
 30
0.00000
  70
    32
  0
VERTEX
  8
0
  5
3677
 10
42.2340
 20
111.927
 30
0.00000
  70
    32
  0
VERTEX
  8
0
  5
3678
 10
42.2463
 20
111.925
 30
0.00000
  70
    32
  0
VERTEX
  8
0
  5
3679
 10
42.2587
 20
111.924
 30
0.00000
  70
    32
  0
VERTEX
  8
0
  5
367A
 10
42.2710
 20
111.922
 30
0.00000
  70
    32
  0
VERTEX
  8
0
  5
367B
 10
42.2834
 20
111.920
 30
0.00000
  70
    32
  0
VERTEX
  8
0
  5
367C
 10
42.2957
 20
111.918
 30
0.00000
  70
    32
  0
VERTEX
  8
0
  5
367D
 10
42.3081
 20
111.917
 30
0.00000
  70
    32
  0
VERTEX
  8
0
  5
367E
 10
42.3205
 20
111.915
 30
0.00000
  70
    32
  0
VERTEX
  8
0
  5
367F
 10
42.3328
 20
111.913
 30
0.00000
  70
    32
  0
VERTEX
  8
0
  5
3680
 10
42.3452
 20
111.912
 30
0.00000
  70
    32
  0
VERTEX
  8
0
  5
3681
 10
42.3576
 20
111.910
 30
0.00000
  70
    32
  0
VERTEX
  8
0
  5
3682
 10
42.3699
 20
111.908
 30
0.00000
  70
    32
  0
VERTEX
  8
0
  5
3683
 10
42.3823
 20
111.906
 30
0.00000
  70
    32
  0
VERTEX
  8
0
  5
3684
 10
42.3947
 20
111.905
 30
0.00000
  70
    32
  0
VERTEX
  8
0
  5
3685
 10
42.4071
 20
111.903
 30
0.00000
  70
    32
  0
VERTEX
  8
0
  5
3686
 10
42.4195
 20
111.901
 30
0.00000
  70
    32
  0
VERTEX
  8
0
  5
3687
 10
42.4319
 20
111.900
 30
0.00000
  70
    32
  0
VERTEX
  8
0
  5
3688
 10
42.4443
 20
111.898
 30
0.00000
  70
    32
  0
VERTEX
  8
0
  5
3689
 10
42.4567
 20
111.896
 30
0.00000
  70
    32
  0
VERTEX
  8
0
  5
368A
 10
42.4691
 20
111.895
 30
0.00000
  70
    32
  0
VERTEX
  8
0
  5
368B
 10
42.4815
 20
111.893
 30
0.00000
  70
    32
  0
VERTEX
  8
0
  5
368C
 10
42.4939
 20
111.891
 30
0.00000
  70
    32
  0
VERTEX
  8
0
  5
368D
 10
42.5063
 20
111.889
 30
0.00000
  70
    32
  0
VERTEX
  8
0
  5
368E
 10
42.5187
 20
111.888
 30
0.00000
  70
    32
  0
VERTEX
  8
0
  5
368F
 10
42.5311
 20
111.886
 30
0.00000
  70
    32
  0
VERTEX
  8
0
  5
3690
 10
42.5435
 20
111.884
 30
0.00000
  70
    32
  0
VERTEX
  8
0
  5
3691
 10
42.5560
 20
111.883
 30
0.00000
  70
    32
  0
VERTEX
  8
0
  5
3692
 10
42.5684
 20
111.881
 30
0.00000
  70
    32
  0
VERTEX
  8
0
  5
3693
 10
42.5808
 20
111.879
 30
0.00000
  70
    32
  0
VERTEX
  8
0
  5
3694
 10
42.5932
 20
111.878
 30
0.00000
  70
    32
  0
VERTEX
  8
0
  5
3695
 10
42.6057
 20
111.876
 30
0.00000
  70
    32
  0
VERTEX
  8
0
  5
3696
 10
42.6181
 20
111.874
 30
0.00000
  70
    32
  0
VERTEX
  8
0
  5
3697
 10
42.6305
 20
111.873
 30
0.00000
  70
    32
  0
VERTEX
  8
0
  5
3698
 10
42.6430
 20
111.871
 30
0.00000
  70
    32
  0
VERTEX
  8
0
  5
3699
 10
42.6554
 20
111.870
 30
0.00000
  70
    32
  0
VERTEX
  8
0
  5
369A
 10
42.6679
 20
111.868
 30
0.00000
  70
    32
  0
VERTEX
  8
0
  5
369B
 10
42.6803
 20
111.866
 30
0.00000
  70
    32
  0
VERTEX
  8
0
  5
369C
 10
42.6928
 20
111.865
 30
0.00000
  70
    32
  0
VERTEX
  8
0
  5
369D
 10
42.7052
 20
111.863
 30
0.00000
  70
    32
  0
VERTEX
  8
0
  5
369E
 10
42.7177
 20
111.861
 30
0.00000
  70
    32
  0
VERTEX
  8
0
  5
369F
 10
42.7302
 20
111.860
 30
0.00000
  70
    32
  0
VERTEX
  8
0
  5
36A0
 10
42.7426
 20
111.858
 30
0.00000
  70
    32
  0
VERTEX
  8
0
  5
36A1
 10
42.7551
 20
111.856
 30
0.00000
  70
    32
  0
VERTEX
  8
0
  5
36A2
 10
42.7676
 20
111.855
 30
0.00000
  70
    32
  0
VERTEX
  8
0
  5
36A3
 10
42.7801
 20
111.853
 30
0.00000
  70
    32
  0
VERTEX
  8
0
  5
36A4
 10
42.7925
 20
111.852
 30
0.00000
  70
    32
  0
VERTEX
  8
0
  5
36A5
 10
42.8050
 20
111.850
 30
0.00000
  70
    32
  0
VERTEX
  8
0
  5
36A6
 10
42.8175
 20
111.848
 30
0.00000
  70
    32
  0
VERTEX
  8
0
  5
36A7
 10
42.8300
 20
111.847
 30
0.00000
  70
    32
  0
VERTEX
  8
0
  5
36A8
 10
42.8425
 20
111.845
 30
0.00000
  70
    32
  0
VERTEX
  8
0
  5
36A9
 10
42.8550
 20
111.844
 30
0.00000
  70
    32
  0
VERTEX
  8
0
  5
36AA
 10
42.8675
 20
111.842
 30
0.00000
  70
    32
  0
VERTEX
  8
0
  5
36AB
 10
42.8800
 20
111.840
 30
0.00000
  70
    32
  0
VERTEX
  8
0
  5
36AC
 10
42.8925
 20
111.839
 30
0.00000
  70
    32
  0
VERTEX
  8
0
  5
36AD
 10
42.9050
 20
111.837
 30
0.00000
  70
    32
  0
VERTEX
  8
0
  5
36AE
 10
42.9175
 20
111.836
 30
0.00000
  70
    32
  0
VERTEX
  8
0
  5
36AF
 10
42.9300
 20
111.834
 30
0.00000
  70
    32
  0
VERTEX
  8
0
  5
36B0
 10
42.9425
 20
111.832
 30
0.00000
  70
    32
  0
VERTEX
  8
0
  5
36B1
 10
42.9550
 20
111.831
 30
0.00000
  70
    32
  0
VERTEX
  8
0
  5
36B2
 10
42.9675
 20
111.829
 30
0.00000
  70
    32
  0
VERTEX
  8
0
  5
36B3
 10
42.9800
 20
111.828
 30
0.00000
  70
    32
  0
VERTEX
  8
0
  5
36B4
 10
42.9926
 20
111.826
 30
0.00000
  70
    32
  0
VERTEX
  8
0
  5
36B5
 10
43.0051
 20
111.825
 30
0.00000
  70
    32
  0
VERTEX
  8
0
  5
36B6
 10
43.0176
 20
111.823
 30
0.00000
  70
    32
  0
VERTEX
  8
0
  5
36B7
 10
43.0301
 20
111.821
 30
0.00000
  70
    32
  0
VERTEX
  8
0
  5
36B8
 10
43.0427
 20
111.820
 30
0.00000
  70
    32
  0
VERTEX
  8
0
  5
36B9
 10
43.0552
 20
111.818
 30
0.00000
  70
    32
  0
VERTEX
  8
0
  5
36BA
 10
43.0678
 20
111.817
 30
0.00000
  70
    32
  0
VERTEX
  8
0
  5
36BB
 10
43.0803
 20
111.815
 30
0.00000
  70
    32
  0
VERTEX
  8
0
  5
36BC
 10
43.0928
 20
111.814
 30
0.00000
  70
    32
  0
VERTEX
  8
0
  5
36BD
 10
43.1054
 20
111.812
 30
0.00000
  70
    32
  0
VERTEX
  8
0
  5
36BE
 10
43.1179
 20
111.811
 30
0.00000
  70
    32
  0
VERTEX
  8
0
  5
36BF
 10
43.1305
 20
111.809
 30
0.00000
  70
    32
  0
VERTEX
  8
0
  5
36C0
 10
43.1431
 20
111.808
 30
0.00000
  70
    32
  0
VERTEX
  8
0
  5
36C1
 10
43.1556
 20
111.806
 30
0.00000
  70
    32
  0
VERTEX
  8
0
  5
36C2
 10
43.1682
 20
111.804
 30
0.00000
  70
    32
  0
VERTEX
  8
0
  5
36C3
 10
43.1807
 20
111.803
 30
0.00000
  70
    32
  0
VERTEX
  8
0
  5
36C4
 10
43.1933
 20
111.801
 30
0.00000
  70
    32
  0
VERTEX
  8
0
  5
36C5
 10
43.2059
 20
111.800
 30
0.00000
  70
    32
  0
VERTEX
  8
0
  5
36C6
 10
43.2185
 20
111.798
 30
0.00000
  70
    32
  0
VERTEX
  8
0
  5
36C7
 10
43.2310
 20
111.797
 30
0.00000
  70
    32
  0
VERTEX
  8
0
  5
36C8
 10
43.2436
 20
111.795
 30
0.00000
  70
    32
  0
VERTEX
  8
0
  5
36C9
 10
43.2562
 20
111.794
 30
0.00000
  70
    32
  0
VERTEX
  8
0
  5
36CA
 10
43.2688
 20
111.792
 30
0.00000
  70
    32
  0
VERTEX
  8
0
  5
36CB
 10
43.2814
 20
111.791
 30
0.00000
  70
    32
  0
VERTEX
  8
0
  5
36CC
 10
43.2939
 20
111.789
 30
0.00000
  70
    32
  0
VERTEX
  8
0
  5
36CD
 10
43.3065
 20
111.788
 30
0.00000
  70
    32
  0
VERTEX
  8
0
  5
36CE
 10
43.3191
 20
111.786
 30
0.00000
  70
    32
  0
VERTEX
  8
0
  5
36CF
 10
43.3317
 20
111.785
 30
0.00000
  70
    32
  0
VERTEX
  8
0
  5
36D0
 10
43.3443
 20
111.783
 30
0.00000
  70
    32
  0
VERTEX
  8
0
  5
36D1
 10
43.3569
 20
111.782
 30
0.00000
  70
    32
  0
VERTEX
  8
0
  5
36D2
 10
43.3695
 20
111.780
 30
0.00000
  70
    32
  0
VERTEX
  8
0
  5
36D3
 10
43.3821
 20
111.779
 30
0.00000
  70
    32
  0
VERTEX
  8
0
  5
36D4
 10
43.3948
 20
111.777
 30
0.00000
  70
    32
  0
VERTEX
  8
0
  5
36D5
 10
43.4074
 20
111.776
 30
0.00000
  70
    32
  0
VERTEX
  8
0
  5
36D6
 10
43.4200
 20
111.774
 30
0.00000
  70
    32
  0
VERTEX
  8
0
  5
36D7
 10
43.4326
 20
111.773
 30
0.00000
  70
    32
  0
VERTEX
  8
0
  5
36D8
 10
43.4452
 20
111.771
 30
0.00000
  70
    32
  0
VERTEX
  8
0
  5
36D9
 10
43.4578
 20
111.770
 30
0.00000
  70
    32
  0
VERTEX
  8
0
  5
36DA
 10
43.4705
 20
111.769
 30
0.00000
  70
    32
  0
VERTEX
  8
0
  5
36DB
 10
43.4831
 20
111.767
 30
0.00000
  70
    32
  0
VERTEX
  8
0
  5
36DC
 10
43.4957
 20
111.766
 30
0.00000
  70
    32
  0
VERTEX
  8
0
  5
36DD
 10
43.5084
 20
111.764
 30
0.00000
  70
    32
  0
VERTEX
  8
0
  5
36DE
 10
43.5210
 20
111.763
 30
0.00000
  70
    32
  0
VERTEX
  8
0
  5
36DF
 10
43.5336
 20
111.761
 30
0.00000
  70
    32
  0
VERTEX
  8
0
  5
36E0
 10
43.5463
 20
111.760
 30
0.00000
  70
    32
  0
VERTEX
  8
0
  5
36E1
 10
43.5589
 20
111.758
 30
0.00000
  70
    32
  0
VERTEX
  8
0
  5
36E2
 10
43.5716
 20
111.757
 30
0.00000
  70
    32
  0
VERTEX
  8
0
  5
36E3
 10
43.5842
 20
111.755
 30
0.00000
  70
    32
  0
VERTEX
  8
0
  5
36E4
 10
43.5969
 20
111.754
 30
0.00000
  70
    32
  0
SEQEND
  8
0
  5
36E5
  0
LINE
  5
28FD
  8
0
 10
29.0
 20
150.9999999999986073
 30
0.0
 11
71.0
 21
150.9999999999986073
 31
0.0
  0
LINE
  5
28FE
  8
0
 10
39.0000000000002274
 20
81.9999999999985789
 30
0.0
 11
39.0000000000002274
 21
82.9999999999985789
 31
0.0
  0
LINE
  5
2900
  8
0
 10
29.9999999999998899
 20
116.5669726176214027
 30
0.0
 11
30.0000000000002309
 21
57.9999999999998934
 31
0.0
  0
LINE
  5
2901
  8
0
 10
70.0000000000002274
 20
57.9999999999991473
 30
0.0
 11
70.0
 21
116.5669046277809002
 31
0.0
  0
LINE
  5
2903
  8
0
 10
61.0000000000002203
 20
82.9999999999987352
 30
0.0
 11
61.0000000000002203
 21
81.9999999999987352
 31
0.0
  0
LINE
  5
290A
  8
0
 10
61.0000000000002203
 20
81.9999999999987352
 30
0.0
 11
61.0000000000002203
 21
65.296706911508636
 31
0.0
  0
ARC
  5
290B
  8
0
 10
50.0000000000002274
 20
81.9999999999986358
 30
0.0
 40
19.9999999999999893
 50
236.6329870307712042
 51
303.3670129692325759
  0
LINE
  5
290C
  8
0
 10
39.0000000000002274
 20
65.2967069115085792
 30
0.0
 11
39.0000000000002274
 21
81.9999999999985789
 31
0.0
  0
ARC
  5
2911
  8
0
 10
50.0000000000002274
 20
82.9999999999986358
 30
0.0
 40
20.0000000000000284
 50
180.0
 51
236.6329870307712042
  0
ARC
  5
2912
  8
0
 10
50.0000000000002274
 20
82.9999999999986358
 30
0.0
 40
19.9999999999999716
 50
303.3670129692325759
 51
0.0
  0
LINE
  5
2914
  8
0
 10
12.5
 20
49.9999999999987992
 30
0.0
 11
12.5
 21
55.9999999999987494
 31
0.0
  0
ARC
  5
2919
  8
0
 10
14.5
 20
55.9999999999987992
 30
0.0
 40
2.0
 50
90.0
 51
180.0
  0
LINE
  5
2920
  8
0
 10
87.5
 20
55.9999999999987494
 30
0.0
 11
87.5
 21
49.9999999999987494
 31
0.0
  0
LINE
  5
2921
  8
0
 10
87.5
 20
49.9999999999987494
 30
0.0
 11
12.5
 21
50.0000000000013074
 31
0.0
  0
LINE
  5
2922
  8
0
 10
14.5
 20
58.0000000000001066
 30
0.0
 11
85.5
 21
57.9999999999987494
 31
0.0
  0
ARC
  5
2923
  8
0
 10
85.5
 20
55.9999999999987494
 30
0.0
 40
2.0
 50
0.0
 51
89.9999999999967457
  0
LINE
  5
2927
  8
1
 10
49.9999999999996589
 20
45.0
 30
0.0
 11
49.9999999999996589
 21
155.9999999999986073
 31
0.0
  0
LINE
  5
2928
  8
0
 10
129.0000000000001137
 20
150.9999999999988063
 30
0.0
 11
129.0000000000001137
 21
111.3949993744978002
 31
0.0
  0
LINE
  5
2929
  8
0
 10
130.0000000000001137
 20
111.7540497883070003
 30
0.0
 11
130.0000000000001137
 21
90.7942286340587543
 31
0.0
  0
ARC
  5
292A
  8
0
 10
150.0000000000001137
 20
81.9999999999987352
 30
0.0
 40
19.9999999999999787
 50
199.8592939109859117
 51
270.0
  0
LINE
  5
292B
  8
0
 10
170.000000000000199
 20
57.9999999999989129
 30
0.0
 11
170.000000000000199
 21
75.205771365938844
 31
0.0
  0
ARC
  5
292C
  8
0
 10
150.0000000000001137
 20
84.4999999999987352
 30
0.0
 40
20.0000000000000107
 50
18.3433940734339416
 51
90.0
  0
CIRCLE
  5
292E
  8
0
 10
171.000000000000199
 20
139.9999999999986926
 30
0.0
 40
6.5000000000000284
  0
LINE
  5
292F
  8
0
 10
168.000000000000199
 20
141.7320508075675889
 30
0.0
 11
168.000000000000199
 21
138.26794919242991
 31
0.0
  0
LINE
  5
2930
  8
0
 10
168.000000000000199
 20
138.2679491924297963
 30
0.0
 11
171.000000000000199
 21
136.5358983848610137
 31
0.0
  0
LINE
  5
2931
  8
0
 10
171.000000000000199
 20
136.5358983848610137
 30
0.0
 11
174.000000000000199
 21
138.2679491924297963
 31
0.0
  0
LINE
  5
2932
  8
0
 10
174.000000000000199
 20
138.2679491924297963
 30
0.0
 11
174.000000000000199
 21
141.7320508075675889
 31
0.0
  0
LINE
  5
2933
  8
0
 10
174.000000000000199
 20
141.7320508075675889
 30
0.0
 11
171.000000000000199
 21
143.4641016151365136
 31
0.0
  0
LINE
  5
2934
  8
0
 10
171.000000000000199
 20
143.4641016151365136
 30
0.0
 11
168.000000000000199
 21
141.7320508075675889
 31
0.0
  0
LINE
  5
2936
  8
0
 10
165.6524756824267968
 20
144.4181588952151003
 30
0.0
 11
164.5000000000077023
 21
143.7527767497360003
 31
0.0
  0
LINE
  5
2937
  8
0
 10
164.5000000000090949
 20
143.7527767497387003
 30
0.0
 11
164.5000000000850946
 21
136.2472232502167913
 31
0.0
  0
LINE
  5
2938
  8
0
 10
164.5000000000850946
 20
136.2472232502167913
 30
0.0
 11
165.6524757434098944
 21
135.5818410695738123
 31
0.0
  0
LINE
  5
2941
  8
0
 10
169.8730344939966983
 20
125.8710892101126007
 30
0.0
 11
169.8730344940072996
 21
125.1999999999987949
 31
0.0
  0
LINE
  5
2942
  8
0
 10
169.8730344940072996
 20
125.1999999999987949
 30
0.0
 11
169.7737199332850082
 21
125.1999999999987949
 31
0.0
  0
LINE
  5
2943
  8
0
 10
169.7737199332850082
 20
125.1999999999987949
 30
0.0
 11
169.7737199332854061
 21
105.9999999999988063
 31
0.0
  0
LINE
  5
2944
  8
0
 10
150.000000000000199
 20
105.9999999999989058
 30
0.0
 11
169.7737199332854061
 21
105.9999999999988063
 31
0.0
  0
LINE
  5
2947
  8
0
 10
131.1734894364358013
 20
86.8971143170287945
 30
0.0
 11
131.1734894364356876
 21
81.9999999999988631
 31
0.0
  0
POLYLINE
  5
2948
  8
0
 10
130.0000000000000853
 20
90.7942286340585412
 30
0.0
 66
     1
 70
     8
  0
VERTEX
  8
0
  5
36E6
 10
130.000
 20
90.7942
 30
0.00000
  70
    32
  0
VERTEX
  8
0
  5
36E7
 10
130.000
 20
90.7632
 30
0.00000
  70
    32
  0
VERTEX
  8
0
  5
36E8
 10
130.000
 20
90.7321
 30
0.00000
  70
    32
  0
VERTEX
  8
0
  5
36E9
 10
130.001
 20
90.7011
 30
0.00000
  70
    32
  0
VERTEX
  8
0
  5
36EA
 10
130.001
 20
90.6700
 30
0.00000
  70
    32
  0
VERTEX
  8
0
  5
36EB
 10
130.002
 20
90.6390
 30
0.00000
  70
    32
  0
VERTEX
  8
0
  5
36EC
 10
130.003
 20
90.6079
 30
0.00000
  70
    32
  0
VERTEX
  8
0
  5
36ED
 10
130.004
 20
90.5768
 30
0.00000
  70
    32
  0
VERTEX
  8
0
  5
36EE
 10
130.005
 20
90.5458
 30
0.00000
  70
    32
  0
VERTEX
  8
0
  5
36EF
 10
130.006
 20
90.5148
 30
0.00000
  70
    32
  0
VERTEX
  8
0
  5
36F0
 10
130.007
 20
90.4837
 30
0.00000
  70
    32
  0
VERTEX
  8
0
  5
36F1
 10
130.009
 20
90.4527
 30
0.00000
  70
    32
  0
VERTEX
  8
0
  5
36F2
 10
130.010
 20
90.4216
 30
0.00000
  70
    32
  0
VERTEX
  8
0
  5
36F3
 10
130.012
 20
90.3906
 30
0.00000
  70
    32
  0
VERTEX
  8
0
  5
36F4
 10
130.014
 20
90.3595
 30
0.00000
  70
    32
  0
VERTEX
  8
0
  5
36F5
 10
130.016
 20
90.3285
 30
0.00000
  70
    32
  0
VERTEX
  8
0
  5
36F6
 10
130.019
 20
90.2975
 30
0.00000
  70
    32
  0
VERTEX
  8
0
  5
36F7
 10
130.021
 20
90.2665
 30
0.00000
  70
    32
  0
VERTEX
  8
0
  5
36F8
 10
130.023
 20
90.2354
 30
0.00000
  70
    32
  0
VERTEX
  8
0
  5
36F9
 10
130.026
 20
90.2044
 30
0.00000
  70
    32
  0
VERTEX
  8
0
  5
36FA
 10
130.029
 20
90.1734
 30
0.00000
  70
    32
  0
VERTEX
  8
0
  5
36FB
 10
130.032
 20
90.1424
 30
0.00000
  70
    32
  0
VERTEX
  8
0
  5
36FC
 10
130.035
 20
90.1114
 30
0.00000
  70
    32
  0
VERTEX
  8
0
  5
36FD
 10
130.038
 20
90.0804
 30
0.00000
  70
    32
  0
VERTEX
  8
0
  5
36FE
 10
130.042
 20
90.0494
 30
0.00000
  70
    32
  0
VERTEX
  8
0
  5
36FF
 10
130.045
 20
90.0184
 30
0.00000
  70
    32
  0
VERTEX
  8
0
  5
3700
 10
130.049
 20
89.9874
 30
0.00000
  70
    32
  0
VERTEX
  8
0
  5
3701
 10
130.053
 20
89.9565
 30
0.00000
  70
    32
  0
VERTEX
  8
0
  5
3702
 10
130.057
 20
89.9255
 30
0.00000
  70
    32
  0
VERTEX
  8
0
  5
3703
 10
130.061
 20
89.8945
 30
0.00000
  70
    32
  0
VERTEX
  8
0
  5
3704
 10
130.065
 20
89.8636
 30
0.00000
  70
    32
  0
VERTEX
  8
0
  5
3705
 10
130.069
 20
89.8326
 30
0.00000
  70
    32
  0
VERTEX
  8
0
  5
3706
 10
130.074
 20
89.8017
 30
0.00000
  70
    32
  0
VERTEX
  8
0
  5
3707
 10
130.079
 20
89.7707
 30
0.00000
  70
    32
  0
VERTEX
  8
0
  5
3708
 10
130.084
 20
89.7398
 30
0.00000
  70
    32
  0
VERTEX
  8
0
  5
3709
 10
130.089
 20
89.7089
 30
0.00000
  70
    32
  0
VERTEX
  8
0
  5
370A
 10
130.094
 20
89.6780
 30
0.00000
  70
    32
  0
VERTEX
  8
0
  5
370B
 10
130.099
 20
89.6471
 30
0.00000
  70
    32
  0
VERTEX
  8
0
  5
370C
 10
130.104
 20
89.6162
 30
0.00000
  70
    32
  0
VERTEX
  8
0
  5
370D
 10
130.110
 20
89.5853
 30
0.00000
  70
    32
  0
VERTEX
  8
0
  5
370E
 10
130.116
 20
89.5544
 30
0.00000
  70
    32
  0
VERTEX
  8
0
  5
370F
 10
130.121
 20
89.5235
 30
0.00000
  70
    32
  0
VERTEX
  8
0
  5
3710
 10
130.127
 20
89.4926
 30
0.00000
  70
    32
  0
VERTEX
  8
0
  5
3711
 10
130.134
 20
89.4618
 30
0.00000
  70
    32
  0
VERTEX
  8
0
  5
3712
 10
130.140
 20
89.4310
 30
0.00000
  70
    32
  0
VERTEX
  8
0
  5
3713
 10
130.146
 20
89.4001
 30
0.00000
  70
    32
  0
VERTEX
  8
0
  5
3714
 10
130.153
 20
89.3693
 30
0.00000
  70
    32
  0
VERTEX
  8
0
  5
3715
 10
130.160
 20
89.3385
 30
0.00000
  70
    32
  0
VERTEX
  8
0
  5
3716
 10
130.166
 20
89.3077
 30
0.00000
  70
    32
  0
VERTEX
  8
0
  5
3717
 10
130.173
 20
89.2769
 30
0.00000
  70
    32
  0
VERTEX
  8
0
  5
3718
 10
130.181
 20
89.2461
 30
0.00000
  70
    32
  0
VERTEX
  8
0
  5
3719
 10
130.188
 20
89.2153
 30
0.00000
  70
    32
  0
VERTEX
  8
0
  5
371A
 10
130.195
 20
89.1846
 30
0.00000
  70
    32
  0
VERTEX
  8
0
  5
371B
 10
130.203
 20
89.1538
 30
0.00000
  70
    32
  0
VERTEX
  8
0
  5
371C
 10
130.211
 20
89.1231
 30
0.00000
  70
    32
  0
VERTEX
  8
0
  5
371D
 10
130.218
 20
89.0924
 30
0.00000
  70
    32
  0
VERTEX
  8
0
  5
371E
 10
130.226
 20
89.0617
 30
0.00000
  70
    32
  0
VERTEX
  8
0
  5
371F
 10
130.235
 20
89.0310
 30
0.00000
  70
    32
  0
VERTEX
  8
0
  5
3720
 10
130.243
 20
89.0003
 30
0.00000
  70
    32
  0
VERTEX
  8
0
  5
3721
 10
130.251
 20
88.9696
 30
0.00000
  70
    32
  0
VERTEX
  8
0
  5
3722
 10
130.260
 20
88.9389
 30
0.00000
  70
    32
  0
VERTEX
  8
0
  5
3723
 10
130.269
 20
88.9083
 30
0.00000
  70
    32
  0
VERTEX
  8
0
  5
3724
 10
130.277
 20
88.8777
 30
0.00000
  70
    32
  0
VERTEX
  8
0
  5
3725
 10
130.286
 20
88.8470
 30
0.00000
  70
    32
  0
VERTEX
  8
0
  5
3726
 10
130.296
 20
88.8164
 30
0.00000
  70
    32
  0
VERTEX
  8
0
  5
3727
 10
130.305
 20
88.7859
 30
0.00000
  70
    32
  0
VERTEX
  8
0
  5
3728
 10
130.314
 20
88.7553
 30
0.00000
  70
    32
  0
VERTEX
  8
0
  5
3729
 10
130.324
 20
88.7247
 30
0.00000
  70
    32
  0
VERTEX
  8
0
  5
372A
 10
130.334
 20
88.6942
 30
0.00000
  70
    32
  0
VERTEX
  8
0
  5
372B
 10
130.343
 20
88.6636
 30
0.00000
  70
    32
  0
VERTEX
  8
0
  5
372C
 10
130.353
 20
88.6331
 30
0.00000
  70
    32
  0
VERTEX
  8
0
  5
372D
 10
130.364
 20
88.6026
 30
0.00000
  70
    32
  0
VERTEX
  8
0
  5
372E
 10
130.374
 20
88.5721
 30
0.00000
  70
    32
  0
VERTEX
  8
0
  5
372F
 10
130.384
 20
88.5417
 30
0.00000
  70
    32
  0
VERTEX
  8
0
  5
3730
 10
130.395
 20
88.5112
 30
0.00000
  70
    32
  0
VERTEX
  8
0
  5
3731
 10
130.406
 20
88.4808
 30
0.00000
  70
    32
  0
VERTEX
  8
0
  5
3732
 10
130.416
 20
88.4504
 30
0.00000
  70
    32
  0
VERTEX
  8
0
  5
3733
 10
130.427
 20
88.4200
 30
0.00000
  70
    32
  0
VERTEX
  8
0
  5
3734
 10
130.438
 20
88.3896
 30
0.00000
  70
    32
  0
VERTEX
  8
0
  5
3735
 10
130.450
 20
88.3592
 30
0.00000
  70
    32
  0
VERTEX
  8
0
  5
3736
 10
130.461
 20
88.3289
 30
0.00000
  70
    32
  0
VERTEX
  8
0
  5
3737
 10
130.473
 20
88.2985
 30
0.00000
  70
    32
  0
VERTEX
  8
0
  5
3738
 10
130.484
 20
88.2682
 30
0.00000
  70
    32
  0
VERTEX
  8
0
  5
3739
 10
130.496
 20
88.2379
 30
0.00000
  70
    32
  0
VERTEX
  8
0
  5
373A
 10
130.508
 20
88.2077
 30
0.00000
  70
    32
  0
VERTEX
  8
0
  5
373B
 10
130.520
 20
88.1774
 30
0.00000
  70
    32
  0
VERTEX
  8
0
  5
373C
 10
130.533
 20
88.1472
 30
0.00000
  70
    32
  0
VERTEX
  8
0
  5
373D
 10
130.545
 20
88.1169
 30
0.00000
  70
    32
  0
VERTEX
  8
0
  5
373E
 10
130.558
 20
88.0867
 30
0.00000
  70
    32
  0
VERTEX
  8
0
  5
373F
 10
130.570
 20
88.0566
 30
0.00000
  70
    32
  0
VERTEX
  8
0
  5
3740
 10
130.583
 20
88.0264
 30
0.00000
  70
    32
  0
VERTEX
  8
0
  5
3741
 10
130.596
 20
87.9963
 30
0.00000
  70
    32
  0
VERTEX
  8
0
  5
3742
 10
130.609
 20
87.9661
 30
0.00000
  70
    32
  0
VERTEX
  8
0
  5
3743
 10
130.622
 20
87.9360
 30
0.00000
  70
    32
  0
VERTEX
  8
0
  5
3744
 10
130.636
 20
87.9060
 30
0.00000
  70
    32
  0
VERTEX
  8
0
  5
3745
 10
130.649
 20
87.8759
 30
0.00000
  70
    32
  0
VERTEX
  8
0
  5
3746
 10
130.663
 20
87.8459
 30
0.00000
  70
    32
  0
VERTEX
  8
0
  5
3747
 10
130.677
 20
87.8159
 30
0.00000
  70
    32
  0
VERTEX
  8
0
  5
3748
 10
130.691
 20
87.7859
 30
0.00000
  70
    32
  0
VERTEX
  8
0
  5
3749
 10
130.705
 20
87.7559
 30
0.00000
  70
    32
  0
VERTEX
  8
0
  5
374A
 10
130.719
 20
87.7259
 30
0.00000
  70
    32
  0
VERTEX
  8
0
  5
374B
 10
130.733
 20
87.6960
 30
0.00000
  70
    32
  0
VERTEX
  8
0
  5
374C
 10
130.748
 20
87.6661
 30
0.00000
  70
    32
  0
VERTEX
  8
0
  5
374D
 10
130.763
 20
87.6362
 30
0.00000
  70
    32
  0
VERTEX
  8
0
  5
374E
 10
130.777
 20
87.6064
 30
0.00000
  70
    32
  0
VERTEX
  8
0
  5
374F
 10
130.792
 20
87.5765
 30
0.00000
  70
    32
  0
VERTEX
  8
0
  5
3750
 10
130.807
 20
87.5467
 30
0.00000
  70
    32
  0
VERTEX
  8
0
  5
3751
 10
130.822
 20
87.5169
 30
0.00000
  70
    32
  0
VERTEX
  8
0
  5
3752
 10
130.838
 20
87.4871
 30
0.00000
  70
    32
  0
VERTEX
  8
0
  5
3753
 10
130.853
 20
87.4574
 30
0.00000
  70
    32
  0
VERTEX
  8
0
  5
3754
 10
130.869
 20
87.4277
 30
0.00000
  70
    32
  0
VERTEX
  8
0
  5
3755
 10
130.885
 20
87.3980
 30
0.00000
  70
    32
  0
VERTEX
  8
0
  5
3756
 10
130.901
 20
87.3683
 30
0.00000
  70
    32
  0
VERTEX
  8
0
  5
3757
 10
130.917
 20
87.3387
 30
0.00000
  70
    32
  0
VERTEX
  8
0
  5
3758
 10
130.933
 20
87.3091
 30
0.00000
  70
    32
  0
VERTEX
  8
0
  5
3759
 10
130.949
 20
87.2795
 30
0.00000
  70
    32
  0
VERTEX
  8
0
  5
375A
 10
130.965
 20
87.2499
 30
0.00000
  70
    32
  0
VERTEX
  8
0
  5
375B
 10
130.982
 20
87.2203
 30
0.00000
  70
    32
  0
VERTEX
  8
0
  5
375C
 10
130.999
 20
87.1908
 30
0.00000
  70
    32
  0
VERTEX
  8
0
  5
375D
 10
131.016
 20
87.1613
 30
0.00000
  70
    32
  0
VERTEX
  8
0
  5
375E
 10
131.033
 20
87.1319
 30
0.00000
  70
    32
  0
VERTEX
  8
0
  5
375F
 10
131.050
 20
87.1024
 30
0.00000
  70
    32
  0
VERTEX
  8
0
  5
3760
 10
131.067
 20
87.0730
 30
0.00000
  70
    32
  0
VERTEX
  8
0
  5
3761
 10
131.084
 20
87.0436
 30
0.00000
  70
    32
  0
VERTEX
  8
0
  5
3762
 10
131.102
 20
87.0143
 30
0.00000
  70
    32
  0
VERTEX
  8
0
  5
3763
 10
131.120
 20
86.9849
 30
0.00000
  70
    32
  0
VERTEX
  8
0
  5
3764
 10
131.137
 20
86.9556
 30
0.00000
  70
    32
  0
VERTEX
  8
0
  5
3765
 10
131.155
 20
86.9264
 30
0.00000
  70
    32
  0
VERTEX
  8
0
  5
3766
 10
131.173
 20
86.8971
 30
0.00000
  70
    32
  0
SEQEND
  8
0
  5
3767
  0
LINE
  5
294A
  8
0
 10
171.000000000000199
 20
132.4944465005337122
 30
0.0
 11
177.500000000000199
 21
136.2472232502657903
 31
0.0
  0
LINE
  5
294B
  8
0
 10
177.500000000000199
 20
136.2472232502657903
 30
0.0
 11
177.500000000000199
 21
143.7527767497317086
 31
0.0
  0
LINE
  5
294C
  8
0
 10
177.500000000000199
 20
143.7527767497317086
 30
0.0
 11
171.000000000000199
 21
147.5055534994637014
 31
0.0
  0
ARC
  5
294D
  8
0
 10
171.000000000000199
 20
138.9999999999988063
 30
0.0
 40
12.0000000000001297
 50
289.4964980175302003
 51
90.0
  0
LINE
  5
294E
  8
0
 10
165.6524757434098944
 20
135.5818410695738123
 30
0.0
 11
171.000000000000199
 21
132.4944465005337122
 31
0.0
  0
LINE
  5
294F
  8
0
 10
171.000000000000199
 20
147.5055534994637014
 30
0.0
 11
165.6524756824267968
 21
144.418158895215214
 31
0.0
  0
LINE
  5
2950
  8
0
 10
129.0000000000001137
 20
150.9999999999988063
 30
0.0
 11
171.000000000000199
 21
150.9999999999988063
 31
0.0
  0
LINE
  5
2951
  8
0
 10
175.0049909196293072
 20
127.6880572962146942
 30
0.0
 11
129.0000000000001137
 21
111.3949993744978002
 31
0.0
  0
ARC
  5
2952
  8
0
 10
150.000000000000199
 20
81.9999999999988631
 30
0.0
 40
16.7032930884901099
 50
180.0
 51
270.0
  0
ARC
  5
2953
  8
0
 10
135.8549297434655898
 20
76.910489420909812
 30
0.0
 40
4.9672102920668486
 50
153.8084349512637914
 51
200.0716055297959031
  0
ARC
  5
2954
  8
0
 10
150.000000000000199
 20
81.9999999999988631
 30
0.0
 40
18.8265105635644794
 50
180.0
 51
188.8521255987112113
  0
ARC
  5
2956
  8
0
 10
132.0000000000003126
 20
55.9999999999989129
 30
0.0
 40
2.0
 50
90.0
 51
180.0
  0
LINE
  5
295A
  8
0
 10
130.0000000000003126
 20
49.9999999999990266
 30
0.0
 11
130.0000000000003126
 21
55.9999999999989129
 31
0.0
  0
LINE
  5
2962
  8
0
 10
132.0000000000003126
 20
57.9999999999990266
 30
0.0
 11
170.000000000000199
 21
57.9999999999986287
 31
0.0
  0
ARC
  5
2963
  8
0
 10
168.0000000000003126
 20
55.9999999999986926
 30
0.0
 40
2.0
 50
0.0
 51
90.0
  0
LINE
  5
2964
  8
0
 10
170.0000000000003126
 20
55.9999999999986215
 30
0.0
 11
170.0000000000003126
 21
49.9999999999986784
 31
0.0
  0
LINE
  5
2965
  8
0
 10
170.0000000000003126
 20
49.9999999999986784
 30
0.0
 11
130.0000000000003126
 21
49.9999999999982307
 31
0.0
  0
LINE
  5
2969
  8
0
 10
166.7032930884903124
 20
82.9999999999987352
 30
0.0
 11
166.7032930884903124
 21
84.4999999999987352
 31
0.0
  0
LINE
  5
296B
  8
0
 10
168.8265105635645114
 20
84.4999999999987352
 30
0.0
 11
168.8265105635645114
 21
79.102885682968747
 31
0.0
  0
POLYLINE
  5
296C
  8
0
 10
170.0000000000001421
 20
75.2057713659389577
 30
0.0
 66
     1
 70
     8
  0
VERTEX
  8
0
  5
3768
 10
170.000
 20
75.2058
 30
0.00000
  70
    32
  0
VERTEX
  8
0
  5
3769
 10
170.000
 20
75.2368
 30
0.00000
  70
    32
  0
VERTEX
  8
0
  5
376A
 10
170.000
 20
75.2679
 30
0.00000
  70
    32
  0
VERTEX
  8
0
  5
376B
 10
169.999
 20
75.2989
 30
0.00000
  70
    32
  0
VERTEX
  8
0
  5
376C
 10
169.999
 20
75.3300
 30
0.00000
  70
    32
  0
VERTEX
  8
0
  5
376D
 10
169.998
 20
75.3610
 30
0.00000
  70
    32
  0
VERTEX
  8
0
  5
376E
 10
169.997
 20
75.3921
 30
0.00000
  70
    32
  0
VERTEX
  8
0
  5
376F
 10
169.996
 20
75.4232
 30
0.00000
  70
    32
  0
VERTEX
  8
0
  5
3770
 10
169.995
 20
75.4542
 30
0.00000
  70
    32
  0
VERTEX
  8
0
  5
3771
 10
169.994
 20
75.4852
 30
0.00000
  70
    32
  0
VERTEX
  8
0
  5
3772
 10
169.993
 20
75.5163
 30
0.00000
  70
    32
  0
VERTEX
  8
0
  5
3773
 10
169.991
 20
75.5473
 30
0.00000
  70
    32
  0
VERTEX
  8
0
  5
3774
 10
169.990
 20
75.5784
 30
0.00000
  70
    32
  0
VERTEX
  8
0
  5
3775
 10
169.988
 20
75.6094
 30
0.00000
  70
    32
  0
VERTEX
  8
0
  5
3776
 10
169.986
 20
75.6405
 30
0.00000
  70
    32
  0
VERTEX
  8
0
  5
3777
 10
169.984
 20
75.6715
 30
0.00000
  70
    32
  0
VERTEX
  8
0
  5
3778
 10
169.981
 20
75.7025
 30
0.00000
  70
    32
  0
VERTEX
  8
0
  5
3779
 10
169.979
 20
75.7335
 30
0.00000
  70
    32
  0
VERTEX
  8
0
  5
377A
 10
169.977
 20
75.7646
 30
0.00000
  70
    32
  0
VERTEX
  8
0
  5
377B
 10
169.974
 20
75.7956
 30
0.00000
  70
    32
  0
VERTEX
  8
0
  5
377C
 10
169.971
 20
75.8266
 30
0.00000
  70
    32
  0
VERTEX
  8
0
  5
377D
 10
169.968
 20
75.8576
 30
0.00000
  70
    32
  0
VERTEX
  8
0
  5
377E
 10
169.965
 20
75.8886
 30
0.00000
  70
    32
  0
VERTEX
  8
0
  5
377F
 10
169.962
 20
75.9196
 30
0.00000
  70
    32
  0
VERTEX
  8
0
  5
3780
 10
169.958
 20
75.9506
 30
0.00000
  70
    32
  0
VERTEX
  8
0
  5
3781
 10
169.955
 20
75.9816
 30
0.00000
  70
    32
  0
VERTEX
  8
0
  5
3782
 10
169.951
 20
76.0126
 30
0.00000
  70
    32
  0
VERTEX
  8
0
  5
3783
 10
169.947
 20
76.0435
 30
0.00000
  70
    32
  0
VERTEX
  8
0
  5
3784
 10
169.943
 20
76.0745
 30
0.00000
  70
    32
  0
VERTEX
  8
0
  5
3785
 10
169.939
 20
76.1055
 30
0.00000
  70
    32
  0
VERTEX
  8
0
  5
3786
 10
169.935
 20
76.1364
 30
0.00000
  70
    32
  0
VERTEX
  8
0
  5
3787
 10
169.931
 20
76.1674
 30
0.00000
  70
    32
  0
VERTEX
  8
0
  5
3788
 10
169.926
 20
76.1983
 30
0.00000
  70
    32
  0
VERTEX
  8
0
  5
3789
 10
169.921
 20
76.2293
 30
0.00000
  70
    32
  0
VERTEX
  8
0
  5
378A
 10
169.916
 20
76.2602
 30
0.00000
  70
    32
  0
VERTEX
  8
0
  5
378B
 10
169.911
 20
76.2911
 30
0.00000
  70
    32
  0
VERTEX
  8
0
  5
378C
 10
169.906
 20
76.3220
 30
0.00000
  70
    32
  0
VERTEX
  8
0
  5
378D
 10
169.901
 20
76.3529
 30
0.00000
  70
    32
  0
VERTEX
  8
0
  5
378E
 10
169.896
 20
76.3838
 30
0.00000
  70
    32
  0
VERTEX
  8
0
  5
378F
 10
169.890
 20
76.4147
 30
0.00000
  70
    32
  0
VERTEX
  8
0
  5
3790
 10
169.884
 20
76.4456
 30
0.00000
  70
    32
  0
VERTEX
  8
0
  5
3791
 10
169.879
 20
76.4765
 30
0.00000
  70
    32
  0
VERTEX
  8
0
  5
3792
 10
169.873
 20
76.5074
 30
0.00000
  70
    32
  0
VERTEX
  8
0
  5
3793
 10
169.866
 20
76.5382
 30
0.00000
  70
    32
  0
VERTEX
  8
0
  5
3794
 10
169.860
 20
76.5690
 30
0.00000
  70
    32
  0
VERTEX
  8
0
  5
3795
 10
169.854
 20
76.5999
 30
0.00000
  70
    32
  0
VERTEX
  8
0
  5
3796
 10
169.847
 20
76.6307
 30
0.00000
  70
    32
  0
VERTEX
  8
0
  5
3797
 10
169.840
 20
76.6615
 30
0.00000
  70
    32
  0
VERTEX
  8
0
  5
3798
 10
169.834
 20
76.6923
 30
0.00000
  70
    32
  0
VERTEX
  8
0
  5
3799
 10
169.827
 20
76.7231
 30
0.00000
  70
    32
  0
VERTEX
  8
0
  5
379A
 10
169.819
 20
76.7539
 30
0.00000
  70
    32
  0
VERTEX
  8
0
  5
379B
 10
169.812
 20
76.7847
 30
0.00000
  70
    32
  0
VERTEX
  8
0
  5
379C
 10
169.805
 20
76.8154
 30
0.00000
  70
    32
  0
VERTEX
  8
0
  5
379D
 10
169.797
 20
76.8462
 30
0.00000
  70
    32
  0
VERTEX
  8
0
  5
379E
 10
169.789
 20
76.8769
 30
0.00000
  70
    32
  0
VERTEX
  8
0
  5
379F
 10
169.782
 20
76.9076
 30
0.00000
  70
    32
  0
VERTEX
  8
0
  5
37A0
 10
169.774
 20
76.9383
 30
0.00000
  70
    32
  0
VERTEX
  8
0
  5
37A1
 10
169.765
 20
76.9690
 30
0.00000
  70
    32
  0
VERTEX
  8
0
  5
37A2
 10
169.757
 20
76.9997
 30
0.00000
  70
    32
  0
VERTEX
  8
0
  5
37A3
 10
169.749
 20
77.0304
 30
0.00000
  70
    32
  0
VERTEX
  8
0
  5
37A4
 10
169.740
 20
77.0611
 30
0.00000
  70
    32
  0
VERTEX
  8
0
  5
37A5
 10
169.731
 20
77.0917
 30
0.00000
  70
    32
  0
VERTEX
  8
0
  5
37A6
 10
169.723
 20
77.1223
 30
0.00000
  70
    32
  0
VERTEX
  8
0
  5
37A7
 10
169.714
 20
77.1530
 30
0.00000
  70
    32
  0
VERTEX
  8
0
  5
37A8
 10
169.704
 20
77.1836
 30
0.00000
  70
    32
  0
VERTEX
  8
0
  5
37A9
 10
169.695
 20
77.2141
 30
0.00000
  70
    32
  0
VERTEX
  8
0
  5
37AA
 10
169.686
 20
77.2447
 30
0.00000
  70
    32
  0
VERTEX
  8
0
  5
37AB
 10
169.676
 20
77.2753
 30
0.00000
  70
    32
  0
VERTEX
  8
0
  5
37AC
 10
169.666
 20
77.3058
 30
0.00000
  70
    32
  0
VERTEX
  8
0
  5
37AD
 10
169.657
 20
77.3364
 30
0.00000
  70
    32
  0
VERTEX
  8
0
  5
37AE
 10
169.647
 20
77.3669
 30
0.00000
  70
    32
  0
VERTEX
  8
0
  5
37AF
 10
169.636
 20
77.3974
 30
0.00000
  70
    32
  0
VERTEX
  8
0
  5
37B0
 10
169.626
 20
77.4279
 30
0.00000
  70
    32
  0
VERTEX
  8
0
  5
37B1
 10
169.616
 20
77.4583
 30
0.00000
  70
    32
  0
VERTEX
  8
0
  5
37B2
 10
169.605
 20
77.4888
 30
0.00000
  70
    32
  0
VERTEX
  8
0
  5
37B3
 10
169.594
 20
77.5192
 30
0.00000
  70
    32
  0
VERTEX
  8
0
  5
37B4
 10
169.584
 20
77.5496
 30
0.00000
  70
    32
  0
VERTEX
  8
0
  5
37B5
 10
169.573
 20
77.5800
 30
0.00000
  70
    32
  0
VERTEX
  8
0
  5
37B6
 10
169.562
 20
77.6104
 30
0.00000
  70
    32
  0
VERTEX
  8
0
  5
37B7
 10
169.550
 20
77.6408
 30
0.00000
  70
    32
  0
VERTEX
  8
0
  5
37B8
 10
169.539
 20
77.6711
 30
0.00000
  70
    32
  0
VERTEX
  8
0
  5
37B9
 10
169.527
 20
77.7015
 30
0.00000
  70
    32
  0
VERTEX
  8
0
  5
37BA
 10
169.516
 20
77.7318
 30
0.00000
  70
    32
  0
VERTEX
  8
0
  5
37BB
 10
169.504
 20
77.7621
 30
0.00000
  70
    32
  0
VERTEX
  8
0
  5
37BC
 10
169.492
 20
77.7923
 30
0.00000
  70
    32
  0
VERTEX
  8
0
  5
37BD
 10
169.480
 20
77.8226
 30
0.00000
  70
    32
  0
VERTEX
  8
0
  5
37BE
 10
169.467
 20
77.8528
 30
0.00000
  70
    32
  0
VERTEX
  8
0
  5
37BF
 10
169.455
 20
77.8831
 30
0.00000
  70
    32
  0
VERTEX
  8
0
  5
37C0
 10
169.442
 20
77.9133
 30
0.00000
  70
    32
  0
VERTEX
  8
0
  5
37C1
 10
169.430
 20
77.9434
 30
0.00000
  70
    32
  0
VERTEX
  8
0
  5
37C2
 10
169.417
 20
77.9736
 30
0.00000
  70
    32
  0
VERTEX
  8
0
  5
37C3
 10
169.404
 20
78.0037
 30
0.00000
  70
    32
  0
VERTEX
  8
0
  5
37C4
 10
169.391
 20
78.0339
 30
0.00000
  70
    32
  0
VERTEX
  8
0
  5
37C5
 10
169.378
 20
78.0640
 30
0.00000
  70
    32
  0
VERTEX
  8
0
  5
37C6
 10
169.364
 20
78.0940
 30
0.00000
  70
    32
  0
VERTEX
  8
0
  5
37C7
 10
169.351
 20
78.1241
 30
0.00000
  70
    32
  0
VERTEX
  8
0
  5
37C8
 10
169.337
 20
78.1541
 30
0.00000
  70
    32
  0
VERTEX
  8
0
  5
37C9
 10
169.323
 20
78.1841
 30
0.00000
  70
    32
  0
VERTEX
  8
0
  5
37CA
 10
169.309
 20
78.2141
 30
0.00000
  70
    32
  0
VERTEX
  8
0
  5
37CB
 10
169.295
 20
78.2441
 30
0.00000
  70
    32
  0
VERTEX
  8
0
  5
37CC
 10
169.281
 20
78.2741
 30
0.00000
  70
    32
  0
VERTEX
  8
0
  5
37CD
 10
169.267
 20
78.3040
 30
0.00000
  70
    32
  0
VERTEX
  8
0
  5
37CE
 10
169.252
 20
78.3339
 30
0.00000
  70
    32
  0
VERTEX
  8
0
  5
37CF
 10
169.237
 20
78.3638
 30
0.00000
  70
    32
  0
VERTEX
  8
0
  5
37D0
 10
169.223
 20
78.3936
 30
0.00000
  70
    32
  0
VERTEX
  8
0
  5
37D1
 10
169.208
 20
78.4235
 30
0.00000
  70
    32
  0
VERTEX
  8
0
  5
37D2
 10
169.193
 20
78.4533
 30
0.00000
  70
    32
  0
VERTEX
  8
0
  5
37D3
 10
169.178
 20
78.4831
 30
0.00000
  70
    32
  0
VERTEX
  8
0
  5
37D4
 10
169.162
 20
78.5129
 30
0.00000
  70
    32
  0
VERTEX
  8
0
  5
37D5
 10
169.147
 20
78.5426
 30
0.00000
  70
    32
  0
VERTEX
  8
0
  5
37D6
 10
169.131
 20
78.5723
 30
0.00000
  70
    32
  0
VERTEX
  8
0
  5
37D7
 10
169.115
 20
78.6020
 30
0.00000
  70
    32
  0
VERTEX
  8
0
  5
37D8
 10
169.099
 20
78.6317
 30
0.00000
  70
    32
  0
VERTEX
  8
0
  5
37D9
 10
169.083
 20
78.6613
 30
0.00000
  70
    32
  0
VERTEX
  8
0
  5
37DA
 10
169.067
 20
78.6909
 30
0.00000
  70
    32
  0
VERTEX
  8
0
  5
37DB
 10
169.051
 20
78.7205
 30
0.00000
  70
    32
  0
VERTEX
  8
0
  5
37DC
 10
169.035
 20
78.7501
 30
0.00000
  70
    32
  0
VERTEX
  8
0
  5
37DD
 10
169.018
 20
78.7797
 30
0.00000
  70
    32
  0
VERTEX
  8
0
  5
37DE
 10
169.001
 20
78.8092
 30
0.00000
  70
    32
  0
VERTEX
  8
0
  5
37DF
 10
168.984
 20
78.8387
 30
0.00000
  70
    32
  0
VERTEX
  8
0
  5
37E0
 10
168.967
 20
78.8681
 30
0.00000
  70
    32
  0
VERTEX
  8
0
  5
37E1
 10
168.950
 20
78.8976
 30
0.00000
  70
    32
  0
VERTEX
  8
0
  5
37E2
 10
168.933
 20
78.9270
 30
0.00000
  70
    32
  0
VERTEX
  8
0
  5
37E3
 10
168.916
 20
78.9564
 30
0.00000
  70
    32
  0
VERTEX
  8
0
  5
37E4
 10
168.898
 20
78.9857
 30
0.00000
  70
    32
  0
VERTEX
  8
0
  5
37E5
 10
168.880
 20
79.0151
 30
0.00000
  70
    32
  0
VERTEX
  8
0
  5
37E6
 10
168.863
 20
79.0444
 30
0.00000
  70
    32
  0
VERTEX
  8
0
  5
37E7
 10
168.845
 20
79.0736
 30
0.00000
  70
    32
  0
VERTEX
  8
0
  5
37E8
 10
168.827
 20
79.1029
 30
0.00000
  70
    32
  0
SEQEND
  8
0
  5
37E9
  0
LINE
  5
296D
  8
0
 10
150.000000000000199
 20
57.9999999999988631
 30
0.0
 11
150.000000000000199
 21
105.9999999999989058
 31
0.0
  0
ARC
  5
296E
  8
0
 10
164.2232674465226125
 20
89.2125548708331735
 30
0.0
 40
5.0163598789637946
 50
332.5110304613351104
 51
18.3791119385661617
  0
ARC
  5
296F
  8
0
 10
150.000000000000199
 20
84.4999999999987352
 30
0.0
 40
18.8265105635643799
 50
0.0
 51
7.315130049472125
  0
ARC
  5
2970
  8
0
 10
150.000000000000199
 20
84.4999999999987352
 30
0.0
 40
16.7032930884901099
 50
0.0
 51
90.0
  0
LINE
  5
2973
  8
0
 10
67.3500000000000227
 20
277.5000000000001137
 30
0.0
 11
63.9999999999995524
 21
277.5000000000001137
 31
0.0
  0
LINE
  5
2974
  8
0
 10
65.1904575308820995
 20
264.5000000000001137
 30
0.0
 11
67.3500000000001364
 21
264.5000000000001137
 31
0.0
  0
ARC
  5
2975
  8
0
 10
67.3500000000001364
 20
276.850000000000307
 30
0.0
 40
0.6499999999998636
 50
359.9999999999902229
 51
90.0000000000130314
  0
ARC
  5
2976
  8
0
 10
67.3500000000002501
 20
265.1499999999999773
 30
0.0
 40
0.6499999999998636
 50
269.9999999999869829
 51
0.0000000000130276
  0
LINE
  5
2977
  8
0
 10
52.2499999999997726
 20
275.0
 30
0.0
 11
47.7499999999997726
 21
275.0
 31
0.0
  0
LINE
  5
2978
  8
0
 10
47.7499999999997726
 20
267.0
 30
0.0
 11
52.2499999999997726
 21
267.0
 31
0.0
  0
LINE
  5
2979
  8
0
 10
34.7999999999999474
 20
277.5
 30
0.0
 11
32.0
 21
276.7497422611929778
 31
0.0
  0
LINE
  5
297A
  8
0
 10
32.0
 20
265.250257738807079
 30
0.0
 11
34.8000000000000682
 21
264.5000000000001137
 31
0.0
  0
LINE
  5
297B
  8
0
 10
63.9999999999996589
 20
283.0000000000002274
 30
0.0
 11
52.2499999999996518
 21
283.0000000000002274
 31
0.0
  0
LINE
  5
297C
  8
0
 10
47.7499999999995524
 20
283.0000000000001137
 30
0.0
 11
35.9999999999996589
 21
283.0
 31
0.0
  0
LINE
  5
297D
  8
0
 10
68.0
 20
276.8500000000000796
 30
0.0
 11
68.0000000000001137
 21
265.1500000010726126
 31
0.0
  0
LINE
  5
2988
  8
0
 10
32.0
 20
265.250257738807079
 30
0.0
 11
32.0
 21
276.7497422611929778
 31
0.0
  0
LINE
  5
2989
  8
1
 10
29.0
 20
271.0000000000001137
 30
0.0
 11
71.0
 21
271.0000000000001137
 31
0.0
  0
LINE
  5
298A
  8
0
 10
52.2499999999997726
 20
264.8302899499640262
 30
0.0
 11
52.2499999999996518
 21
283.0000000000001137
 31
0.0
  0
LINE
  5
298B
  8
0
 10
63.9999999999997726
 20
265.6524758424986885
 30
0.0
 11
63.9999999999996589
 21
283.0000000000002274
 31
0.0
  0
ARC
  5
298F
  8
0
 10
50.0
 20
250.0000000000001137
 30
0.0
 40
15.0000000000000107
 50
98.6269265586773258
 51
258.4630409671851794
1001
GENIUS_GENOBJ-N-FIL_13
1002
{
1000
OWNER
1000
GEN
1002
}
1001
GENIUS_GENODEF_13
1002
{
1000
HIER
1070
     0
1002
}
1002
{
1000
MANEDIT
1070
     0
1002
}
1002
{
1000
NOSEL
1070
     0
1002
}
1002
{
1000
BEHIND
1070
     0
1002
}
1002
{
1000
OTHER
1070
     0
1002
}
1002
{
1000
REACTOR
1002
}
  0
LINE
  5
2990
  8
0
 10
46.9999999999997726
 20
234.2500000000001137
 30
0.0
 11
46.9999999999997726
 21
235.3030615433011121
 31
0.0
  0
LINE
  5
2991
  8
0
 10
52.9999999999997726
 20
234.2500000000001137
 30
0.0
 11
46.9999999999997726
 21
234.2500000000001137
 31
0.0
  0
LINE
  5
2992
  8
0
 10
52.9999999999997726
 20
234.2500000000001137
 30
0.0
 11
52.9999999999997726
 21
235.3030615433009984
 31
0.0
  0
ARC
  5
2993
  8
0
 10
50.0
 20
250.0000000000001137
 30
0.0
 40
15.0000000000000195
 50
281.5369590328148206
 51
81.3730734413226884
  0
ARC
  5
2995
  8
0
 10
50.0
 20
250.0000000000001137
 30
0.0
 40
21.0000000000000284
 50
131.8103148957800101
 51
48.1896851042200183
1001
GENIUS_GENODEF_13
1002
{
1000
HIER
1070
     0
1002
}
1002
{
1000
MANEDIT
1070
     0
1002
}
1002
{
1000
NOSEL
1070
     0
1002
}
1002
{
1000
BEHIND
1070
     0
1002
}
1002
{
1000
OTHER
1070
     0
1002
}
1002
{
1000
REACTOR
1002
}
1001
GENIUS_GENOBJ-N-FIL_13
1002
{
1000
OWNER
1000
GEN
1002
}
  0
LINE
  5
2997
  8
0
 10
47.7499999999996518
 20
283.0000000000001137
 30
0.0
 11
47.7499999999997726
 21
264.8302899499639125
 31
0.0
  0
LINE
  5
2998
  8
0
 10
35.9999999999997726
 20
265.6524758424985748
 30
0.0
 11
35.9999999999996589
 21
283.0
 31
0.0
  0
ARC
  5
2999
  8
0
 10
50.0
 20
250.0000000000001137
 30
0.0
 40
15.0000000000000906
 50
258.4630409671851794
 51
281.5369590328181175
  0
LINE
  5
299A
  8
0
 10
35.0
 20
250.0
 30
0.0
 11
65.0
 21
250.0000000000003126
 31
0.0
  0
LINE
  5
299B
  8
0
 10
61.0
 20
260.1980390271851888
 30
0.0
 11
61.0
 21
250.0000000000003126
 31
0.0
  0
LINE
  5
299C
  8
0
 10
39.0
 20
250.0
 30
0.0
 11
39.0
 21
260.1980390271857004
 31
0.0
  0
CIRCLE
  5
29A3
  8
0
 10
79.9999999999998863
 20
250.0000000000003126
 30
0.0
 40
3.25
  0
CIRCLE
  5
29A4
  8
0
 10
19.9999999999998792
 20
249.9999999999998863
 30
0.0
 40
3.25
  0
LINE
  5
29A6
  8
0
 10
17.4999999999997691
 20
269.9999999999998863
 30
0.0
 11
32.0000000000004476
 21
270.0
 31
0.0
  0
LINE
  5
29A8
  8
0
 10
82.5
 20
230.0000000000003126
 30
0.0
 11
56.4031242374343265
 21
230.000000000000199
 31
0.0
  0
LINE
  5
29A9
  8
0
 10
43.5968757625664622
 20
230.0000000000001137
 30
0.0
 11
17.5
 21
229.999999999999801
 31
0.0
  0
LINE
  5
29AD
  8
0
 10
12.5
 20
234.9999999999998863
 30
0.0
 11
12.4999999999997708
 21
264.9999999999998863
 31
0.0
  0
ARC
  5
29AE
  8
0
 10
17.5
 20
234.9999999999998863
 30
0.0
 40
5.0000000000000284
 50
180.0
 51
270.0
  0
LINE
  5
29B0
  8
0
 10
68.0000000000003411
 20
270.0000000000002274
 30
0.0
 11
82.4999999999997584
 21
270.0000000000002842
 31
0.0
  0
ARC
  5
29B1
  8
0
 10
17.4999999999997691
 20
264.9999999999998863
 30
0.0
 40
5.0
 50
90.0
 51
180.0
  0
LINE
  5
29B3
  8
0
 10
87.4999999999997584
 20
265.0000000000002842
 30
0.0
 11
87.5
 21
235.0000000000003126
 31
0.0
  0
ARC
  5
29B5
  8
0
 10
82.5
 20
235.0000000000003126
 30
0.0
 40
5.0
 50
270.0
 51
0.0
  0
ARC
  5
29B6
  8
0
 10
82.4999999999997584
 20
265.0000000000002842
 30
0.0
 40
5.0000000000000284
 50
0.0
 51
90.0
  0
LINE
  5
29BC
  8
1
 10
92.4999999999998863
 20
250.0000000000003979
 30
0.0
 11
7.4999999999998863
 21
249.9999999999996021
 31
0.0
  0
LINE
  5
29BD
  8
1
 10
50.0000000000001066
 20
224.0000000000001137
 30
0.0
 11
49.9999999999996589
 21
288.0000000000002274
 31
0.0
  0
LINE
  5
29C1
  8
0
 10
232.6500000000002046
 20
133.4999999999988063
 30
0.0
 11
236.0000000000005969
 21
133.4999999999988063
 31
0.0
  0
LINE
  5
29C2
  8
0
 10
236.0000000000005116
 20
146.4999999999988063
 30
0.0
 11
232.6500000000002046
 21
146.4999999999988063
 31
0.0
  0
ARC
  5
29C3
  8
0
 10
232.6500000000000057
 20
134.1499999999986983
 30
0.0
 40
0.6499999999998352
 50
179.9999999999836859
 51
270.0000000000163141
  0
ARC
  5
29C4
  8
0
 10
232.6500000000000057
 20
145.8499999999988859
 30
0.0
 40
0.6499999999998636
 50
89.9999999999902229
 51
180.0000000000129887
  0
LINE
  5
29C5
  8
0
 10
247.7500000000005969
 20
135.9999999999988063
 30
0.0
 11
252.2500000000003979
 21
135.9999999999988916
 31
0.0
  0
LINE
  5
29C6
  8
0
 10
252.2500000000003979
 20
143.9999999999988916
 30
0.0
 11
247.7500000000003979
 21
143.9999999999988063
 31
0.0
  0
LINE
  5
29C7
  8
0
 10
265.2000000000001023
 20
133.4999999999988063
 30
0.0
 11
268.0000000000001137
 21
134.2502577388059137
 31
0.0
  0
LINE
  5
29C8
  8
0
 10
268.0000000000001137
 20
145.7497422611918125
 30
0.0
 11
265.2000000000001023
 21
146.4999999999988916
 31
0.0
  0
LINE
  5
29CB
  8
0
 10
269.9999999999994884
 20
57.999999999998721
 30
0.0
 11
270.0000000000002274
 21
118.8350455544712929
 31
0.0
  0
LINE
  5
29CC
  8
0
 10
230.000000000000199
 20
118.8350455544712929
 30
0.0
 11
229.999999999999801
 21
57.999999999998721
 31
0.0
  0
LINE
  5
29CD
  8
0
 10
229.000000000000199
 20
150.9999999999986926
 30
0.0
 11
229.000000000000199
 21
118.8348193177204024
 31
0.0
  0
LINE
  5
29CE
  8
0
 10
271.0000000000002274
 20
118.8348478491689946
 30
0.0
 11
271.0000000000002274
 21
150.9999999999994884
 31
0.0
  0
LINE
  5
29CF
  8
0
 10
232.000000000000199
 20
139.9999999999988063
 30
0.0
 11
232.0000000000001137
 21
145.8499999999988006
 31
0.0
  0
LINE
  5
29D0
  8
0
 10
232.000000000000199
 20
134.149999999998812
 30
0.0
 11
232.000000000000199
 21
139.9999999999988063
 31
0.0
  0
CIRCLE
  5
29D2
  8
0
 10
250.0000000000003126
 20
82.9999999999987921
 30
0.0
 40
6.4999999999999512
  0
LINE
  5
29E7
  8
0
 10
268.0000000000001137
 20
145.7497422611918125
 30
0.0
 11
268.0000000000001137
 21
134.2502577388059137
 31
0.0
  0
LINE
  5
29E9
  8
0
 10
264.0000000000005116
 20
150.9999999999986926
 30
0.0
 11
264.0000000000006253
 21
127.6880572962148932
 31
0.0
  0
LINE
  5
29EA
  8
0
 10
264.0000000000006253
 20
127.6880572962147937
 30
0.0
 11
252.2500000000005969
 21
127.6880572962147937
 31
0.0
  0
LINE
  5
29EC
  8
0
 10
247.7500000000005969
 20
127.6880572962147937
 30
0.0
 11
236.0000000000005969
 21
127.6880572962147937
 31
0.0
  0
LINE
  5
29EF
  8
0
 10
236.0000000000005116
 20
150.9999999999988916
 30
0.0
 11
236.0000000000005969
 21
127.6880572962148932
 31
0.0
  0
POLYLINE
  5
29F0
  8
0
 10
270.0000000000002274
 20
118.8350455544713924
 30
0.0
 66
     1
 70
     8
  0
VERTEX
  8
0
  5
37EA
 10
270.000
 20
118.835
 30
0.00000
  70
    32
  0
VERTEX
  8
0
  5
37EB
 10
269.999
 20
118.916
 30
0.00000
  70
    32
  0
VERTEX
  8
0
  5
37EC
 10
269.995
 20
118.996
 30
0.00000
  70
    32
  0
VERTEX
  8
0
  5
37ED
 10
269.988
 20
119.077
 30
0.00000
  70
    32
  0
VERTEX
  8
0
  5
37EE
 10
269.979
 20
119.158
 30
0.00000
  70
    32
  0
VERTEX
  8
0
  5
37EF
 10
269.968
 20
119.238
 30
0.00000
  70
    32
  0
VERTEX
  8
0
  5
37F0
 10
269.953
 20
119.319
 30
0.00000
  70
    32
  0
VERTEX
  8
0
  5
37F1
 10
269.936
 20
119.399
 30
0.00000
  70
    32
  0
VERTEX
  8
0
  5
37F2
 10
269.917
 20
119.479
 30
0.00000
  70
    32
  0
VERTEX
  8
0
  5
37F3
 10
269.895
 20
119.560
 30
0.00000
  70
    32
  0
VERTEX
  8
0
  5
37F4
 10
269.870
 20
119.640
 30
0.00000
  70
    32
  0
VERTEX
  8
0
  5
37F5
 10
269.843
 20
119.720
 30
0.00000
  70
    32
  0
VERTEX
  8
0
  5
37F6
 10
269.813
 20
119.800
 30
0.00000
  70
    32
  0
VERTEX
  8
0
  5
37F7
 10
269.781
 20
119.880
 30
0.00000
  70
    32
  0
VERTEX
  8
0
  5
37F8
 10
269.746
 20
119.960
 30
0.00000
  70
    32
  0
VERTEX
  8
0
  5
37F9
 10
269.709
 20
120.039
 30
0.00000
  70
    32
  0
VERTEX
  8
0
  5
37FA
 10
269.669
 20
120.118
 30
0.00000
  70
    32
  0
VERTEX
  8
0
  5
37FB
 10
269.626
 20
120.198
 30
0.00000
  70
    32
  0
VERTEX
  8
0
  5
37FC
 10
269.581
 20
120.277
 30
0.00000
  70
    32
  0
VERTEX
  8
0
  5
37FD
 10
269.533
 20
120.356
 30
0.00000
  70
    32
  0
VERTEX
  8
0
  5
37FE
 10
269.483
 20
120.434
 30
0.00000
  70
    32
  0
VERTEX
  8
0
  5
37FF
 10
269.430
 20
120.513
 30
0.00000
  70
    32
  0
VERTEX
  8
0
  5
3800
 10
269.375
 20
120.591
 30
0.00000
  70
    32
  0
VERTEX
  8
0
  5
3801
 10
269.318
 20
120.669
 30
0.00000
  70
    32
  0
VERTEX
  8
0
  5
3802
 10
269.257
 20
120.747
 30
0.00000
  70
    32
  0
VERTEX
  8
0
  5
3803
 10
269.194
 20
120.824
 30
0.00000
  70
    32
  0
VERTEX
  8
0
  5
3804
 10
269.129
 20
120.902
 30
0.00000
  70
    32
  0
VERTEX
  8
0
  5
3805
 10
269.062
 20
120.979
 30
0.00000
  70
    32
  0
VERTEX
  8
0
  5
3806
 10
268.991
 20
121.055
 30
0.00000
  70
    32
  0
VERTEX
  8
0
  5
3807
 10
268.919
 20
121.132
 30
0.00000
  70
    32
  0
VERTEX
  8
0
  5
3808
 10
268.844
 20
121.208
 30
0.00000
  70
    32
  0
VERTEX
  8
0
  5
3809
 10
268.766
 20
121.284
 30
0.00000
  70
    32
  0
VERTEX
  8
0
  5
380A
 10
268.686
 20
121.359
 30
0.00000
  70
    32
  0
VERTEX
  8
0
  5
380B
 10
268.604
 20
121.435
 30
0.00000
  70
    32
  0
VERTEX
  8
0
  5
380C
 10
268.519
 20
121.509
 30
0.00000
  70
    32
  0
VERTEX
  8
0
  5
380D
 10
268.431
 20
121.584
 30
0.00000
  70
    32
  0
VERTEX
  8
0
  5
380E
 10
268.342
 20
121.658
 30
0.00000
  70
    32
  0
VERTEX
  8
0
  5
380F
 10
268.250
 20
121.732
 30
0.00000
  70
    32
  0
VERTEX
  8
0
  5
3810
 10
268.155
 20
121.805
 30
0.00000
  70
    32
  0
VERTEX
  8
0
  5
3811
 10
268.059
 20
121.878
 30
0.00000
  70
    32
  0
VERTEX
  8
0
  5
3812
 10
267.960
 20
121.951
 30
0.00000
  70
    32
  0
VERTEX
  8
0
  5
3813
 10
267.858
 20
122.023
 30
0.00000
  70
    32
  0
VERTEX
  8
0
  5
3814
 10
267.754
 20
122.095
 30
0.00000
  70
    32
  0
VERTEX
  8
0
  5
3815
 10
267.648
 20
122.166
 30
0.00000
  70
    32
  0
VERTEX
  8
0
  5
3816
 10
267.540
 20
122.237
 30
0.00000
  70
    32
  0
VERTEX
  8
0
  5
3817
 10
267.429
 20
122.308
 30
0.00000
  70
    32
  0
VERTEX
  8
0
  5
3818
 10
267.317
 20
122.378
 30
0.00000
  70
    32
  0
VERTEX
  8
0
  5
3819
 10
267.201
 20
122.448
 30
0.00000
  70
    32
  0
VERTEX
  8
0
  5
381A
 10
267.084
 20
122.517
 30
0.00000
  70
    32
  0
VERTEX
  8
0
  5
381B
 10
266.965
 20
122.585
 30
0.00000
  70
    32
  0
VERTEX
  8
0
  5
381C
 10
266.843
 20
122.654
 30
0.00000
  70
    32
  0
VERTEX
  8
0
  5
381D
 10
266.719
 20
122.721
 30
0.00000
  70
    32
  0
VERTEX
  8
0
  5
381E
 10
266.593
 20
122.788
 30
0.00000
  70
    32
  0
VERTEX
  8
0
  5
381F
 10
266.465
 20
122.855
 30
0.00000
  70
    32
  0
VERTEX
  8
0
  5
3820
 10
266.334
 20
122.921
 30
0.00000
  70
    32
  0
VERTEX
  8
0
  5
3821
 10
266.202
 20
122.987
 30
0.00000
  70
    32
  0
VERTEX
  8
0
  5
3822
 10
266.067
 20
123.052
 30
0.00000
  70
    32
  0
VERTEX
  8
0
  5
3823
 10
265.930
 20
123.116
 30
0.00000
  70
    32
  0
VERTEX
  8
0
  5
3824
 10
265.791
 20
123.180
 30
0.00000
  70
    32
  0
VERTEX
  8
0
  5
3825
 10
265.651
 20
123.244
 30
0.00000
  70
    32
  0
VERTEX
  8
0
  5
3826
 10
265.508
 20
123.307
 30
0.00000
  70
    32
  0
VERTEX
  8
0
  5
3827
 10
265.363
 20
123.369
 30
0.00000
  70
    32
  0
VERTEX
  8
0
  5
3828
 10
265.216
 20
123.430
 30
0.00000
  70
    32
  0
VERTEX
  8
0
  5
3829
 10
265.067
 20
123.492
 30
0.00000
  70
    32
  0
VERTEX
  8
0
  5
382A
 10
264.916
 20
123.552
 30
0.00000
  70
    32
  0
VERTEX
  8
0
  5
382B
 10
264.764
 20
123.612
 30
0.00000
  70
    32
  0
VERTEX
  8
0
  5
382C
 10
264.609
 20
123.671
 30
0.00000
  70
    32
  0
VERTEX
  8
0
  5
382D
 10
264.453
 20
123.730
 30
0.00000
  70
    32
  0
VERTEX
  8
0
  5
382E
 10
264.294
 20
123.788
 30
0.00000
  70
    32
  0
VERTEX
  8
0
  5
382F
 10
264.134
 20
123.845
 30
0.00000
  70
    32
  0
VERTEX
  8
0
  5
3830
 10
263.972
 20
123.902
 30
0.00000
  70
    32
  0
VERTEX
  8
0
  5
3831
 10
263.808
 20
123.958
 30
0.00000
  70
    32
  0
VERTEX
  8
0
  5
3832
 10
263.642
 20
124.013
 30
0.00000
  70
    32
  0
VERTEX
  8
0
  5
3833
 10
263.475
 20
124.068
 30
0.00000
  70
    32
  0
VERTEX
  8
0
  5
3834
 10
263.305
 20
124.122
 30
0.00000
  70
    32
  0
VERTEX
  8
0
  5
3835
 10
263.134
 20
124.175
 30
0.00000
  70
    32
  0
VERTEX
  8
0
  5
3836
 10
262.962
 20
124.228
 30
0.00000
  70
    32
  0
VERTEX
  8
0
  5
3837
 10
262.787
 20
124.280
 30
0.00000
  70
    32
  0
VERTEX
  8
0
  5
3838
 10
262.611
 20
124.331
 30
0.00000
  70
    32
  0
VERTEX
  8
0
  5
3839
 10
262.434
 20
124.381
 30
0.00000
  70
    32
  0
VERTEX
  8
0
  5
383A
 10
262.255
 20
124.431
 30
0.00000
  70
    32
  0
VERTEX
  8
0
  5
383B
 10
262.074
 20
124.480
 30
0.00000
  70
    32
  0
VERTEX
  8
0
  5
383C
 10
261.891
 20
124.528
 30
0.00000
  70
    32
  0
VERTEX
  8
0
  5
383D
 10
261.707
 20
124.576
 30
0.00000
  70
    32
  0
VERTEX
  8
0
  5
383E
 10
261.522
 20
124.623
 30
0.00000
  70
    32
  0
VERTEX
  8
0
  5
383F
 10
261.335
 20
124.669
 30
0.00000
  70
    32
  0
VERTEX
  8
0
  5
3840
 10
261.147
 20
124.714
 30
0.00000
  70
    32
  0
VERTEX
  8
0
  5
3841
 10
260.957
 20
124.759
 30
0.00000
  70
    32
  0
VERTEX
  8
0
  5
3842
 10
260.765
 20
124.803
 30
0.00000
  70
    32
  0
VERTEX
  8
0
  5
3843
 10
260.573
 20
124.846
 30
0.00000
  70
    32
  0
VERTEX
  8
0
  5
3844
 10
260.379
 20
124.888
 30
0.00000
  70
    32
  0
VERTEX
  8
0
  5
3845
 10
260.183
 20
124.929
 30
0.00000
  70
    32
  0
VERTEX
  8
0
  5
3846
 10
259.986
 20
124.970
 30
0.00000
  70
    32
  0
VERTEX
  8
0
  5
3847
 10
259.788
 20
125.010
 30
0.00000
  70
    32
  0
VERTEX
  8
0
  5
3848
 10
259.589
 20
125.049
 30
0.00000
  70
    32
  0
VERTEX
  8
0
  5
3849
 10
259.389
 20
125.087
 30
0.00000
  70
    32
  0
VERTEX
  8
0
  5
384A
 10
259.187
 20
125.125
 30
0.00000
  70
    32
  0
VERTEX
  8
0
  5
384B
 10
258.984
 20
125.161
 30
0.00000
  70
    32
  0
VERTEX
  8
0
  5
384C
 10
258.780
 20
125.197
 30
0.00000
  70
    32
  0
VERTEX
  8
0
  5
384D
 10
258.574
 20
125.232
 30
0.00000
  70
    32
  0
VERTEX
  8
0
  5
384E
 10
258.368
 20
125.266
 30
0.00000
  70
    32
  0
VERTEX
  8
0
  5
384F
 10
258.161
 20
125.300
 30
0.00000
  70
    32
  0
VERTEX
  8
0
  5
3850
 10
257.952
 20
125.332
 30
0.00000
  70
    32
  0
VERTEX
  8
0
  5
3851
 10
257.743
 20
125.364
 30
0.00000
  70
    32
  0
VERTEX
  8
0
  5
3852
 10
257.532
 20
125.395
 30
0.00000
  70
    32
  0
VERTEX
  8
0
  5
3853
 10
257.320
 20
125.425
 30
0.00000
  70
    32
  0
VERTEX
  8
0
  5
3854
 10
257.108
 20
125.454
 30
0.00000
  70
    32
  0
VERTEX
  8
0
  5
3855
 10
256.895
 20
125.482
 30
0.00000
  70
    32
  0
VERTEX
  8
0
  5
3856
 10
256.680
 20
125.509
 30
0.00000
  70
    32
  0
VERTEX
  8
0
  5
3857
 10
256.465
 20
125.536
 30
0.00000
  70
    32
  0
VERTEX
  8
0
  5
3858
 10
256.249
 20
125.562
 30
0.00000
  70
    32
  0
VERTEX
  8
0
  5
3859
 10
256.032
 20
125.586
 30
0.00000
  70
    32
  0
VERTEX
  8
0
  5
385A
 10
255.815
 20
125.610
 30
0.00000
  70
    32
  0
VERTEX
  8
0
  5
385B
 10
255.596
 20
125.633
 30
0.00000
  70
    32
  0
VERTEX
  8
0
  5
385C
 10
255.377
 20
125.655
 30
0.00000
  70
    32
  0
VERTEX
  8
0
  5
385D
 10
255.158
 20
125.677
 30
0.00000
  70
    32
  0
VERTEX
  8
0
  5
385E
 10
254.937
 20
125.697
 30
0.00000
  70
    32
  0
VERTEX
  8
0
  5
385F
 10
254.716
 20
125.716
 30
0.00000
  70
    32
  0
VERTEX
  8
0
  5
3860
 10
254.494
 20
125.735
 30
0.00000
  70
    32
  0
VERTEX
  8
0
  5
3861
 10
254.272
 20
125.753
 30
0.00000
  70
    32
  0
VERTEX
  8
0
  5
3862
 10
254.049
 20
125.769
 30
0.00000
  70
    32
  0
VERTEX
  8
0
  5
3863
 10
253.826
 20
125.785
 30
0.00000
  70
    32
  0
VERTEX
  8
0
  5
3864
 10
253.602
 20
125.800
 30
0.00000
  70
    32
  0
VERTEX
  8
0
  5
3865
 10
253.378
 20
125.814
 30
0.00000
  70
    32
  0
VERTEX
  8
0
  5
3866
 10
253.153
 20
125.828
 30
0.00000
  70
    32
  0
VERTEX
  8
0
  5
3867
 10
252.928
 20
125.840
 30
0.00000
  70
    32
  0
VERTEX
  8
0
  5
3868
 10
252.702
 20
125.851
 30
0.00000
  70
    32
  0
VERTEX
  8
0
  5
3869
 10
252.476
 20
125.862
 30
0.00000
  70
    32
  0
VERTEX
  8
0
  5
386A
 10
252.250
 20
125.871
 30
0.00000
  70
    32
  0
SEQEND
  8
0
  5
386B
  0
POLYLINE
  5
29F1
  8
0
 10
247.7499999999070894
 20
125.8710892101126433
 30
0.0
 66
     1
 70
     8
  0
VERTEX
  8
0
  5
386C
 10
247.750
 20
125.871
 30
0.00000
  70
    32
  0
VERTEX
  8
0
  5
386D
 10
247.524
 20
125.862
 30
0.00000
  70
    32
  0
VERTEX
  8
0
  5
386E
 10
247.298
 20
125.851
 30
0.00000
  70
    32
  0
VERTEX
  8
0
  5
386F
 10
247.072
 20
125.840
 30
0.00000
  70
    32
  0
VERTEX
  8
0
  5
3870
 10
246.847
 20
125.828
 30
0.00000
  70
    32
  0
VERTEX
  8
0
  5
3871
 10
246.622
 20
125.814
 30
0.00000
  70
    32
  0
VERTEX
  8
0
  5
3872
 10
246.398
 20
125.800
 30
0.00000
  70
    32
  0
VERTEX
  8
0
  5
3873
 10
246.174
 20
125.785
 30
0.00000
  70
    32
  0
VERTEX
  8
0
  5
3874
 10
245.951
 20
125.769
 30
0.00000
  70
    32
  0
VERTEX
  8
0
  5
3875
 10
245.728
 20
125.753
 30
0.00000
  70
    32
  0
VERTEX
  8
0
  5
3876
 10
245.506
 20
125.735
 30
0.00000
  70
    32
  0
VERTEX
  8
0
  5
3877
 10
245.284
 20
125.716
 30
0.00000
  70
    32
  0
VERTEX
  8
0
  5
3878
 10
245.063
 20
125.697
 30
0.00000
  70
    32
  0
VERTEX
  8
0
  5
3879
 10
244.842
 20
125.677
 30
0.00000
  70
    32
  0
VERTEX
  8
0
  5
387A
 10
244.623
 20
125.655
 30
0.00000
  70
    32
  0
VERTEX
  8
0
  5
387B
 10
244.404
 20
125.633
 30
0.00000
  70
    32
  0
VERTEX
  8
0
  5
387C
 10
244.185
 20
125.610
 30
0.00000
  70
    32
  0
VERTEX
  8
0
  5
387D
 10
243.968
 20
125.586
 30
0.00000
  70
    32
  0
VERTEX
  8
0
  5
387E
 10
243.751
 20
125.562
 30
0.00000
  70
    32
  0
VERTEX
  8
0
  5
387F
 10
243.535
 20
125.536
 30
0.00000
  70
    32
  0
VERTEX
  8
0
  5
3880
 10
243.320
 20
125.509
 30
0.00000
  70
    32
  0
VERTEX
  8
0
  5
3881
 10
243.105
 20
125.482
 30
0.00000
  70
    32
  0
VERTEX
  8
0
  5
3882
 10
242.892
 20
125.454
 30
0.00000
  70
    32
  0
VERTEX
  8
0
  5
3883
 10
242.680
 20
125.425
 30
0.00000
  70
    32
  0
VERTEX
  8
0
  5
3884
 10
242.468
 20
125.395
 30
0.00000
  70
    32
  0
VERTEX
  8
0
  5
3885
 10
242.257
 20
125.364
 30
0.00000
  70
    32
  0
VERTEX
  8
0
  5
3886
 10
242.048
 20
125.332
 30
0.00000
  70
    32
  0
VERTEX
  8
0
  5
3887
 10
241.839
 20
125.300
 30
0.00000
  70
    32
  0
VERTEX
  8
0
  5
3888
 10
241.632
 20
125.266
 30
0.00000
  70
    32
  0
VERTEX
  8
0
  5
3889
 10
241.426
 20
125.232
 30
0.00000
  70
    32
  0
VERTEX
  8
0
  5
388A
 10
241.220
 20
125.197
 30
0.00000
  70
    32
  0
VERTEX
  8
0
  5
388B
 10
241.016
 20
125.161
 30
0.00000
  70
    32
  0
VERTEX
  8
0
  5
388C
 10
240.813
 20
125.125
 30
0.00000
  70
    32
  0
VERTEX
  8
0
  5
388D
 10
240.611
 20
125.087
 30
0.00000
  70
    32
  0
VERTEX
  8
0
  5
388E
 10
240.411
 20
125.049
 30
0.00000
  70
    32
  0
VERTEX
  8
0
  5
388F
 10
240.212
 20
125.010
 30
0.00000
  70
    32
  0
VERTEX
  8
0
  5
3890
 10
240.014
 20
124.970
 30
0.00000
  70
    32
  0
VERTEX
  8
0
  5
3891
 10
239.817
 20
124.929
 30
0.00000
  70
    32
  0
VERTEX
  8
0
  5
3892
 10
239.621
 20
124.888
 30
0.00000
  70
    32
  0
VERTEX
  8
0
  5
3893
 10
239.427
 20
124.846
 30
0.00000
  70
    32
  0
VERTEX
  8
0
  5
3894
 10
239.235
 20
124.803
 30
0.00000
  70
    32
  0
VERTEX
  8
0
  5
3895
 10
239.043
 20
124.759
 30
0.00000
  70
    32
  0
VERTEX
  8
0
  5
3896
 10
238.853
 20
124.714
 30
0.00000
  70
    32
  0
VERTEX
  8
0
  5
3897
 10
238.665
 20
124.669
 30
0.00000
  70
    32
  0
VERTEX
  8
0
  5
3898
 10
238.478
 20
124.623
 30
0.00000
  70
    32
  0
VERTEX
  8
0
  5
3899
 10
238.293
 20
124.576
 30
0.00000
  70
    32
  0
VERTEX
  8
0
  5
389A
 10
238.109
 20
124.528
 30
0.00000
  70
    32
  0
VERTEX
  8
0
  5
389B
 10
237.926
 20
124.480
 30
0.00000
  70
    32
  0
VERTEX
  8
0
  5
389C
 10
237.745
 20
124.431
 30
0.00000
  70
    32
  0
VERTEX
  8
0
  5
389D
 10
237.566
 20
124.381
 30
0.00000
  70
    32
  0
VERTEX
  8
0
  5
389E
 10
237.389
 20
124.331
 30
0.00000
  70
    32
  0
VERTEX
  8
0
  5
389F
 10
237.213
 20
124.280
 30
0.00000
  70
    32
  0
VERTEX
  8
0
  5
38A0
 10
237.038
 20
124.228
 30
0.00000
  70
    32
  0
VERTEX
  8
0
  5
38A1
 10
236.866
 20
124.175
 30
0.00000
  70
    32
  0
VERTEX
  8
0
  5
38A2
 10
236.695
 20
124.122
 30
0.00000
  70
    32
  0
VERTEX
  8
0
  5
38A3
 10
236.525
 20
124.068
 30
0.00000
  70
    32
  0
VERTEX
  8
0
  5
38A4
 10
236.358
 20
124.013
 30
0.00000
  70
    32
  0
VERTEX
  8
0
  5
38A5
 10
236.192
 20
123.958
 30
0.00000
  70
    32
  0
VERTEX
  8
0
  5
38A6
 10
236.028
 20
123.902
 30
0.00000
  70
    32
  0
VERTEX
  8
0
  5
38A7
 10
235.866
 20
123.845
 30
0.00000
  70
    32
  0
VERTEX
  8
0
  5
38A8
 10
235.706
 20
123.788
 30
0.00000
  70
    32
  0
VERTEX
  8
0
  5
38A9
 10
235.547
 20
123.730
 30
0.00000
  70
    32
  0
VERTEX
  8
0
  5
38AA
 10
235.391
 20
123.671
 30
0.00000
  70
    32
  0
VERTEX
  8
0
  5
38AB
 10
235.236
 20
123.612
 30
0.00000
  70
    32
  0
VERTEX
  8
0
  5
38AC
 10
235.084
 20
123.552
 30
0.00000
  70
    32
  0
VERTEX
  8
0
  5
38AD
 10
234.933
 20
123.492
 30
0.00000
  70
    32
  0
VERTEX
  8
0
  5
38AE
 10
234.784
 20
123.430
 30
0.00000
  70
    32
  0
VERTEX
  8
0
  5
38AF
 10
234.637
 20
123.369
 30
0.00000
  70
    32
  0
VERTEX
  8
0
  5
38B0
 10
234.492
 20
123.307
 30
0.00000
  70
    32
  0
VERTEX
  8
0
  5
38B1
 10
234.349
 20
123.244
 30
0.00000
  70
    32
  0
VERTEX
  8
0
  5
38B2
 10
234.209
 20
123.180
 30
0.00000
  70
    32
  0
VERTEX
  8
0
  5
38B3
 10
234.070
 20
123.116
 30
0.00000
  70
    32
  0
VERTEX
  8
0
  5
38B4
 10
233.933
 20
123.052
 30
0.00000
  70
    32
  0
VERTEX
  8
0
  5
38B5
 10
233.798
 20
122.987
 30
0.00000
  70
    32
  0
VERTEX
  8
0
  5
38B6
 10
233.666
 20
122.921
 30
0.00000
  70
    32
  0
VERTEX
  8
0
  5
38B7
 10
233.535
 20
122.855
 30
0.00000
  70
    32
  0
VERTEX
  8
0
  5
38B8
 10
233.407
 20
122.788
 30
0.00000
  70
    32
  0
VERTEX
  8
0
  5
38B9
 10
233.281
 20
122.721
 30
0.00000
  70
    32
  0
VERTEX
  8
0
  5
38BA
 10
233.157
 20
122.654
 30
0.00000
  70
    32
  0
VERTEX
  8
0
  5
38BB
 10
233.035
 20
122.585
 30
0.00000
  70
    32
  0
VERTEX
  8
0
  5
38BC
 10
232.916
 20
122.517
 30
0.00000
  70
    32
  0
VERTEX
  8
0
  5
38BD
 10
232.799
 20
122.448
 30
0.00000
  70
    32
  0
VERTEX
  8
0
  5
38BE
 10
232.683
 20
122.378
 30
0.00000
  70
    32
  0
VERTEX
  8
0
  5
38BF
 10
232.571
 20
122.308
 30
0.00000
  70
    32
  0
VERTEX
  8
0
  5
38C0
 10
232.460
 20
122.237
 30
0.00000
  70
    32
  0
VERTEX
  8
0
  5
38C1
 10
232.352
 20
122.166
 30
0.00000
  70
    32
  0
VERTEX
  8
0
  5
38C2
 10
232.246
 20
122.095
 30
0.00000
  70
    32
  0
VERTEX
  8
0
  5
38C3
 10
232.142
 20
122.023
 30
0.00000
  70
    32
  0
VERTEX
  8
0
  5
38C4
 10
232.040
 20
121.951
 30
0.00000
  70
    32
  0
VERTEX
  8
0
  5
38C5
 10
231.941
 20
121.878
 30
0.00000
  70
    32
  0
VERTEX
  8
0
  5
38C6
 10
231.845
 20
121.805
 30
0.00000
  70
    32
  0
VERTEX
  8
0
  5
38C7
 10
231.750
 20
121.732
 30
0.00000
  70
    32
  0
VERTEX
  8
0
  5
38C8
 10
231.658
 20
121.658
 30
0.00000
  70
    32
  0
VERTEX
  8
0
  5
38C9
 10
231.569
 20
121.584
 30
0.00000
  70
    32
  0
VERTEX
  8
0
  5
38CA
 10
231.481
 20
121.509
 30
0.00000
  70
    32
  0
VERTEX
  8
0
  5
38CB
 10
231.396
 20
121.435
 30
0.00000
  70
    32
  0
VERTEX
  8
0
  5
38CC
 10
231.314
 20
121.359
 30
0.00000
  70
    32
  0
VERTEX
  8
0
  5
38CD
 10
231.234
 20
121.284
 30
0.00000
  70
    32
  0
VERTEX
  8
0
  5
38CE
 10
231.156
 20
121.208
 30
0.00000
  70
    32
  0
VERTEX
  8
0
  5
38CF
 10
231.081
 20
121.132
 30
0.00000
  70
    32
  0
VERTEX
  8
0
  5
38D0
 10
231.009
 20
121.055
 30
0.00000
  70
    32
  0
VERTEX
  8
0
  5
38D1
 10
230.938
 20
120.979
 30
0.00000
  70
    32
  0
VERTEX
  8
0
  5
38D2
 10
230.871
 20
120.902
 30
0.00000
  70
    32
  0
VERTEX
  8
0
  5
38D3
 10
230.806
 20
120.824
 30
0.00000
  70
    32
  0
VERTEX
  8
0
  5
38D4
 10
230.743
 20
120.747
 30
0.00000
  70
    32
  0
VERTEX
  8
0
  5
38D5
 10
230.682
 20
120.669
 30
0.00000
  70
    32
  0
VERTEX
  8
0
  5
38D6
 10
230.625
 20
120.591
 30
0.00000
  70
    32
  0
VERTEX
  8
0
  5
38D7
 10
230.570
 20
120.513
 30
0.00000
  70
    32
  0
VERTEX
  8
0
  5
38D8
 10
230.517
 20
120.434
 30
0.00000
  70
    32
  0
VERTEX
  8
0
  5
38D9
 10
230.467
 20
120.356
 30
0.00000
  70
    32
  0
VERTEX
  8
0
  5
38DA
 10
230.419
 20
120.277
 30
0.00000
  70
    32
  0
VERTEX
  8
0
  5
38DB
 10
230.374
 20
120.198
 30
0.00000
  70
    32
  0
VERTEX
  8
0
  5
38DC
 10
230.331
 20
120.118
 30
0.00000
  70
    32
  0
VERTEX
  8
0
  5
38DD
 10
230.291
 20
120.039
 30
0.00000
  70
    32
  0
VERTEX
  8
0
  5
38DE
 10
230.254
 20
119.960
 30
0.00000
  70
    32
  0
VERTEX
  8
0
  5
38DF
 10
230.219
 20
119.880
 30
0.00000
  70
    32
  0
VERTEX
  8
0
  5
38E0
 10
230.187
 20
119.800
 30
0.00000
  70
    32
  0
VERTEX
  8
0
  5
38E1
 10
230.157
 20
119.720
 30
0.00000
  70
    32
  0
VERTEX
  8
0
  5
38E2
 10
230.130
 20
119.640
 30
0.00000
  70
    32
  0
VERTEX
  8
0
  5
38E3
 10
230.105
 20
119.560
 30
0.00000
  70
    32
  0
VERTEX
  8
0
  5
38E4
 10
230.083
 20
119.479
 30
0.00000
  70
    32
  0
VERTEX
  8
0
  5
38E5
 10
230.064
 20
119.399
 30
0.00000
  70
    32
  0
VERTEX
  8
0
  5
38E6
 10
230.047
 20
119.319
 30
0.00000
  70
    32
  0
VERTEX
  8
0
  5
38E7
 10
230.032
 20
119.238
 30
0.00000
  70
    32
  0
VERTEX
  8
0
  5
38E8
 10
230.021
 20
119.158
 30
0.00000
  70
    32
  0
VERTEX
  8
0
  5
38E9
 10
230.012
 20
119.077
 30
0.00000
  70
    32
  0
VERTEX
  8
0
  5
38EA
 10
230.005
 20
118.996
 30
0.00000
  70
    32
  0
VERTEX
  8
0
  5
38EB
 10
230.001
 20
118.916
 30
0.00000
  70
    32
  0
VERTEX
  8
0
  5
38EC
 10
230.000
 20
118.835
 30
0.00000
  70
    32
  0
SEQEND
  8
0
  5
38ED
  0
LINE
  5
29F4
  8
0
 10
247.7500000000003979
 20
125.871089210116395
 30
0.0
 11
247.7500000000019895
 21
150.9999999999988063
 31
0.0
  0
LINE
  5
29F5
  8
0
 10
252.2500000000034106
 20
150.9999999999988063
 30
0.0
 11
252.2500000000003126
 21
125.871089210116395
 31
0.0
  0
LINE
  5
29F6
  8
0
 10
264.0000000000006253
 20
127.6880572962148932
 30
0.0
 11
264.0000000000005116
 21
124.3768013117108069
 31
0.0
  0
LINE
  5
29F7
  8
0
 10
236.0000000000005969
 20
127.6880572962147937
 30
0.0
 11
236.0000000000005116
 21
124.3768012538710934
 31
0.0
  0
LINE
  5
29F9
  8
0
 10
230.0000000000001137
 20
105.9999999999989058
 30
0.0
 11
270.0000000000002274
 21
105.9999999999985931
 31
0.0
  0
LINE
  5
29FA
  8
0
 10
253.0000000000001137
 20
105.9999999999991047
 30
0.0
 11
253.0000000000005116
 21
125.1999999999987949
 31
0.0
  0
LINE
  5
29FB
  8
0
 10
253.0000000000005116
 20
125.1999999999987949
 30
0.0
 11
252.2500000000003126
 21
125.1999999999987949
 31
0.0
  0
LINE
  5
29FC
  8
0
 10
247.7500000000003979
 20
125.1999999999987949
 30
0.0
 11
246.9999999999984936
 21
125.1999999999987949
 31
0.0
  0
LINE
  5
29FD
  8
0
 10
246.9999999999984936
 20
125.1999999999987949
 30
0.0
 11
247.000000000000199
 21
105.9999999999988063
 31
0.0
  0
LINE
  5
2A00
  8
0
 10
247.7499999999070894
 20
125.8710892101127001
 30
0.0
 11
247.7500000000003979
 21
125.1999999999987949
 31
0.0
  0
LINE
  5
2A01
  8
0
 10
252.2500000000003126
 20
125.1999999999987949
 30
0.0
 11
252.25
 21
125.871089210116395
 31
0.0
  0
LINE
  5
2A03
  8
0
 10
229.000000000000199
 20
150.9999999999988063
 30
0.0
 11
271.0000000000002274
 21
150.9999999999994884
 31
0.0
  0
LINE
  5
2A04
  8
0
 10
252.250000000000199
 20
130.9999999999988063
 30
0.0
 11
247.750000000000199
 21
130.9999999999988063
 31
0.0
  0
LINE
  5
2A05
  8
0
 10
247.7500000000001137
 20
125.9999999999988063
 30
0.0
 11
252.2500000000001137
 21
125.9999999999988063
 31
0.0
  0
LINE
  5
2A12
  8
0
 10
243.2500000000003979
 20
86.8971143170287945
 30
0.0
 11
243.2500000000003979
 21
79.1028856829687896
 31
0.0
  0
LINE
  5
2A13
  8
0
 10
243.2500000000003979
 20
79.1028856829688465
 30
0.0
 11
250.0000000000003126
 21
75.2057713659389009
 31
0.0
  0
LINE
  5
2A14
  8
0
 10
250.0000000000003126
 20
75.2057713659389009
 30
0.0
 11
256.7500000000002842
 21
79.1028856829688465
 31
0.0
  0
LINE
  5
2A15
  8
0
 10
256.7500000000002842
 20
79.1028856829688465
 30
0.0
 11
256.7500000000005116
 21
86.8971143170287519
 31
0.0
  0
LINE
  5
2A1A
  8
0
 10
214.5000000000003979
 20
57.999999999998721
 30
0.0
 11
285.5000000000002842
 21
57.999999999998721
 31
0.0
  0
ARC
  5
2A1B
  8
0
 10
285.5000000000002842
 20
55.9999999999987281
 30
0.0
 40
2.0
 50
0.0
 51
90.0
  0
ARC
  5
2A1F
  8
0
 10
214.5000000000003979
 20
55.9999999999986713
 30
0.0
 40
2.0000000000000142
 50
90.0
 51
180.0
  0
LINE
  5
2A22
  8
0
 10
287.5000000000002842
 20
49.999999999998721
 30
0.0
 11
212.5000000000003979
 21
49.9999999999978684
 31
0.0
  0
LINE
  5
2A24
  8
0
 10
287.5000000000002842
 20
55.9999999999987281
 30
0.0
 11
287.5000000000002842
 21
49.999999999998721
 31
0.0
  0
LINE
  5
2A26
  8
0
 10
212.5000000000003979
 20
49.9999999999986713
 30
0.0
 11
212.5000000000003126
 21
55.9999999999987281
 31
0.0
  0
LINE
  5
2A2D
  8
0
 10
256.7500000000002842
 20
86.8971143170287945
 30
0.0
 11
250.0000000000003126
 21
90.794228634058797
 31
0.0
  0
LINE
  5
2A2E
  8
0
 10
250.0000000000003126
 20
90.794228634058797
 30
0.0
 11
243.2500000000003979
 21
86.8971143170287945
 31
0.0
  0
LINE
  5
2A30
  8
0
 10
239.0000000000003979
 20
84.4999999999988063
 30
0.0
 11
239.0000000000001137
 21
101.2032930884889055
 31
0.0
  0
ARC
  5
2A31
  8
0
 10
250.000000000000199
 20
84.4999999999988063
 30
0.0
 40
20.0000000000000284
 50
56.6329870307712397
 51
123.3670129692325048
  0
LINE
  5
2A32
  8
0
 10
261.0000000000001137
 20
101.2032930884889055
 30
0.0
 11
261.0000000000002842
 21
84.4999999999988489
 31
0.0
  0
ARC
  5
2A34
  8
0
 10
250.000000000000199
 20
82.9999999999987921
 30
0.0
 40
20.0
 50
123.3670129692325048
 51
180.0
  0
ARC
  5
2A35
  8
0
 10
250.000000000000199
 20
82.9999999999987921
 30
0.0
 40
20.0
 50
0.0
 51
56.6329870307674526
  0
LINE
  5
2A39
  8
1
 10
271.0000000000002274
 20
139.9999999999990052
 30
0.0
 11
229.000000000000199
 21
139.9999999999986926
 31
0.0
  0
LINE
  5
2A48
  8
1
 10
79.9999999999998863
 20
256.2500000000002842
 30
0.0
 11
79.9999999999998863
 21
243.7500000000003126
 31
0.0
  0
LINE
  5
2A49
  8
1
 10
19.9999999999998792
 20
256.2499999999998863
 30
0.0
 11
19.9999999999998792
 21
243.7499999999998863
 31
0.0
  0
LINE
  5
2B27
  8
3
 10
252.2500000000025011
 20
143.2329999999988104
 30
0.0
 11
247.7500000000011937
 21
143.2329999999988104
 31
0.0
  0
LINE
  5
2B28
  8
3
 10
252.2500000000015916
 20
136.7669999999988022
 30
0.0
 11
247.7500000000011937
 21
136.7669999999988022
 31
0.0
  0
LINE
  5
2B29
  8
3
 10
52.2499999999997726
 20
274.2330000000001178
 30
0.0
 11
47.7499999999997726
 21
274.2330000000001178
 31
0.0
  0
LINE
  5
2B2A
  8
3
 10
52.2499999999997726
 20
267.7669999999999959
 30
0.0
 11
47.7499999999997726
 21
267.7669999999999959
 31
0.0
  0
LINE
  5
2B39
  8
0
 10
34.8095424690366215
 20
264.5
 30
0.0
 11
34.7999999999999474
 21
264.5000000000001137
 31
0.0
  0
LINE
  5
2B3A
  8
0
 10
34.7999999999999474
 20
277.5000000000001137
 30
0.0
 11
35.9999999999997726
 21
277.5000000000001137
 31
0.0
  0
LINE
  5
2B3B
  8
0
 10
34.7999999999999474
 20
277.5000000000001137
 30
0.0
 11
34.7999999999999474
 21
264.5000000000001137
 31
0.0
  0
LINE
  5
2B3C
  8
0
 10
35.3805565836007716
 20
271.0000000000001137
 30
0.0
 11
35.9999999999997726
 21
271.0
 31
0.0
  0
ARC
  5
2B3D
  8
0
 10
44.201242740917678
 20
274.2500000000001137
 30
0.0
 40
9.4003725610149864
 50
159.7735762333502976
 51
200.2264237666495887
  0
ARC
  5
2B3E
  8
0
 10
44.201242740917678
 20
267.7500000000001137
 30
0.0
 40
9.4003725610149864
 50
159.7735762333502976
 51
197.4478898260015001
  0
LINE
  5
2B67
  8
0
 10
265.2000000000001023
 20
146.4999999999988916
 30
0.0
 11
264.619443416399406
 21
147.5055534994640993
 31
0.0
  0
LINE
  5
2B68
  8
0
 10
264.619443416399406
 20
132.4944465005337975
 30
0.0
 11
265.2000000000001023
 21
133.4999999999988916
 31
0.0
  0
LINE
  5
2B69
  8
0
 10
264.619443416399406
 20
147.5055534994640993
 30
0.0
 11
264.0000000000005116
 21
147.5055534994640993
 31
0.0
  0
LINE
  5
2B6A
  8
0
 10
264.619443416399406
 20
132.4944465005337975
 30
0.0
 11
264.0000000000006253
 21
132.4944465005337975
 31
0.0
  0
LINE
  5
2B6B
  8
0
 10
264.619443416399406
 20
136.2472232502663019
 30
0.0
 11
264.0000000000005116
 21
136.2472232502663019
 31
0.0
  0
LINE
  5
2B6C
  8
0
 10
264.619443416399406
 20
143.752776749731396
 30
0.0
 11
264.0000000000005116
 21
143.752776749731396
 31
0.0
  0
LINE
  5
2B6D
  8
0
 10
265.2000000000001023
 20
146.4999999999988916
 30
0.0
 11
265.2000000000001023
 21
133.4999999999988916
 31
0.0
  0
ARC
  5
2B6E
  8
0
 10
261.8774304270484095
 20
134.3708348754001065
 30
0.0
 40
3.3225695729515041
 50
334.3842474680279793
 51
34.3842474680266434
  0
ARC
  5
2B6F
  8
0
 10
252.7802494380358951
 20
139.9999999999988916
 30
0.0
 40
12.4197362045516098
 50
342.412474385031885
 51
17.5875256149681007
  0
ARC
  5
2B70
  8
0
 10
261.8774304270484095
 20
145.6291651245977903
 30
0.0
 40
3.3225695729515041
 50
325.6157525319775914
 51
25.6157525319719284
  0
LINE
  5
2B73
  8
1
 10
171.000000000000199
 20
149.4999999999986926
 30
0.0
 11
171.000000000000199
 21
130.4999999999986926
 31
0.0
  0
LINE
  5
2B74
  8
1
 10
180.500000000000199
 20
139.9999999999986926
 30
0.0
 11
161.500000000000199
 21
139.9999999999986926
 31
0.0
  0
LINE
  5
2B75
  8
1
 10
59.5000000000001066
 20
82.9999999999986358
 30
0.0
 11
40.5000000000001066
 21
82.9999999999986358
 31
0.0
  0
LINE
  5
2B76
  8
1
 10
150.0
 20
44.9999999999984581
 30
0.0
 11
150.0
 21
155.999999999997101
 31
0.0
  0
LINE
  5
2B77
  8
1
 10
250.0
 20
44.9999999999983302
 30
0.0
 11
250.0
 21
155.9999999999969873
 31
0.0
  0
LINE
  5
2B78
  8
1
 10
259.5000000000006821
 20
82.9999999999991331
 30
0.0
 11
240.5000000000007105
 21
82.9999999999991331
 31
0.0
  0
LINE
  5
2B79
  8
1
 10
79.9999999999940883
 20
60.9999999999988631
 30
0.0
 11
79.9999999999940883
 21
47.0000000000014708
 31
0.0
  0
LINE
  5
2B7A
  8
1
 10
19.9999999999940883
 20
61.0
 30
0.0
 11
19.9999999999940883
 21
47.0000000000010232
 31
0.0
  0
LINE
  5
2B7C
  8
1
 10
279.9999999999939746
 20
60.9999999999971934
 30
0.0
 11
279.9999999999940883
 21
46.999999999999801
 31
0.0
  0
LINE
  5
2B7D
  8
1
 10
219.9999999999940883
 20
60.9999999999983302
 30
0.0
 11
219.9999999999940883
 21
46.9999999999993534
 31
0.0
  0
LINE
  5
2B80
  8
1
 10
171.8265105635645114
 20
82.9999999999985647
 30
0.0
 11
128.1734894364356876
 21
82.9999999999995026
 31
0.0
  0
LINE
  5
2BC6
  8
2
 10
35.0
 20
150.9999999999986073
 30
0.0
 11
35.0
 21
105.9999999999985931
 31
0.0
  0
LINE
  5
2BC7
  8
2
 10
35.0
 20
105.9999999999985931
 30
0.0
 11
65.0
 21
105.9999999999985931
 31
0.0
  0
LINE
  5
2BC8
  8
2
 10
65.0
 20
105.9999999999985931
 30
0.0
 11
65.0
 21
150.9999999999986073
 31
0.0
  0
LINE
  5
2BC9
  8
2
 10
135.000000000000199
 20
150.9999999999988063
 30
0.0
 11
135.000000000000199
 21
105.9999999999988063
 31
0.0
  0
LINE
  5
2BCA
  8
2
 10
135.000000000000199
 20
105.9999999999988063
 30
0.0
 11
165.000000000000199
 21
105.9999999999988063
 31
0.0
  0
LINE
  5
2BCB
  8
2
 10
165.000000000000199
 20
105.9999999999988063
 30
0.0
 11
165.000000000000199
 21
150.9999999999988063
 31
0.0
  0
LINE
  5
2BCC
  8
2
 10
235.000000000000199
 20
150.9999999999990905
 30
0.0
 11
235.000000000000199
 21
105.9999999999989058
 31
0.0
  0
LINE
  5
2BCD
  8
2
 10
235.000000000000199
 20
105.9999999999991047
 30
0.0
 11
265.0000000000002274
 21
105.9999999999991047
 31
0.0
  0
LINE
  5
2BCE
  8
2
 10
265.0000000000002274
 20
105.9999999999991047
 30
0.0
 11
265.0000000000002274
 21
150.9999999999990905
 31
0.0
  0
LINE
  5
2C65
  8
0
 10
49.9999999999995381
 20
90.5055534994638151
 30
0.0
 11
43.4999999999995381
 21
86.752776749731197
 31
0.0
  0
LINE
  5
2C66
  8
0
 10
56.4999999999995524
 20
86.752776749731197
 30
0.0
 11
49.9999999999995381
 21
90.5055534994638151
 31
0.0
  0
LINE
  5
2C67
  8
0
 10
43.4999999999995381
 20
86.752776749731197
 30
0.0
 11
43.4999999999995381
 21
79.2472232502660745
 31
0.0
  0
CIRCLE
  5
2C68
  8
0
 10
49.9999999999995381
 20
82.9999999999986358
 30
0.0
 40
3.3235000000000001
  0
LINE
  5
2C69
  8
0
 10
43.4999999999995381
 20
79.2472232502660745
 30
0.0
 11
49.9999999999995381
 21
75.4944465005335132
 31
0.0
  0
LINE
  5
2C6A
  8
0
 10
49.9999999999995381
 20
75.4944465005335132
 30
0.0
 11
56.4999999999995524
 21
79.2472232502660745
 31
0.0
  0
LINE
  5
2C6B
  8
0
 10
56.4999999999995524
 20
79.2472232502660745
 30
0.0
 11
56.4999999999995524
 21
86.752776749731197
 31
0.0
  0
CIRCLE
  5
2C6C
  8
0
 10
49.9999999999996589
 20
82.9999999999986358
 30
0.0
 40
6.4999999999999583
  0
CIRCLE
  5
2C6D
  8
3
 10
49.9999999999996589
 20
82.9999999999986926
 30
0.0
 40
4.0
  0
LINE
  5
2C6E
  8
1
 10
71.0
 20
139.9999999999984936
 30
0.0
 11
29.0
 21
139.9999999999982094
 31
0.0
  0
LINE
  5
302F
  8
2
 10
283.2499999999940883
 20
49.9999999999986784
 30
0.0
 11
283.2499999999940883
 21
57.999999999998721
 31
0.0
  0
LINE
  5
3030
  8
2
 10
276.7499999999940883
 20
49.9999999999986073
 30
0.0
 11
276.7499999999940883
 21
57.999999999998721
 31
0.0
  0
LINE
  5
3031
  8
2
 10
223.2499999999940883
 20
49.9999999999980034
 30
0.0
 11
223.2499999999940883
 21
57.9999999999980531
 31
0.0
  0
LINE
  5
3032
  8
2
 10
216.7499999999940883
 20
49.9999999999979323
 30
0.0
 11
216.7499999999940883
 21
57.9999999999980531
 31
0.0
  0
LINE
  5
3033
  8
2
 10
153.25
 20
49.9999999999984865
 30
0.0
 11
153.25
 21
57.9999999999985505
 31
0.0
  0
LINE
  5
3034
  8
2
 10
146.75
 20
49.9999999999984226
 30
0.0
 11
146.75
 21
57.9999999999985505
 31
0.0
  0
LINE
  5
3035
  8
2
 10
83.2499999999940883
 20
49.9999999999990408
 30
0.0
 11
83.2499999999940883
 21
57.9999999999990905
 31
0.0
  0
LINE
  5
3036
  8
2
 10
76.7499999999940883
 20
49.9999999999989626
 30
0.0
 11
76.7499999999940883
 21
57.9999999999990905
 31
0.0
  0
LINE
  5
3037
  8
2
 10
23.2499999999940883
 20
50.0000000000010871
 30
0.0
 11
23.2499999999940883
 21
58.0000000000011369
 31
0.0
  0
LINE
  5
3038
  8
2
 10
16.7499999999940883
 20
50.0000000000010232
 30
0.0
 11
16.7499999999940883
 21
58.0000000000011369
 31
0.0
  0
POLYLINE
  5
3048
  8
0
 66
     1
 10
0.0
 20
0.0
 30
0.0
  0
VERTEX
  5
31AD
  8
0
 10
235.9999998132574035
 20
124.3768012538710934
 30
0.0
  0
VERTEX
  5
31AE
  8
0
 10
235.7229128714959927
 20
124.282158141831502
 30
0.0
  0
VERTEX
  5
31AF
  8
0
 10
235.5846773424086109
 20
124.2347482501871951
 30
0.0
  0
VERTEX
  5
31B0
  8
0
 10
235.4468113434732004
 20
124.1872323557934976
 30
0.0
  0
VERTEX
  5
31B1
  8
0
 10
235.3094380514073123
 20
124.1395751244005936
 30
0.0
  0
VERTEX
  5
31B2
  8
0
 10
235.1726806429280998
 20
124.0917412217585962
 30
0.0
  0
VERTEX
  5
31B3
  8
0
 10
235.0366622947528867
 20
124.0436953136179028
 30
0.0
  0
VERTEX
  5
31B4
  8
0
 10
234.9015061835993095
 20
123.9954020657284985
 30
0.0
  0
VERTEX
  5
31B5
  8
0
 10
234.8342899596297002
 20
123.9711516474250033
 30
0.0
  0
VERTEX
  5
31B6
  8
0
 10
234.7673354861844075
 20
123.9468261438406955
 30
0.0
  0
VERTEX
  5
31B7
  8
0
 10
234.700658160353214
 20
123.9224211381942951
 30
0.0
  0
VERTEX
  5
31B8
  8
0
 10
234.6342733792257036
 20
123.8979322137046069
 30
0.0
  0
VERTEX
  5
31B9
  8
0
 10
234.568196539891602
 20
123.8733549535903933
 30
0.0
  0
VERTEX
  5
31BA
  8
0
 10
234.5024430394404931
 20
123.848684941070502
 30
0.0
  0
VERTEX
  5
31BB
  8
0
 10
234.4370282749621879
 20
123.8239177593635958
 30
0.0
  0
VERTEX
  5
31BC
  8
0
 10
234.3719676435460997
 20
123.7990489916885934
 30
0.0
  0
VERTEX
  5
31BD
  8
0
 10
234.3072765422820964
 20
123.774074221264101
 30
0.0
  0
VERTEX
  5
31BE
  8
0
 10
234.242970368259904
 20
123.7489890313089944
 30
0.0
  0
VERTEX
  5
31BF
  8
0
 10
234.1790645185689925
 20
123.723789005042093
 30
0.0
  0
VERTEX
  5
31C0
  8
0
 10
234.1155743902992015
 20
123.6984697256820027
 30
0.0
  0
VERTEX
  5
31C1
  8
0
 10
234.0525130392263122
 20
123.6730275866543991
 30
0.0
  0
VERTEX
  5
31C2
  8
0
 10
233.989881379499792
 20
123.6474631829685933
 30
0.0
  0
VERTEX
  5
31C3
  8
0
 10
233.9276764015100127
 20
123.6217784674429936
 30
0.0
  0
VERTEX
  5
31C4
  8
0
 10
233.865895093683605
 20
123.595975393575003
 30
0.0
  0
VERTEX
  5
31C5
  8
0
 10
233.804534444447313
 20
123.5700559148623938
 30
0.0
  0
VERTEX
  5
31C6
  8
0
 10
233.743591442227995
 20
123.5440219848025976
 30
0.0
  0
VERTEX
  5
31C7
  8
0
 10
233.683063075452111
 20
123.5178755568934008
 30
0.0
  0
VERTEX
  5
31C8
  8
0
 10
233.6229463325466043
 20
123.4916185846324055
 30
0.0
  0
VERTEX
  5
31C9
  8
0
 10
233.5632382019381055
 20
123.4652530215170998
 30
0.0
  0
VERTEX
  5
31CA
  8
0
 10
233.5039356720533021
 20
123.4387808210451993
 30
0.0
  0
VERTEX
  5
31CB
  8
0
 10
233.4450357313191944
 20
123.4122039367144055
 30
0.0
  0
VERTEX
  5
31CC
  8
0
 10
233.3865353681622139
 20
123.385524322022107
 30
0.0
  0
VERTEX
  5
31CD
  8
0
 10
233.3284315710091903
 20
123.3587439304661046
 30
0.0
  0
VERTEX
  5
31CE
  8
0
 10
233.2707213282868963
 20
123.331864715543901
 30
0.0
  0
VERTEX
  5
31CF
  8
0
 10
233.2134016284219058
 20
123.3048886307530978
 30
0.0
  0
VERTEX
  5
31D0
  8
0
 10
233.1564694598411904
 20
123.277817629591496
 30
0.0
  0
VERTEX
  5
31D1
  8
0
 10
233.0999218109714093
 20
123.2506536655564986
 30
0.0
  0
VERTEX
  5
31D2
  8
0
 10
233.0437556702391078
 20
123.2233986921458069
 30
0.0
  0
VERTEX
  5
31D3
  8
0
 10
232.987968026071087
 20
123.1960546628570938
 30
0.0
  0
VERTEX
  5
31D4
  8
0
 10
232.9325558668942904
 20
123.1686235311879045
 30
0.0
  0
VERTEX
  5
31D5
  8
0
 10
232.8775161811352916
 20
123.1411072506357982
 30
0.0
  0
VERTEX
  5
31D6
  8
0
 10
232.822845957220693
 20
123.1135077746985047
 30
0.0
  0
VERTEX
  5
31D7
  8
0
 10
232.7685421835774093
 20
123.0858270568735975
 30
0.0
  0
VERTEX
  5
31D8
  8
0
 10
232.7146018486322987
 20
123.0580670506587069
 30
0.0
  0
VERTEX
  5
31D9
  8
0
 10
232.6610219408117075
 20
123.0302297095514064
 30
0.0
  0
VERTEX
  5
31DA
  8
0
 10
232.6077994485426075
 20
123.0023169870492978
 30
0.0
  0
VERTEX
  5
31DB
  8
0
 10
232.5549313602516008
 20
122.9743308366500969
 30
0.0
  0
VERTEX
  5
31DC
  8
0
 10
232.5024146643656024
 20
122.946273211851306
 30
0.0
  0
VERTEX
  5
31DD
  8
0
 10
232.450246709361096
 20
122.9181459356675958
 30
0.0
  0
VERTEX
  5
31DE
  8
0
 10
232.3984277858698988
 20
122.8899497648689021
 30
0.0
  0
VERTEX
  5
31DF
  8
0
 10
232.3469596218662048
 20
122.8616849353284977
 30
0.0
  0
VERTEX
  5
31E0
  8
0
 10
232.295843955073309
 20
122.8333516793867943
 30
0.0
  0
VERTEX
  5
31E1
  8
0
 10
232.2450825232147054
 20
122.804950229383806
 30
0.0
  0
VERTEX
  5
31E2
  8
0
 10
232.1946770640136037
 20
122.7764808176599018
 30
0.0
  0
VERTEX
  5
31E3
  8
0
 10
232.1446293151934981
 20
122.7479436765551952
 30
0.0
  0
VERTEX
  5
31E4
  8
0
 10
232.0949410144777119
 20
122.7193390384099985
 30
0.0
  0
VERTEX
  5
31E5
  8
0
 10
232.0456138995897106
 20
122.6906671355643965
 30
0.0
  0
VERTEX
  5
31E6
  8
0
 10
231.9966497082527042
 20
122.6619282003588012
 30
0.0
  0
VERTEX
  5
31E7
  8
0
 10
231.9480501781899875
 20
122.6331224651332974
 30
0.0
  0
VERTEX
  5
31E8
  8
0
 10
231.8998170471251115
 20
122.604250162228098
 30
0.0
  0
VERTEX
  5
31E9
  8
0
 10
231.8519520527813995
 20
122.5753115239834017
 30
0.0
  0
VERTEX
  5
31EA
  8
0
 10
231.8044569328820899
 20
122.546306782739606
 30
0.0
  0
VERTEX
  5
31EB
  8
0
 10
231.7573334251507902
 20
122.5172361708366964
 30
0.0
  0
VERTEX
  5
31EC
  8
0
 10
231.7105832673107102
 20
122.4880999206149994
 30
0.0
  0
VERTEX
  5
31ED
  8
0
 10
231.6642081970850882
 20
122.458898264414799
 30
0.0
  0
VERTEX
  5
31EE
  8
0
 10
231.6182099521975886
 20
122.4296314345761942
 30
0.0
  0
VERTEX
  5
31EF
  8
0
 10
231.5725902703713928
 20
122.4002996634394975
 30
0.0
  0
VERTEX
  5
31F0
  8
0
 10
231.5273508893299095
 20
122.3709031833448933
 30
0.0
  0
VERTEX
  5
31F1
  8
0
 10
231.4824935467966043
 20
122.3414422266324948
 30
0.0
  0
VERTEX
  5
31F2
  8
0
 10
231.4380199804946017
 20
122.3119170256426997
 30
0.0
  0
VERTEX
  5
31F3
  8
0
 10
231.3939319281473956
 20
122.2823278127157067
 30
0.0
  0
VERTEX
  5
31F4
  8
0
 10
231.3502311274783949
 20
122.2526748201916007
 30
0.0
  0
VERTEX
  5
31F5
  8
0
 10
231.3069193162108945
 20
122.222958280410694
 30
0.0
  0
VERTEX
  5
31F6
  8
0
 10
231.2639982320683885
 20
122.1931784257131994
 30
0.0
  0
VERTEX
  5
31F7
  8
0
 10
231.2214696127740865
 20
122.1633354884393015
 30
0.0
  0
VERTEX
  5
31F8
  8
0
 10
231.1793351960513974
 20
122.1334297009292982
 30
0.0
  0
VERTEX
  5
31F9
  8
0
 10
231.1375966690459904
 20
122.1034613096363017
 30
0.0
  0
VERTEX
  5
31FA
  8
0
 10
231.0962548529805076
 20
122.0734308026376027
 30
0.0
  0
VERTEX
  5
31FB
  8
0
 10
231.0553098418550064
 20
122.0433388709316063
 30
0.0
  0
VERTEX
  5
31FC
  8
0
 10
231.0147617070977049
 20
122.0131862118151957
 30
0.0
  0
VERTEX
  5
31FD
  8
0
 10
230.9746105201369915
 20
121.9829735225854961
 30
0.0
  0
VERTEX
  5
31FE
  8
0
 10
230.9348563524006863
 20
121.9527015005393054
 30
0.0
  0
VERTEX
  5
31FF
  8
0
 10
230.8954992753170927
 20
121.9223708429736064
 30
0.0
  0
VERTEX
  5
3200
  8
0
 10
230.8565393603142866
 20
121.8919822471852967
 30
0.0
  0
VERTEX
  5
3201
  8
0
 10
230.8179766788202869
 20
121.8615364104715013
 30
0.0
  0
VERTEX
  5
3202
  8
0
 10
230.7798113022633117
 20
121.831034030129004
 30
0.0
  0
VERTEX
  5
3203
  8
0
 10
230.7420433020714938
 20
121.8004758034548018
 30
0.0
  0
VERTEX
  5
3204
  8
0
 10
230.7046727496727954
 20
121.7698624277459061
 30
0.0
  0
VERTEX
  5
3205
  8
0
 10
230.6676997164956049
 20
121.7391946002991006
 30
0.0
  0
VERTEX
  5
3206
  8
0
 10
230.631124273967913
 20
121.708473018411496
 30
0.0
  0
VERTEX
  5
3207
  8
0
 10
230.5949464935177957
 20
121.6776983793801037
 30
0.0
  0
VERTEX
  5
3208
  8
0
 10
230.5591664465734141
 20
121.6468713805015938
 30
0.0
  0
VERTEX
  5
3209
  8
0
 10
230.5237842045627872
 20
121.6159927190732049
 30
0.0
  0
VERTEX
  5
320A
  8
0
 10
230.4887998389141899
 20
121.5850630923917066
 30
0.0
  0
VERTEX
  5
320B
  8
0
 10
230.4542134210558118
 20
121.5540831977540961
 30
0.0
  0
VERTEX
  5
320C
  8
0
 10
230.4200250224155013
 20
121.5230537324573987
 30
0.0
  0
VERTEX
  5
320D
  8
0
 10
230.3862347144215903
 20
121.4919753937984979
 30
0.0
  0
VERTEX
  5
320E
  8
0
 10
230.3528425685020977
 20
121.4608488790743053
 30
0.0
  0
VERTEX
  5
320F
  8
0
 10
230.3198486560852984
 20
121.4296748855818038
 30
0.0
  0
VERTEX
  5
3210
  8
0
 10
230.2872530485990126
 20
121.3984541106179051
 30
0.0
  0
VERTEX
  5
3211
  8
0
 10
230.2550558174717139
 20
121.3671872514797059
 30
0.0
  0
VERTEX
  5
3212
  8
0
 10
230.2232570341313078
 20
121.3358750054640041
 30
0.0
  0
VERTEX
  5
3213
  8
0
 10
230.1918567700058986
 20
121.3045180698677967
 30
0.0
  0
VERTEX
  5
3214
  8
0
 10
230.1608550965237043
 20
121.2731171419879956
 30
0.0
  0
VERTEX
  5
3215
  8
0
 10
230.1302520858781122
 20
121.2416729189280034
 30
0.0
  0
VERTEX
  5
3216
  8
0
 10
230.1000479567150876
 20
121.2101860607380956
 30
0.0
  0
VERTEX
  5
3217
  8
0
 10
230.0702432469913106
 20
121.1786571466819993
 30
0.0
  0
VERTEX
  5
3218
  8
0
 10
230.0408385367373967
 20
121.1470867453783029
 30
0.0
  0
VERTEX
  5
3219
  8
0
 10
230.0118344059845015
 20
121.1154754254457941
 30
0.0
  0
VERTEX
  5
321A
  8
0
 10
229.9832314347634963
 20
121.0838237555032038
 30
0.0
  0
VERTEX
  5
321B
  8
0
 10
229.9550302031053945
 20
121.0521323041691062
 30
0.0
  0
VERTEX
  5
321C
  8
0
 10
229.9272312910408971
 20
121.0204016400623033
 30
0.0
  0
VERTEX
  5
321D
  8
0
 10
229.8998352786011878
 20
120.9886323318013979
 30
0.0
  0
VERTEX
  5
321E
  8
0
 10
229.872842745817195
 20
120.9568249480051065
 30
0.0
  0
VERTEX
  5
321F
  8
0
 10
229.8462542727197047
 20
120.9249800572922027
 30
0.0
  0
VERTEX
  5
3220
  8
0
 10
229.8200704393395881
 20
120.8930982282813034
 30
0.0
  0
VERTEX
  5
3221
  8
0
 10
229.7942918257078873
 20
120.8611800295911962
 30
0.0
  0
VERTEX
  5
3222
  8
0
 10
229.7689190118557008
 20
120.8292260298404983
 30
0.0
  0
VERTEX
  5
3223
  8
0
 10
229.7439525778135874
 20
120.7972367976478978
 30
0.0
  0
VERTEX
  5
3224
  8
0
 10
229.7193931036129015
 20
120.765212901632097
 30
0.0
  0
VERTEX
  5
3225
  8
0
 10
229.695241169284202
 20
120.7331549104118977
 30
0.0
  0
VERTEX
  5
3226
  8
0
 10
229.6714973548585874
 20
120.7010633926058034
 30
0.0
  0
VERTEX
  5
3227
  8
0
 10
229.648162240366986
 20
120.6689389168327011
 30
0.0
  0
VERTEX
  5
3228
  8
0
 10
229.6252364058402975
 20
120.6367820517111937
 30
0.0
  0
VERTEX
  5
3229
  8
0
 10
229.6027204313095069
 20
120.6045933658599978
 30
0.0
  0
VERTEX
  5
322A
  8
0
 10
229.580614896805514
 20
120.5723734278978014
 30
0.0
  0
VERTEX
  5
322B
  8
0
 10
229.5589203823591049
 20
120.540122806443307
 30
0.0
  0
VERTEX
  5
322C
  8
0
 10
229.5376374680014919
 20
120.5078420701152027
 30
0.0
  0
VERTEX
  5
322D
  8
0
 10
229.5167667337634896
 20
120.4755317875322049
 30
0.0
  0
VERTEX
  5
322E
  8
0
 10
229.4963087596759124
 20
120.443192527313002
 30
0.0
  0
VERTEX
  5
322F
  8
0
 10
229.4762641257698021
 20
120.4108248580762961
 30
0.0
  0
VERTEX
  5
3230
  8
0
 10
229.4566334120760871
 20
120.3784293484408039
 30
0.0
  0
VERTEX
  5
3231
  8
0
 10
229.4374171986258091
 20
120.3460065670250998
 30
0.0
  0
VERTEX
  5
3232
  8
0
 10
229.4186159228952988
 20
120.3135570784116055
 30
0.0
  0
VERTEX
  5
3233
  8
0
 10
229.4002293745598138
 20
120.2810814288398973
 30
0.0
  0
VERTEX
  5
3234
  8
0
 10
229.382257159379094
 20
120.2485801593421968
 30
0.0
  0
VERTEX
  5
3235
  8
0
 10
229.3646988831006865
 20
120.2160538109501999
 30
0.0
  0
VERTEX
  5
3236
  8
0
 10
229.3475541514721101
 20
120.1835029246957021
 30
0.0
  0
VERTEX
  5
3237
  8
0
 10
229.3308225702405991
 20
120.1509280416104986
 30
0.0
  0
VERTEX
  5
3238
  8
0
 10
229.3145037451537007
 20
120.1183297027262995
 30
0.0
  0
VERTEX
  5
3239
  8
0
 10
229.2985972819589904
 20
120.0857084490749003
 30
0.0
  0
VERTEX
  5
323A
  8
0
 10
229.2831027864037878
 20
120.0530648216880962
 30
0.0
  0
VERTEX
  5
323B
  8
0
 10
229.2680198642356117
 20
120.0203993615975975
 30
0.0
  0
VERTEX
  5
323C
  8
0
 10
229.2533481212018103
 20
119.9877126098352988
 30
0.0
  0
VERTEX
  5
323D
  8
0
 10
229.2390871630499021
 20
119.9550051074328962
 30
0.0
  0
VERTEX
  5
323E
  8
0
 10
229.2252365955274058
 20
119.9222773954220997
 30
0.0
  0
VERTEX
  5
323F
  8
0
 10
229.2117960243816128
 20
119.8895300148348042
 30
0.0
  0
VERTEX
  5
3240
  8
0
 10
229.1987650553598996
 20
119.856763506702606
 30
0.0
  0
VERTEX
  5
3241
  8
0
 10
229.1861432942100976
 20
119.8239784120574001
 30
0.0
  0
VERTEX
  5
3242
  8
0
 10
229.1739303466792137
 20
119.7911752719309959
 30
0.0
  0
VERTEX
  5
3243
  8
0
 10
229.1621258185151078
 20
119.7583546273551036
 30
0.0
  0
VERTEX
  5
3244
  8
0
 10
229.1507293154649005
 20
119.7255170193615044
 30
0.0
  0
VERTEX
  5
3245
  8
0
 10
229.1397404432761959
 20
119.692662988981894
 30
0.0
  0
VERTEX
  5
3246
  8
0
 10
229.129158807696399
 20
119.6597930772480964
 30
0.0
  0
VERTEX
  5
3247
  8
0
 10
229.1189840144729999
 20
119.6269078251920064
 30
0.0
  0
VERTEX
  5
3248
  8
0
 10
229.1092156693534037
 20
119.5940077738452061
 30
0.0
  0
VERTEX
  5
3249
  8
0
 10
229.0998533780851005
 20
119.5610934642395051
 30
0.0
  0
VERTEX
  5
324A
  8
0
 10
229.0908967464154102
 20
119.5281654374067983
 30
0.0
  0
VERTEX
  5
324B
  8
0
 10
229.0823453800919935
 20
119.4952242343786963
 30
0.0
  0
VERTEX
  5
324C
  8
0
 10
229.0741988848621133
 20
119.462270396187094
 30
0.0
  0
VERTEX
  5
324D
  8
0
 10
229.066456866473203
 20
119.4293044638637014
 30
0.0
  0
VERTEX
  5
324E
  8
0
 10
229.0591192108481948
 20
119.3963270084676935
 30
0.0
  0
VERTEX
  5
324F
  8
0
 10
229.0521872719236001
 20
119.363338758391393
 30
0.0
  0
VERTEX
  5
3250
  8
0
 10
229.0456628828100065
 20
119.3303404933816978
 30
0.0
  0
VERTEX
  5
3251
  8
0
 10
229.039547876884086
 20
119.2973329932142974
 30
0.0
  0
VERTEX
  5
3252
  8
0
 10
229.0338440875229935
 20
119.2643170376646964
 30
0.0
  0
VERTEX
  5
3253
  8
0
 10
229.0285533481035998
 20
119.2312934065086978
 30
0.0
  0
VERTEX
  5
3254
  8
0
 10
229.0236774920028893
 20
119.1982628795218062
 30
0.0
  0
VERTEX
  5
3255
  8
0
 10
229.0192183525979033
 20
119.1652262364796968
 30
0.0
  0
VERTEX
  5
3256
  8
0
 10
229.0151777632655978
 20
119.1321842571579026
 30
0.0
  0
VERTEX
  5
3257
  8
0
 10
229.0115575573827016
 20
119.0991377213321982
 30
0.0
  0
VERTEX
  5
3258
  8
0
 10
229.0083595683265969
 20
119.066087408778003
 30
0.0
  0
VERTEX
  5
3259
  8
0
 10
229.0055856294740124
 20
119.0330340992711058
 30
0.0
  0
VERTEX
  5
325A
  8
0
 10
229.0032375742019042
 20
118.9999785725871959
 30
0.0
  0
VERTEX
  5
325B
  8
0
 10
229.0013172358871998
 20
118.9669216085017069
 30
0.0
  0
VERTEX
  5
325C
  8
0
 10
228.9998264479069974
 20
118.9338639867902998
 30
0.0
  0
VERTEX
  5
325D
  8
0
 10
228.9987670436383098
 20
118.900806487228607
 30
0.0
  0
VERTEX
  5
325E
  8
0
 10
228.9981408564578942
 20
118.8677498895923037
 30
0.0
  0
VERTEX
  5
325F
  8
0
 10
228.9979497197429055
 20
118.8346949736570934
 30
0.0
  0
VERTEX
  5
3260
  8
0
 10
228.998195466870186
 20
118.8016425191983956
 30
0.0
  0
VERTEX
  5
3261
  8
0
 10
228.9988799312168908
 20
118.7685933059919989
 30
0.0
  0
VERTEX
  5
3262
  8
0
 10
229.0000049461598053
 20
118.7355481138133939
 30
0.0
  0
VERTEX
  5
3263
  8
0
 10
229.0015723450759992
 20
118.7025077224382983
 30
0.0
  0
VERTEX
  5
3264
  8
0
 10
229.0035839613422013
 20
118.6694729116424014
 30
0.0
  0
VERTEX
  5
3265
  8
0
 10
229.0060416283359075
 20
118.6364444612010942
 30
0.0
  0
VERTEX
  5
3266
  8
0
 10
229.0089471794335907
 20
118.6034231508901939
 30
0.0
  0
VERTEX
  5
3267
  8
0
 10
229.0123024480124059
 20
118.5704097604853047
 30
0.0
  0
VERTEX
  5
3268
  8
0
 10
229.0161092674491954
 20
118.5374050697620021
 30
0.0
  0
VERTEX
  5
3269
  8
0
 10
229.0203694711211142
 20
118.5044098584959045
 30
0.0
  0
VERTEX
  5
326A
  8
0
 10
229.0250834473820873
 20
118.4714247496096959
 30
0.0
  0
VERTEX
  5
326B
  8
0
 10
229.0302457117070958
 20
118.4384497285432047
 30
0.0
  0
VERTEX
  5
326C
  8
0
 10
229.0358492877824972
 20
118.4054846188065966
 30
0.0
  0
VERTEX
  5
326D
  8
0
 10
229.0418871992947913
 20
118.3725292439105061
 30
0.0
  0
VERTEX
  5
326E
  8
0
 10
229.0483524699305065
 20
118.3395834273653975
 30
0.0
  0
VERTEX
  5
326F
  8
0
 10
229.0552381233756876
 20
118.3066469926816069
 30
0.0
  0
VERTEX
  5
3270
  8
0
 10
229.0625371833172039
 20
118.2737197633695985
 30
0.0
  0
VERTEX
  5
3271
  8
0
 10
229.0702426734411858
 20
118.2408015629398932
 30
0.0
  0
VERTEX
  5
3272
  8
0
 10
229.0783476174341047
 20
118.2078922149027989
 30
0.0
  0
VERTEX
  5
3273
  8
0
 10
229.0868450389824886
 20
118.174991542769007
 30
0.0
  0
VERTEX
  5
3274
  8
0
 10
229.0957279617726101
 20
118.1420993700487969
 30
0.0
  0
VERTEX
  5
3275
  8
0
 10
229.1049894094907984
 20
118.1092155202526044
 30
0.0
  0
VERTEX
  5
3276
  8
0
 10
229.1146224058236101
 20
118.0763398168908935
 30
0.0
  0
VERTEX
  5
3277
  8
0
 10
229.1246199744576018
 20
118.0434720834741995
 30
0.0
  0
VERTEX
  5
3278
  8
0
 10
229.1349751390789038
 20
118.0106121435130007
 30
0.0
  0
VERTEX
  5
3279
  8
0
 10
229.1456809233741012
 20
117.9777598205175053
 30
0.0
  0
VERTEX
  5
327A
  8
0
 10
229.1567303510296938
 20
117.9449149379985045
 30
0.0
  0
VERTEX
  5
327B
  8
0
 10
229.1681164457316981
 20
117.9120773194661069
 30
0.0
  0
VERTEX
  5
327C
  8
0
 10
229.179832231167012
 20
117.8792467884310042
 30
0.0
  0
VERTEX
  5
327D
  8
0
 10
229.1918707310217087
 20
117.8464231684036037
 30
0.0
  0
VERTEX
  5
327E
  8
0
 10
229.2042249689822881
 20
117.8136062828941988
 30
0.0
  0
VERTEX
  5
327F
  8
0
 10
229.2168879687351932
 20
117.7807959554134953
 30
0.0
  0
VERTEX
  5
3280
  8
0
 10
229.2298527539668953
 20
117.7479920094717016
 30
0.0
  0
VERTEX
  5
3281
  8
0
 10
229.2431123483638089
 20
117.7151942685793955
 30
0.0
  0
VERTEX
  5
3282
  8
0
 10
229.2566597756122917
 20
117.6824025562470979
 30
0.0
  0
VERTEX
  5
3283
  8
0
 10
229.2704880593987014
 20
117.6496166959851024
 30
0.0
  0
VERTEX
  5
3284
  8
0
 10
229.2845902234095092
 20
117.6168365113039016
 30
0.0
  0
VERTEX
  5
3285
  8
0
 10
229.2989593112141051
 20
117.5840618279200953
 30
0.0
  0
VERTEX
  5
3286
  8
0
 10
229.3135965922191133
 20
117.5512933842704939
 30
0.0
  0
VERTEX
  5
3287
  8
0
 10
229.3285242159186055
 20
117.5185342355983948
 30
0.0
  0
VERTEX
  5
3288
  8
0
 10
229.3437675953823032
 20
117.4857877992660065
 30
0.0
  0
VERTEX
  5
3289
  8
0
 10
229.3593521436802973
 20
117.4530574926355939
 30
0.0
  0
VERTEX
  5
328A
  8
0
 10
229.3753032738821105
 20
117.4203467330695929
 30
0.0
  0
VERTEX
  5
328B
  8
0
 10
229.3916463990578052
 20
117.3876589379300981
 30
0.0
  0
VERTEX
  5
328C
  8
0
 10
229.4084069322769892
 20
117.354997524579403
 30
0.0
  0
VERTEX
  5
328D
  8
0
 10
229.4256102866096114
 20
117.3223659103798013
 30
0.0
  0
VERTEX
  5
328E
  8
0
 10
229.4432818751257059
 20
117.2897675126936008
 30
0.0
  0
VERTEX
  5
328F
  8
0
 10
229.4614471108947953
 20
117.2572057488829955
 30
0.0
  0
VERTEX
  5
3290
  8
0
 10
229.4801314069869989
 20
117.2246840363102933
 30
0.0
  0
VERTEX
  5
3291
  8
0
 10
229.4993601764718107
 20
117.192205792337802
 30
0.0
  0
VERTEX
  5
3292
  8
0
 10
229.5191588324194072
 20
117.1597744343277014
 30
0.0
  0
VERTEX
  5
3293
  8
0
 10
229.539552787899396
 20
117.1273933796423989
 30
0.0
  0
VERTEX
  5
3294
  8
0
 10
229.5605674559816975
 20
117.0950660456440033
 30
0.0
  0
VERTEX
  5
3295
  8
0
 10
229.5822282497362892
 20
117.062795849694794
 30
0.0
  0
VERTEX
  5
3296
  8
0
 10
229.6045605822328071
 20
117.030586209157093
 30
0.0
  0
VERTEX
  5
3297
  8
0
 10
229.6275898665410864
 20
116.9984405413932933
 30
0.0
  0
VERTEX
  5
3298
  8
0
 10
229.6513415157311044
 20
116.9663622637654044
 30
0.0
  0
VERTEX
  5
3299
  8
0
 10
229.6758409428726111
 20
116.934354793635805
 30
0.0
  0
VERTEX
  5
329A
  8
0
 10
229.7011135610354984
 20
116.9024215483669025
 30
0.0
  0
VERTEX
  5
329B
  8
0
 10
229.7271847832894878
 20
116.8705659453208057
 30
0.0
  0
VERTEX
  5
329C
  8
0
 10
229.7540800227046134
 20
116.838791401859794
 30
0.0
  0
VERTEX
  5
329D
  8
0
 10
229.7818246923505114
 20
116.8071013353462035
 30
0.0
  0
VERTEX
  5
329E
  8
0
 10
229.8104442052969887
 20
116.7754991631422001
 30
0.0
  0
VERTEX
  5
329F
  8
0
 10
229.8399639746141077
 20
116.7439883026101057
 30
0.0
  0
VERTEX
  5
32A0
  8
0
 10
229.8704094133715898
 20
116.7125721711122992
 30
0.0
  0
VERTEX
  5
32A1
  8
0
 10
229.901803887764089
 20
116.6812539686028032
 30
0.0
  0
VERTEX
  5
32A2
  8
0
 10
229.9340528037012064
 20
116.6500243659266971
 30
0.0
  0
VERTEX
  5
32A3
  8
0
 10
229.9668814654081928
 20
116.618854904493702
 30
0.0
  0
VERTEX
  5
32A4
  8
0
 10
230.0000000000003126
 20
116.5877155136822978
 30
0.0
  0
SEQEND
  5
32A5
  8
0
  0
POLYLINE
  5
3049
  8
0
 66
     1
 10
0.0
 20
0.0
 30
0.0
  0
VERTEX
  5
32A6
  8
0
 10
270.0000000000001137
 20
116.5767842537038064
 30
0.0
  0
VERTEX
  5
32A7
  8
0
 10
270.0337244877209741
 20
116.6078887107329933
 30
0.0
  0
VERTEX
  5
32A8
  8
0
 10
270.0503630157606949
 20
116.6234649182314058
 30
0.0
  0
VERTEX
  5
32A9
  8
0
 10
270.0667538864217931
 20
116.6390676490320004
 30
0.0
  0
VERTEX
  5
32AA
  8
0
 10
270.0828894611254896
 20
116.6546976358729069
 30
0.0
  0
VERTEX
  5
32AB
  8
0
 10
270.0987732514308277
 20
116.6703544046481937
 30
0.0
  0
VERTEX
  5
32AC
  8
0
 10
270.1297995250807276
 20
116.7017463915781974
 30
0.0
  0
VERTEX
  5
32AD
  8
0
 10
270.1598607998420221
 20
116.7332398169748018
 30
0.0
  0
VERTEX
  5
32AE
  8
0
 10
270.1889851681847858
 20
116.7648308879906978
 30
0.0
  0
VERTEX
  5
32AF
  8
0
 10
270.2172007225790935
 20
116.7965158117786046
 30
0.0
  0
VERTEX
  5
32B0
  8
0
 10
270.2445355554951902
 20
116.8282907954912986
 30
0.0
  0
VERTEX
  5
32B1
  8
0
 10
270.2710177594033212
 20
116.8601520462816978
 30
0.0
  0
VERTEX
  5
32B2
  8
0
 10
270.2966754267735041
 20
116.8920957713022943
 30
0.0
  0
VERTEX
  5
32B3
  8
0
 10
270.3215366500759842
 20
116.9241181777061058
 30
0.0
  0
VERTEX
  5
32B4
  8
0
 10
270.3456295217810066
 20
116.9562154726456953
 30
0.0
  0
VERTEX
  5
32B5
  8
0
 10
270.3689821343585891
 20
116.9883838632738957
 30
0.0
  0
VERTEX
  5
32B6
  8
0
 10
270.3916225802790905
 20
117.020619556743398
 30
0.0
  0
VERTEX
  5
32B7
  8
0
 10
270.4135789520124717
 20
117.0529187602070067
 30
0.0
  0
VERTEX
  5
32B8
  8
0
 10
270.4348793420289212
 20
117.085277680817498
 30
0.0
  0
VERTEX
  5
32B9
  8
0
 10
270.4555518427989114
 20
117.1176925257276054
 30
0.0
  0
VERTEX
  5
32BA
  8
0
 10
270.475624546792119
 20
117.150159502090105
 30
0.0
  0
VERTEX
  5
32BB
  8
0
 10
270.4951255464790734
 20
117.1826748170577019
 30
0.0
  0
VERTEX
  5
32BC
  8
0
 10
270.514082934329906
 20
117.2152346777831013
 30
0.0
  0
VERTEX
  5
32BD
  8
0
 10
270.5325248028148053
 20
117.247835291419193
 30
0.0
  0
VERTEX
  5
32BE
  8
0
 10
270.5504792444037889
 20
117.2804728651186963
 30
0.0
  0
VERTEX
  5
32BF
  8
0
 10
270.5679743515672158
 20
117.313143606034302
 30
0.0
  0
VERTEX
  5
32C0
  8
0
 10
270.5850382167748762
 20
117.3458437213188006
 30
0.0
  0
VERTEX
  5
32C1
  8
0
 10
270.601698932497527
 20
117.3785694181249966
 30
0.0
  0
VERTEX
  5
32C2
  8
0
 10
270.6179845912047881
 20
117.4113169036054956
 30
0.0
  0
VERTEX
  5
32C3
  8
0
 10
270.6339232853673025
 20
117.4440823849132016
 30
0.0
  0
VERTEX
  5
32C4
  8
0
 10
270.6495431074549174
 20
117.4768620692008056
 30
0.0
  0
VERTEX
  5
32C5
  8
0
 10
270.6648721499377075
 20
117.509652163621098
 30
0.0
  0
VERTEX
  5
32C6
  8
0
 10
270.6799383523484721
 20
117.542448892674102
 30
0.0
  0
VERTEX
  5
32C7
  8
0
 10
270.6947573142736019
 20
117.5752498805403974
 30
0.0
  0
VERTEX
  5
32C8
  8
0
 10
270.7093234260556756
 20
117.6080551570977946
 30
0.0
  0
VERTEX
  5
32C9
  8
0
 10
270.7236289864458172
 20
117.6408649894662943
 30
0.0
  0
VERTEX
  5
32CA
  8
0
 10
270.7376662941954919
 20
117.6736796447662954
 30
0.0
  0
VERTEX
  5
32CB
  8
0
 10
270.7514276480562785
 20
117.706499390117898
 30
0.0
  0
VERTEX
  5
32CC
  8
0
 10
270.7649053467791873
 20
117.7393244926412024
 30
0.0
  0
VERTEX
  5
32CD
  8
0
 10
270.7780916891159109
 20
117.7721552194564936
 30
0.0
  0
VERTEX
  5
32CE
  8
0
 10
270.7909789738176869
 20
117.8049918376839003
 30
0.0
  0
VERTEX
  5
32CF
  8
0
 10
270.8035594996359237
 20
117.8378346144435938
 30
0.0
  0
VERTEX
  5
32D0
  8
0
 10
270.8158255653219157
 20
117.8706838168557027
 30
0.0
  0
VERTEX
  5
32D1
  8
0
 10
270.8277694696271283
 20
117.903539712040498
 30
0.0
  0
VERTEX
  5
32D2
  8
0
 10
270.839383511302799
 20
117.9364025671181935
 30
0.0
  0
VERTEX
  5
32D3
  8
0
 10
270.8506599891005067
 20
117.9692726492089037
 30
0.0
  0
VERTEX
  5
32D4
  8
0
 10
270.8615912017714891
 20
118.0021502254327004
 30
0.0
  0
VERTEX
  5
32D5
  8
0
 10
270.8721694480672113
 20
118.0350355629098971
 30
0.0
  0
VERTEX
  5
32D6
  8
0
 10
270.8823870267389111
 20
118.0679289287606935
 30
0.0
  0
VERTEX
  5
32D7
  8
0
 10
270.8922362365379968
 20
118.100830590105204
 30
0.0
  0
VERTEX
  5
32D8
  8
0
 10
270.9017093762159902
 20
118.1337408140636001
 30
0.0
  0
VERTEX
  5
32D9
  8
0
 10
270.9107987445241861
 20
118.1666598677559961
 30
0.0
  0
VERTEX
  5
32DA
  8
0
 10
270.9194966402138789
 20
118.1995880183028049
 30
0.0
  0
VERTEX
  5
32DB
  8
0
 10
270.9277953620364769
 20
118.232525532823999
 30
0.0
  0
VERTEX
  5
32DC
  8
0
 10
270.9356872087433885
 20
118.265472678439707
 30
0.0
  0
VERTEX
  5
32DD
  8
0
 10
270.9431644790859082
 20
118.2984297222702992
 30
0.0
  0
VERTEX
  5
32DE
  8
0
 10
270.950219471815501
 20
118.3313969314359042
 30
0.0
  0
VERTEX
  5
32DF
  8
0
 10
270.9568444856835754
 20
118.3643745730565939
 30
0.0
  0
VERTEX
  5
32E0
  8
0
 10
270.9630318194414826
 20
118.397362914252696
 30
0.0
  0
VERTEX
  5
32E1
  8
0
 10
270.9687737718406879
 20
118.4303622221441969
 30
0.0
  0
VERTEX
  5
32E2
  8
0
 10
270.9740626416323153
 20
118.4633727638514955
 30
0.0
  0
VERTEX
  5
32E3
  8
0
 10
270.9788915408053072
 20
118.4963947168242981
 30
0.0
  0
VERTEX
  5
32E4
  8
0
 10
270.9832597247124113
 20
118.529427581124807
 30
0.0
  0
VERTEX
  5
32E5
  8
0
 10
270.9871692551084834
 20
118.5624705473719018
 30
0.0
  0
VERTEX
  5
32E6
  8
0
 10
270.9906222081618239
 20
118.595522804595106
 30
0.0
  0
VERTEX
  5
32E7
  8
0
 10
270.9936206600401079
 20
118.6285835418239998
 30
0.0
  0
VERTEX
  5
32E8
  8
0
 10
270.9961666869112946
 20
118.6616519480883056
 30
0.0
  0
VERTEX
  5
32E9
  8
0
 10
270.998262364943173
 20
118.6947272124176038
 30
0.0
  0
VERTEX
  5
32EA
  8
0
 10
270.999909770303816
 20
118.7278085238415031
 30
0.0
  0
VERTEX
  5
32EB
  8
0
 10
271.0011109791608988
 20
118.7608950713895979
 30
0.0
  0
VERTEX
  5
32EC
  8
0
 10
271.0018680676824943
 20
118.7939860440915965
 30
0.0
  0
VERTEX
  5
32ED
  8
0
 10
271.0021831120362776
 20
118.8270806309769938
 30
0.0
  0
VERTEX
  5
32EE
  8
0
 10
271.0020581883902082
 20
118.8601780210754981
 30
0.0
  0
VERTEX
  5
32EF
  8
0
 10
271.0014953729124159
 20
118.8932774034166044
 30
0.0
  0
VERTEX
  5
32F0
  8
0
 10
271.0004967417705188
 20
118.9263779670301062
 30
0.0
  0
VERTEX
  5
32F1
  8
0
 10
270.9990643711324196
 20
118.9594789009454985
 30
0.0
  0
VERTEX
  5
32F2
  8
0
 10
270.9972003371660207
 20
118.9925793941924042
 30
0.0
  0
VERTEX
  5
32F3
  8
0
 10
270.9949067160392815
 20
119.0256786358004035
 30
0.0
  0
VERTEX
  5
32F4
  8
0
 10
270.9921855839199907
 20
119.0587758147993043
 30
0.0
  0
VERTEX
  5
32F5
  8
0
 10
270.9890390169762213
 20
119.0918701202185019
 30
0.0
  0
VERTEX
  5
32F6
  8
0
 10
270.9854690913755917
 20
119.1249607410877047
 30
0.0
  0
VERTEX
  5
32F7
  8
0
 10
270.9814778832862885
 20
119.1580468664366066
 30
0.0
  0
VERTEX
  5
32F8
  8
0
 10
270.9770674688758731
 20
119.1911276852947026
 30
0.0
  0
VERTEX
  5
32F9
  8
0
 10
270.9722399243124187
 20
119.2242023866916014
 30
0.0
  0
VERTEX
  5
32FA
  8
0
 10
270.9669973257638276
 20
119.2572701596569971
 30
0.0
  0
VERTEX
  5
32FB
  8
0
 10
270.9613417493978886
 20
119.2903301932204982
 30
0.0
  0
VERTEX
  5
32FC
  8
0
 10
270.9552752713826749
 20
119.3233816764116995
 30
0.0
  0
VERTEX
  5
32FD
  8
0
 10
270.9487999678859182
 20
119.3564237982602947
 30
0.0
  0
VERTEX
  5
32FE
  8
0
 10
270.9419179150755213
 20
119.3894557477956937
 30
0.0
  0
VERTEX
  5
32FF
  8
0
 10
270.9346311631505273
 20
119.4224767169821035
 30
0.0
  0
VERTEX
  5
3300
  8
0
 10
270.926940733977915
 20
119.4554860139770938
 30
0.0
  0
VERTEX
  5
3301
  8
0
 10
270.9188463026137015
 20
119.4884830991186959
 30
0.0
  0
VERTEX
  5
3302
  8
0
 10
270.9103474529920277
 20
119.5214674430406063
 30
0.0
  0
VERTEX
  5
3303
  8
0
 10
270.9014437690469208
 20
119.5544385163765071
 30
0.0
  0
VERTEX
  5
3304
  8
0
 10
270.8921348347125218
 20
119.5873957897605067
 30
0.0
  0
VERTEX
  5
3305
  8
0
 10
270.8824202339226872
 20
119.6203387338262019
 30
0.0
  0
VERTEX
  5
3306
  8
0
 10
270.8722995506117854
 20
119.6532668192075022
 30
0.0
  0
VERTEX
  5
3307
  8
0
 10
270.8617723687139005
 20
119.6861795165382034
 30
0.0
  0
VERTEX
  5
3308
  8
0
 10
270.8508382721627754
 20
119.7190762964521014
 30
0.0
  0
VERTEX
  5
3309
  8
0
 10
270.8394968448930058
 20
119.751956629583205
 30
0.0
  0
VERTEX
  5
330A
  8
0
 10
270.827747670838221
 20
119.7848199865651964
 30
0.0
  0
VERTEX
  5
330B
  8
0
 10
270.8155903339326755
 20
119.8176658380318003
 30
0.0
  0
VERTEX
  5
330C
  8
0
 10
270.8030244181105104
 20
119.8504936546170967
 30
0.0
  0
VERTEX
  5
330D
  8
0
 10
270.7900495073055822
 20
119.8833029069546967
 30
0.0
  0
VERTEX
  5
330E
  8
0
 10
270.7766651854523161
 20
119.9160930656784956
 30
0.0
  0
VERTEX
  5
330F
  8
0
 10
270.7628710364843982
 20
119.9488636014223033
 30
0.0
  0
VERTEX
  5
3310
  8
0
 10
270.7486666443361969
 20
119.981613984820001
 30
0.0
  0
VERTEX
  5
3311
  8
0
 10
270.7340515929416824
 20
120.0143436865053985
 30
0.0
  0
VERTEX
  5
3312
  8
0
 10
270.7190254662348252
 20
120.047052177112306
 30
0.0
  0
VERTEX
  5
3313
  8
0
 10
270.7035878481498798
 20
120.079738927274505
 30
0.0
  0
VERTEX
  5
3314
  8
0
 10
270.6877383226209872
 20
120.1124034076259051
 30
0.0
  0
VERTEX
  5
3315
  8
0
 10
270.6714764735821177
 20
120.1450450888002024
 30
0.0
  0
VERTEX
  5
3316
  8
0
 10
270.654801884967128
 20
120.177663441431406
 30
0.0
  0
VERTEX
  5
3317
  8
0
 10
270.6377141407105
 20
120.210257936153198
 30
0.0
  0
VERTEX
  5
3318
  8
0
 10
270.6202128247459768
 20
120.2428280435995021
 30
0.0
  0
VERTEX
  5
3319
  8
0
 10
270.6022975210079267
 20
120.2753732344040003
 30
0.0
  0
VERTEX
  5
331A
  8
0
 10
270.5839678134302062
 20
120.3078929792007017
 30
0.0
  0
VERTEX
  5
331B
  8
0
 10
270.5652232859843025
 20
120.3403867486211993
 30
0.0
  0
VERTEX
  5
331C
  8
0
 10
270.5460637071665246
 20
120.3728540029088947
 30
0.0
  0
VERTEX
  5
331D
  8
0
 10
270.5264894578768917
 20
120.4052941678305046
 30
0.0
  0
VERTEX
  5
331E
  8
0
 10
270.5065010458973802
 20
120.4377066620094041
 30
0.0
  0
VERTEX
  5
331F
  8
0
 10
270.4860989790096255
 20
120.4700909040689965
 30
0.0
  0
VERTEX
  5
3320
  8
0
 10
270.4652837649950925
 20
120.5024463126327987
 30
0.0
  0
VERTEX
  5
3321
  8
0
 10
270.4440559116354166
 20
120.5347723063242995
 30
0.0
  0
VERTEX
  5
3322
  8
0
 10
270.42241592671229
 20
120.5670683037668027
 30
0.0
  0
VERTEX
  5
3323
  8
0
 10
270.4003643180071776
 20
120.5993337235839959
 30
0.0
  0
VERTEX
  5
3324
  8
0
 10
270.3779015933018854
 20
120.6315679843990978
 30
0.0
  0
VERTEX
  5
3325
  8
0
 10
270.3550282603778214
 20
120.6637705048357958
 30
0.0
  0
VERTEX
  5
3326
  8
0
 10
270.3317448270167915
 20
120.6959407035172944
 30
0.0
  0
VERTEX
  5
3327
  8
0
 10
270.3080518010003175
 20
120.7280779990672954
 30
0.0
  0
VERTEX
  5
3328
  8
0
 10
270.2839496901099778
 20
120.7601818101091027
 30
0.0
  0
VERTEX
  5
3329
  8
0
 10
270.2594390021272943
 20
120.7922515552663043
 30
0.0
  0
VERTEX
  5
332A
  8
0
 10
270.2345202448341865
 20
120.8242866531622042
 30
0.0
  0
VERTEX
  5
332B
  8
0
 10
270.2091939260120057
 20
120.8562865224203051
 30
0.0
  0
VERTEX
  5
332C
  8
0
 10
270.1834605534423872
 20
120.8882505816640958
 30
0.0
  0
VERTEX
  5
332D
  8
0
 10
270.1573206349070233
 20
120.9201782495170931
 30
0.0
  0
VERTEX
  5
332E
  8
0
 10
270.1307746781874926
 20
120.9520689446026012
 30
0.0
  0
VERTEX
  5
332F
  8
0
 10
270.1038231910653735
 20
120.9839220855441937
 30
0.0
  0
VERTEX
  5
3330
  8
0
 10
270.0764666813224721
 20
121.015737090965402
 30
0.0
  0
VERTEX
  5
3331
  8
0
 10
270.0487056567400828
 20
121.047513379489402
 30
0.0
  0
VERTEX
  5
3332
  8
0
 10
270.020540625100125
 20
121.0792503697399951
 30
0.0
  0
VERTEX
  5
3333
  8
0
 10
269.9919720941838932
 20
121.1109474803403998
 30
0.0
  0
VERTEX
  5
3334
  8
0
 10
269.9630005717731933
 20
121.1426041299141048
 30
0.0
  0
VERTEX
  5
3335
  8
0
 10
269.9336265656496039
 20
121.1742197370845986
 30
0.0
  0
VERTEX
  5
3336
  8
0
 10
269.903850583594874
 20
121.2057937204753983
 30
0.0
  0
VERTEX
  5
3337
  8
0
 10
269.8736731333904117
 20
121.2373254987100069
 30
0.0
  0
VERTEX
  5
3338
  8
0
 10
269.8430946995267163
 20
121.2688144834935002
 30
0.0
  0
VERTEX
  5
3339
  8
0
 10
269.8121155500508053
 20
121.3002600222417016
 30
0.0
  0
VERTEX
  5
333A
  8
0
 10
269.7807358354658049
 20
121.3316614274562966
 30
0.0
  0
VERTEX
  5
333B
  8
0
 10
269.7489557051063116
 20
121.3630180112920982
 30
0.0
  0
VERTEX
  5
333C
  8
0
 10
269.7167753083064099
 20
121.3943290859034931
 30
0.0
  0
VERTEX
  5
333D
  8
0
 10
269.6841947944005824
 20
121.4255939634452943
 30
0.0
  0
VERTEX
  5
333E
  8
0
 10
269.651214312723198
 20
121.4568119560721016
 30
0.0
  0
VERTEX
  5
333F
  8
0
 10
269.6178340126086823
 20
121.4879823759385005
 30
0.0
  0
VERTEX
  5
3340
  8
0
 10
269.5840540433914043
 20
121.5191045351992045
 30
0.0
  0
VERTEX
  5
3341
  8
0
 10
269.5498745544053918
 20
121.5501777460087993
 30
0.0
  0
VERTEX
  5
3342
  8
0
 10
269.5152956949854115
 20
121.5812013205218989
 30
0.0
  0
VERTEX
  5
3343
  8
0
 10
269.4803176144656049
 20
121.612174570893103
 30
0.0
  0
VERTEX
  5
3344
  8
0
 10
269.4449404621803978
 20
121.6430968092770968
 30
0.0
  0
VERTEX
  5
3345
  8
0
 10
269.4091643874641022
 20
121.6739673478285937
 30
0.0
  0
VERTEX
  5
3346
  8
0
 10
269.3729895396509733
 20
121.7047854987019946
 30
0.0
  0
VERTEX
  5
3347
  8
0
 10
269.3364160680757777
 20
121.7355505740521977
 30
0.0
  0
VERTEX
  5
3348
  8
0
 10
269.2994441220723729
 20
121.7662618860337034
 30
0.0
  0
VERTEX
  5
3349
  8
0
 10
269.2620738509755256
 20
121.7969187468011967
 30
0.0
  0
VERTEX
  5
334A
  8
0
 10
269.2243054041193204
 20
121.8275204685092064
 30
0.0
  0
VERTEX
  5
334B
  8
0
 10
269.1861389308381263
 20
121.8580663633124033
 30
0.0
  0
VERTEX
  5
334C
  8
0
 10
269.147574580466312
 20
121.8885557433655009
 30
0.0
  0
VERTEX
  5
334D
  8
0
 10
269.1086125023383033
 20
121.9189879208230991
 30
0.0
  0
VERTEX
  5
334E
  8
0
 10
269.0692528457885828
 20
121.9493622078396982
 30
0.0
  0
VERTEX
  5
334F
  8
0
 10
269.029495760151292
 20
121.9796779165701963
 30
0.0
  0
VERTEX
  5
3350
  8
0
 10
268.9893413947609133
 20
122.0099343591689944
 30
0.0
  0
VERTEX
  5
3351
  8
0
 10
268.9487898989515884
 20
122.040130847790806
 30
0.0
  0
VERTEX
  5
3352
  8
0
 10
268.9078414220580271
 20
122.0702666945902024
 30
0.0
  0
VERTEX
  5
3353
  8
0
 10
268.8664961134143141
 20
122.1003412117219966
 30
0.0
  0
VERTEX
  5
3354
  8
0
 10
268.8247541341954729
 20
122.1303537147767031
 30
0.0
  0
VERTEX
  5
3355
  8
0
 10
268.7826162327002066
 20
122.1603036897289059
 30
0.0
  0
VERTEX
  5
3356
  8
0
 10
268.7400840026701871
 20
122.190190867900796
 30
0.0
  0
VERTEX
  5
3357
  8
0
 10
268.6971591035140818
 20
122.2200149996713066
 30
0.0
  0
VERTEX
  5
3358
  8
0
 10
268.6538431946410128
 20
122.2497758354193991
 30
0.0
  0
VERTEX
  5
3359
  8
0
 10
268.6101379354594201
 20
122.2794731255238929
 30
0.0
  0
VERTEX
  5
335A
  8
0
 10
268.5660449853784826
 20
122.3091066203640054
 30
0.0
  0
VERTEX
  5
335B
  8
0
 10
268.5215660038069245
 20
122.3386760703183995
 30
0.0
  0
VERTEX
  5
335C
  8
0
 10
268.4767026501535838
 20
122.3681812257661932
 30
0.0
  0
VERTEX
  5
335D
  8
0
 10
268.4314565838272983
 20
122.3976218370862057
 30
0.0
  0
VERTEX
  5
335E
  8
0
 10
268.385829464236906
 20
122.4269976546573986
 30
0.0
  0
VERTEX
  5
335F
  8
0
 10
268.3398229507910742
 20
122.4563084288588044
 30
0.0
  0
VERTEX
  5
3360
  8
0
 10
268.2934387028990955
 20
122.4855539100692994
 30
0.0
  0
VERTEX
  5
3361
  8
0
 10
268.2466783799692962
 20
122.5147338486678024
 30
0.0
  0
VERTEX
  5
3362
  8
0
 10
268.1995436414107985
 20
122.5438479950333033
 30
0.0
  0
VERTEX
  5
3363
  8
0
 10
268.1520361466323266
 20
122.5728960995447068
 30
0.0
  0
VERTEX
  5
3364
  8
0
 10
268.1041575550427751
 20
122.6018779125809033
 30
0.0
  0
VERTEX
  5
3365
  8
0
 10
268.0559095260509821
 20
122.6307931845209964
 30
0.0
  0
VERTEX
  5
3366
  8
0
 10
268.0072937190656717
 20
122.6596416657437061
 30
0.0
  0
VERTEX
  5
3367
  8
0
 10
267.9583117934959091
 20
122.6884231066280933
 30
0.0
  0
VERTEX
  5
3368
  8
0
 10
267.9089654087504186
 20
122.7171372575531052
 30
0.0
  0
VERTEX
  5
3369
  8
0
 10
267.8592562242379813
 20
122.7457838688977034
 30
0.0
  0
VERTEX
  5
336A
  8
0
 10
267.8091858993674919
 20
122.7743626910408068
 30
0.0
  0
VERTEX
  5
336B
  8
0
 10
267.7587560935477882
 20
122.8028734743612063
 30
0.0
  0
VERTEX
  5
336C
  8
0
 10
267.7079684661874808
 20
122.8313159692381049
 30
0.0
  0
VERTEX
  5
336D
  8
0
 10
267.6568246766956918
 20
122.8596899260501942
 30
0.0
  0
VERTEX
  5
336E
  8
0
 10
267.6053263844810886
 20
122.8879950951766062
 30
0.0
  0
VERTEX
  5
336F
  8
0
 10
267.5534752489526795
 20
122.916231226996203
 30
0.0
  0
VERTEX
  5
3370
  8
0
 10
267.5012729270908949
 20
122.9443980709953053
 30
0.0
  0
VERTEX
  5
3371
  8
0
 10
267.4487199240052178
 20
122.9724949532395044
 30
0.0
  0
VERTEX
  5
3372
  8
0
 10
267.3958137546796934
 20
123.0005201006432003
 30
0.0
  0
VERTEX
  5
3373
  8
0
 10
267.3425514551979063
 20
123.0284715640797941
 30
0.0
  0
VERTEX
  5
3374
  8
0
 10
267.2889300616436117
 20
123.0563473944228008
 30
0.0
  0
VERTEX
  5
3375
  8
0
 10
267.2349466101002804
 20
123.0841456425457068
 30
0.0
  0
VERTEX
  5
3376
  8
0
 10
267.1805981366517244
 20
123.1118643593217996
 30
0.0
  0
VERTEX
  5
3377
  8
0
 10
267.1258816773815283
 20
123.1395015956246937
 30
0.0
  0
VERTEX
  5
3378
  8
0
 10
267.0707942683732199
 20
123.1670554023279038
 30
0.0
  0
VERTEX
  5
3379
  8
0
 10
267.0153329457104974
 20
123.1945238303047034
 30
0.0
  0
VERTEX
  5
337A
  8
0
 10
266.9594947454771159
 20
123.2219049304285932
 30
0.0
  0
VERTEX
  5
337B
  8
0
 10
266.903276703756319
 20
123.2491967535732016
 30
0.0
  0
VERTEX
  5
337C
  8
0
 10
266.8466758566320891
 20
123.276397350611802
 30
0.0
  0
VERTEX
  5
337D
  8
0
 10
266.7896892401881814
 20
123.3035047724179947
 30
0.0
  0
VERTEX
  5
337E
  8
0
 10
266.7323138905078963
 20
123.3305170698650954
 30
0.0
  0
VERTEX
  5
337F
  8
0
 10
266.6745468436748183
 20
123.3574322938267045
 30
0.0
  0
VERTEX
  5
3380
  8
0
 10
266.6163851357728163
 20
123.3842484951761946
 30
0.0
  0
VERTEX
  5
3381
  8
0
 10
266.5578258028854179
 20
123.4109637247869955
 30
0.0
  0
VERTEX
  5
3382
  8
0
 10
266.4988658810963216
 20
123.437576033532693
 30
0.0
  0
VERTEX
  5
3383
  8
0
 10
266.4395024064892255
 20
123.4640834722866032
 30
0.0
  0
VERTEX
  5
3384
  8
0
 10
266.3797324151473731
 20
123.4904840919222977
 30
0.0
  0
VERTEX
  5
3385
  8
0
 10
266.3195529431548039
 20
123.5167759433131067
 30
0.0
  0
VERTEX
  5
3386
  8
0
 10
266.2589610265949887
 20
123.5429570773327015
 30
0.0
  0
VERTEX
  5
3387
  8
0
 10
266.1979537015516257
 20
123.5690255448542985
 30
0.0
  0
VERTEX
  5
3388
  8
0
 10
266.136528004108186
 20
123.5949793967514978
 30
0.0
  0
VERTEX
  5
3389
  8
0
 10
266.0746809703484814
 20
123.6208166838978002
 30
0.0
  0
VERTEX
  5
338A
  8
0
 10
266.0124096363560966
 20
123.6465354571666069
 30
0.0
  0
VERTEX
  5
338B
  8
0
 10
265.9497110382146161
 20
123.6721337674313048
 30
0.0
  0
VERTEX
  5
338C
  8
0
 10
265.8865822126289231
 20
123.6976096657808029
 30
0.0
  0
VERTEX
  5
338D
  8
0
 10
265.8230238325515984
 20
123.7229624638263061
 30
0.0
  0
VERTEX
  5
338E
  8
0
 10
265.7590487736362093
 20
123.7481957033028976
 30
0.0
  0
VERTEX
  5
338F
  8
0
 10
265.6946724684324863
 20
123.7733138123059007
 30
0.0
  0
VERTEX
  5
3390
  8
0
 10
265.6299103494898191
 20
123.798321218930198
 30
0.0
  0
VERTEX
  5
3391
  8
0
 10
265.5647778493578244
 20
123.8232223512710988
 30
0.0
  0
VERTEX
  5
3392
  8
0
 10
265.4992904005861192
 20
123.8480216374235994
 30
0.0
  0
VERTEX
  5
3393
  8
0
 10
265.4334634357242066
 20
123.8727235054829947
 30
0.0
  0
VERTEX
  5
3394
  8
0
 10
265.36731238732159
 20
123.8973323835443949
 30
0.0
  0
VERTEX
  5
3395
  8
0
 10
265.3008526879278861
 20
123.9218526997029954
 30
0.0
  0
VERTEX
  5
3396
  8
0
 10
265.2340997700927119
 20
123.9462888820538069
 30
0.0
  0
VERTEX
  5
3397
  8
0
 10
265.1670690663654
 20
123.9706453586919963
 30
0.0
  0
VERTEX
  5
3398
  8
0
 10
265.0997760092959084
 20
123.9949265577128017
 30
0.0
  0
VERTEX
  5
3399
  8
0
 10
264.9644645653274893
 20
124.0432808352826015
 30
0.0
  0
VERTEX
  5
339A
  8
0
 10
264.8282888985841055
 20
124.0913871395244001
 30
0.0
  0
VERTEX
  5
339B
  8
0
 10
264.6913724694621237
 20
124.1392808951993061
 30
0.0
  0
VERTEX
  5
339C
  8
0
 10
264.5538387383576833
 20
124.1869975270684989
 30
0.0
  0
VERTEX
  5
339D
  8
0
 10
264.4158111656677193
 20
124.2345724598931014
 30
0.0
  0
VERTEX
  5
339E
  8
0
 10
264.2774132117884847
 20
124.2820411184341935
 30
0.0
  0
VERTEX
  5
339F
  8
0
 10
264.0000000020476136
 20
124.3768013117108069
 30
0.0
  0
SEQEND
  5
33A0
  8
0
  0
POLYLINE
  5
304A
  8
0
 66
     1
 10
0.0
 20
0.0
 30
0.0
  0
VERTEX
  5
33A1
  8
0
 10
170.000000000000199
 20
57.9999999999986287
 30
0.0
  0
VERTEX
  5
33A2
  8
0
 10
170.0000000000001137
 20
57.9395920278982075
 30
0.0
  0
VERTEX
  5
33A3
  8
0
 10
170.0000000000001137
 20
57.8792544333888301
 30
0.0
  0
VERTEX
  5
33A4
  8
0
 10
170.0000000000001137
 20
57.8190079459776314
 30
0.0
  0
VERTEX
  5
33A5
  8
0
 10
170.000000000000199
 20
57.758873130956303
 30
0.0
  0
VERTEX
  5
33A6
  8
0
 10
170.000000000000199
 20
57.6988705536164801
 30
0.0
  0
VERTEX
  5
33A7
  8
0
 10
170.000000000000199
 20
57.6390207792498472
 30
0.0
  0
VERTEX
  5
33A8
  8
0
 10
170.000000000000199
 20
57.5793443732375465
 30
0.0
  0
VERTEX
  5
33A9
  8
0
 10
170.000000000000199
 20
57.5198676426159778
 30
0.0
  0
VERTEX
  5
33AA
  8
0
 10
170.000000000000199
 20
57.4606381632910796
 30
0.0
  0
VERTEX
  5
33AB
  8
0
 10
170.000000000000199
 20
57.401708434894239
 30
0.0
  0
VERTEX
  5
33AC
  8
0
 10
170.000000000000199
 20
57.3431309570568501
 30
0.0
  0
VERTEX
  5
33AD
  8
0
 10
170.000000000000199
 20
57.2849582294102717
 30
0.0
  0
VERTEX
  5
33AE
  8
0
 10
170.000000000000199
 20
57.2272427515859334
 30
0.0
  0
VERTEX
  5
33AF
  8
0
 10
170.000000000000199
 20
57.1700370232151585
 30
0.0
  0
VERTEX
  5
33B0
  8
0
 10
170.000000000000199
 20
57.1133935439293694
 30
0.0
  0
VERTEX
  5
33B1
  8
0
 10
170.000000000000199
 20
57.0573648133599534
 30
0.0
  0
VERTEX
  5
33B2
  8
0
 10
170.000000000000199
 20
57.0020039118857085
 30
0.0
  0
VERTEX
  5
33B3
  8
0
 10
170.000000000000199
 20
56.9473741680933472
 30
0.0
  0
VERTEX
  5
33B4
  8
0
 10
170.000000000000199
 20
56.8935476814305972
 30
0.0
  0
VERTEX
  5
33B5
  8
0
 10
170.000000000000199
 20
56.8405968343769175
 30
0.0
  0
VERTEX
  5
33B6
  8
0
 10
170.000000000000199
 20
56.7885940094117814
 30
0.0
  0
VERTEX
  5
33B7
  8
0
 10
170.000000000000199
 20
56.7376115890146409
 30
0.0
  0
VERTEX
  5
33B8
  8
0
 10
170.000000000000199
 20
56.6877219556649692
 30
0.0
  0
VERTEX
  5
33B9
  8
0
 10
170.000000000000199
 20
56.6389974918422467
 30
0.0
  0
VERTEX
  5
33BA
  8
0
 10
170.000000000000199
 20
56.5915105800259468
 30
0.0
  0
VERTEX
  5
33BB
  8
0
 10
170.000000000000199
 20
56.5453336017732084
 30
0.0
  0
VERTEX
  5
33BC
  8
0
 10
170.000000000000199
 20
56.5005358111182616
 30
0.0
  0
VERTEX
  5
33BD
  8
0
 10
170.000000000000199
 20
56.4571763495061276
 30
0.0
  0
VERTEX
  5
33BE
  8
0
 10
170.000000000000199
 20
56.4153123182274072
 30
0.0
  0
VERTEX
  5
33BF
  8
0
 10
170.000000000000199
 20
56.375000818572687
 30
0.0
  0
VERTEX
  5
33C0
  8
0
 10
170.000000000000199
 20
56.3362989518325818
 30
0.0
  0
VERTEX
  5
33C1
  8
0
 10
170.000000000000199
 20
56.2992638192976571
 30
0.0
  0
VERTEX
  5
33C2
  8
0
 10
170.000000000000199
 20
56.2639525222585135
 30
0.0
  0
VERTEX
  5
33C3
  8
0
 10
170.000000000000199
 20
56.2304221620057589
 30
0.0
  0
VERTEX
  5
33C4
  8
0
 10
170.000000000000199
 20
56.1987298398299728
 30
0.0
  0
VERTEX
  5
33C5
  8
0
 10
170.000000000000199
 20
56.1689357540594614
 30
0.0
  0
VERTEX
  5
33C6
  8
0
 10
170.000000000000199
 20
56.1411427250659614
 30
0.0
  0
VERTEX
  5
33C7
  8
0
 10
170.000000000000199
 20
56.1154845800678288
 30
0.0
  0
VERTEX
  5
33C8
  8
0
 10
170.000000000000199
 20
56.0920958463144501
 30
0.0
  0
VERTEX
  5
33C9
  8
0
 10
170.000000000000199
 20
56.0711110510551833
 30
0.0
  0
VERTEX
  5
33CA
  8
0
 10
170.000000000000199
 20
56.0526647215394078
 30
0.0
  0
VERTEX
  5
33CB
  8
0
 10
170.000000000000199
 20
56.0368913850165029
 30
0.0
  0
VERTEX
  5
33CC
  8
0
 10
170.000000000000199
 20
56.0239255687358266
 30
0.0
  0
VERTEX
  5
33CD
  8
0
 10
170.000000000000199
 20
56.0139017999467796
 30
0.0
  0
VERTEX
  5
33CE
  8
0
 10
170.000000000000199
 20
56.0069522384553409
 30
0.0
  0
VERTEX
  5
33CF
  8
0
 10
170.000000000000199
 20
56.0027553416617607
 30
0.0
  0
VERTEX
  5
33D0
  8
0
 10
170.000000000000199
 20
55.9999999999986215
 30
0.0
  0
SEQEND
  5
33D1
  8
0
  0
POLYLINE
  5
304B
  8
0
 66
     1
 10
0.0
 20
0.0
 30
0.0
  0
VERTEX
  5
33D2
  8
0
 10
41.9999995127361672
 20
111.9606422164827961
 30
0.0
  0
VERTEX
  5
33D3
  8
0
 10
41.6373396588762716
 20
112.0191944933175989
 30
0.0
  0
VERTEX
  5
33D4
  8
0
 10
41.4562412909584665
 20
112.0486071917173945
 30
0.0
  0
VERTEX
  5
33D5
  8
0
 10
41.2754207938552327
 20
112.0781837620962023
 30
0.0
  0
VERTEX
  5
33D6
  8
0
 10
41.0949707911714697
 20
112.1079788284469032
 30
0.0
  0
VERTEX
  5
33D7
  8
0
 10
40.914983906512127
 20
112.1380470147625061
 30
0.0
  0
VERTEX
  5
33D8
  8
0
 10
40.7355527634818984
 20
112.1684429450360057
 30
0.0
  0
VERTEX
  5
33D9
  8
0
 10
40.5567699856857118
 20
112.1992212432603964
 30
0.0
  0
VERTEX
  5
33DA
  8
0
 10
40.3787281967285026
 20
112.2304365334287013
 30
0.0
  0
VERTEX
  5
33DB
  8
0
 10
40.2015200202150567
 20
112.2621434395338014
 30
0.0
  0
VERTEX
  5
33DC
  8
0
 10
40.0252380797502312
 20
112.2943965855687054
 30
0.0
  0
VERTEX
  5
33DD
  8
0
 10
39.8499749989390466
 20
112.3272505955263938
 30
0.0
  0
VERTEX
  5
33DE
  8
0
 10
39.7627544757799569
 20
112.3439199944742057
 30
0.0
  0
VERTEX
  5
33DF
  8
0
 10
39.6758234013860829
 20
112.3607600934000033
 30
0.0
  0
VERTEX
  5
33E0
  8
0
 10
39.5891930567197505
 20
112.3777774976771013
 30
0.0
  0
VERTEX
  5
33E1
  8
0
 10
39.5028685872550795
 20
112.394974213447
 30
0.0
  0
VERTEX
  5
33E2
  8
0
 10
39.4168493660400827
 20
112.412347919775101
 30
0.0
  0
VERTEX
  5
33E3
  8
0
 10
39.3311345418321707
 20
112.4298961275950006
 30
0.0
  0
VERTEX
  5
33E4
  8
0
 10
39.2457232633882995
 20
112.4476163478409063
 30
0.0
  0
VERTEX
  5
33E5
  8
0
 10
39.1606146794653114
 20
112.4655060914465992
 30
0.0
  0
VERTEX
  5
33E6
  8
0
 10
39.075807938819942
 20
112.4835628693461018
 30
0.0
  0
VERTEX
  5
33E7
  8
0
 10
38.9913021902095807
 20
112.5017841924731954
 30
0.0
  0
VERTEX
  5
33E8
  8
0
 10
38.907096582391091
 20
112.5201675717618031
 30
0.0
  0
VERTEX
  5
33E9
  8
0
 10
38.8231902641213082
 20
112.5387105181459049
 30
0.0
  0
VERTEX
  5
33EA
  8
0
 10
38.7395823841574227
 20
112.5574105425593956
 30
0.0
  0
VERTEX
  5
33EB
  8
0
 10
38.6562720912561417
 20
112.5762651559361984
 30
0.0
  0
VERTEX
  5
33EC
  8
0
 10
38.5732585341746699
 20
112.5952718692101939
 30
0.0
  0
VERTEX
  5
33ED
  8
0
 10
38.4905408616699631
 20
112.6144281933154048
 30
0.0
  0
VERTEX
  5
33EE
  8
0
 10
38.4081182224989632
 20
112.6337316391855978
 30
0.0
  0
VERTEX
  5
33EF
  8
0
 10
38.3259897654186332
 20
112.6531797177546963
 30
0.0
  0
VERTEX
  5
33F0
  8
0
 10
38.244154639185922
 20
112.6727699399567939
 30
0.0
  0
VERTEX
  5
33F1
  8
0
 10
38.1626119925579133
 20
112.6924998167256007
 30
0.0
  0
VERTEX
  5
33F2
  8
0
 10
38.0813609742914423
 20
112.7123668589951961
 30
0.0
  0
VERTEX
  5
33F3
  8
0
 10
38.0004007331435787
 20
112.7323685776993045
 30
0.0
  0
VERTEX
  5
33F4
  8
0
 10
37.8393491772317176
 20
112.7727660881471934
 30
0.0
  0
VERTEX
  5
33F5
  8
0
 10
37.679450514877999
 20
112.813672435540596
 30
0.0
  0
VERTEX
  5
33F6
  8
0
 10
37.5206979361381627
 20
112.8550677073506989
 30
0.0
  0
VERTEX
  5
33F7
  8
0
 10
37.3630850121387468
 20
112.8969323041201989
 30
0.0
  0
VERTEX
  5
33F8
  8
0
 10
37.2066159490229893
 20
112.9392553636657937
 30
0.0
  0
VERTEX
  5
33F9
  8
0
 10
37.0513067442079773
 20
112.9820357110098996
 30
0.0
  0
VERTEX
  5
33FA
  8
0
 10
36.9740922794482003
 20
113.0035971578296028
 30
0.0
  0
VERTEX
  5
33FB
  8
0
 10
36.8971740082052975
 20
113.0252726748667982
 30
0.0
  0
VERTEX
  5
33FC
  8
0
 10
36.8205540067934933
 20
113.0470621782107941
 30
0.0
  0
VERTEX
  5
33FD
  8
0
 10
36.7442343515265293
 20
113.0689655839507992
 30
0.0
  0
VERTEX
  5
33FE
  8
0
 10
36.6682171187185304
 20
113.0909828081763067
 30
0.0
  0
VERTEX
  5
33FF
  8
0
 10
36.5925043846831386
 20
113.1131137669763973
 30
0.0
  0
VERTEX
  5
3400
  8
0
 10
36.5170982257346921
 20
113.1353583764404931
 30
0.0
  0
VERTEX
  5
3401
  8
0
 10
36.4420007181868186
 20
113.1577165526579023
 30
0.0
  0
VERTEX
  5
3402
  8
0
 10
36.3672139383537569
 20
113.1801882117178053
 30
0.0
  0
VERTEX
  5
3403
  8
0
 10
36.2927399625491489
 20
113.2027732697095956
 30
0.0
  0
VERTEX
  5
3404
  8
0
 10
36.2185808670870983
 20
113.2254716427225958
 30
0.0
  0
VERTEX
  5
3405
  8
0
 10
36.1447387282814816
 20
113.2482832468460003
 30
0.0
  0
VERTEX
  5
3406
  8
0
 10
36.0712156224464024
 20
113.2712079981691033
 30
0.0
  0
VERTEX
  5
3407
  8
0
 10
35.9980136258956307
 20
113.2942458127812984
 30
0.0
  0
VERTEX
  5
3408
  8
0
 10
35.9251348149431422
 20
113.3173966067718936
 30
0.0
  0
VERTEX
  5
3409
  8
0
 10
35.852581265902927
 20
113.340660296230098
 30
0.0
  0
VERTEX
  5
340A
  8
0
 10
35.7803550550889895
 20
113.3640367972452054
 30
0.0
  0
VERTEX
  5
340B
  8
0
 10
35.7084582588150923
 20
113.3875260259064959
 30
0.0
  0
VERTEX
  5
340C
  8
0
 10
35.6368929533953178
 20
113.4111278983034055
 30
0.0
  0
VERTEX
  5
340D
  8
0
 10
35.5656612151435567
 20
113.4348423305251004
 30
0.0
  0
VERTEX
  5
340E
  8
0
 10
35.4947651203738204
 20
113.458669238660903
 30
0.0
  0
VERTEX
  5
340F
  8
0
 10
35.4242067453300322
 20
113.482608538760303
 30
0.0
  0
VERTEX
  5
3410
  8
0
 10
35.3539879231117311
 20
113.5066600085139044
 30
0.0
  0
VERTEX
  5
3411
  8
0
 10
35.2841096992071925
 20
113.5308229774301054
 30
0.0
  0
VERTEX
  5
3412
  8
0
 10
35.2145729599142214
 20
113.5550966844316036
 30
0.0
  0
VERTEX
  5
3413
  8
0
 10
35.1453785915306298
 20
113.5794803684410965
 30
0.0
  0
VERTEX
  5
3414
  8
0
 10
35.0765274803540024
 20
113.6039732683811962
 30
0.0
  0
VERTEX
  5
3415
  8
0
 10
35.0080205126822719
 20
113.6285746231745009
 30
0.0
  0
VERTEX
  5
3416
  8
0
 10
34.9398585748132291
 20
113.6532836717437931
 30
0.0
  0
VERTEX
  5
3417
  8
0
 10
34.8720425530445866
 20
113.6780996530117989
 30
0.0
  0
VERTEX
  5
3418
  8
0
 10
34.8045733336741705
 20
113.703021805901102
 30
0.0
  0
VERTEX
  5
3419
  8
0
 10
34.7374518029997716
 20
113.7280493693343999
 30
0.0
  0
VERTEX
  5
341A
  8
0
 10
34.6706788473192091
 20
113.7531815822343049
 30
0.0
  0
VERTEX
  5
341B
  8
0
 10
34.6042553529301813
 20
113.7784176835235996
 30
0.0
  0
VERTEX
  5
341C
  8
0
 10
34.5381822061305002
 20
113.8037569121248964
 30
0.0
  0
VERTEX
  5
341D
  8
0
 10
34.4724602932179778
 20
113.8291985069609069
 30
0.0
  0
VERTEX
  5
341E
  8
0
 10
34.4070905004903196
 20
113.8547417069543002
 30
0.0
  0
VERTEX
  5
341F
  8
0
 10
34.34207371424543
 20
113.8803857510277027
 30
0.0
  0
VERTEX
  5
3420
  8
0
 10
34.2774108207810286
 20
113.9061298781037976
 30
0.0
  0
VERTEX
  5
3421
  8
0
 10
34.2131027063949205
 20
113.9319733271052968
 30
0.0
  0
VERTEX
  5
3422
  8
0
 10
34.1491502573847967
 20
113.9579153369547981
 30
0.0
  0
VERTEX
  5
3423
  8
0
 10
34.0855543600484907
 20
113.9839551465750986
 30
0.0
  0
VERTEX
  5
3424
  8
0
 10
34.0223159006839069
 20
114.0100919948887963
 30
0.0
  0
VERTEX
  5
3425
  8
0
 10
33.9594357655887507
 20
114.0363251208186028
 30
0.0
  0
VERTEX
  5
3426
  8
0
 10
33.8969148410607204
 20
114.062653763287102
 30
0.0
  0
VERTEX
  5
3427
  8
0
 10
33.8347540133976281
 20
114.0890771612171051
 30
0.0
  0
VERTEX
  5
3428
  8
0
 10
33.7729541688973995
 20
114.1155945535311957
 30
0.0
  0
VERTEX
  5
3429
  8
0
 10
33.7115161938576193
 20
114.1422051791521
 30
0.0
  0
VERTEX
  5
342A
  8
0
 10
33.6504409745763269
 20
114.1689082770026999
 30
0.0
  0
VERTEX
  5
342B
  8
0
 10
33.5897294227929706
 20
114.1957031166733003
 30
0.0
  0
VERTEX
  5
342C
  8
0
 10
33.5293825460039372
 20
114.2225890831815036
 30
0.0
  0
VERTEX
  5
342D
  8
0
 10
33.4694013742300811
 20
114.2495655886965977
 30
0.0
  0
VERTEX
  5
342E
  8
0
 10
33.4097869374928678
 20
114.2766320453876006
 30
0.0
  0
VERTEX
  5
342F
  8
0
 10
33.3505402658130379
 20
114.3037878654240984
 30
0.0
  0
VERTEX
  5
3430
  8
0
 10
33.2916623892123198
 20
114.331032460975095
 30
0.0
  0
VERTEX
  5
3431
  8
0
 10
33.2331543377114329
 20
114.3583652442101055
 30
0.0
  0
VERTEX
  5
3432
  8
0
 10
33.17501714133153
 20
114.3857856272981053
 30
0.0
  0
VERTEX
  5
3433
  8
0
 10
33.1172518300938918
 20
114.4132930224086948
 30
0.0
  0
VERTEX
  5
3434
  8
0
 10
33.0598594340196996
 20
114.4408868417108067
 30
0.0
  0
VERTEX
  5
3435
  8
0
 10
33.0028409831299996
 20
114.4685664973739989
 30
0.0
  0
VERTEX
  5
3436
  8
0
 10
32.9461975074459588
 20
114.496331401567403
 30
0.0
  0
VERTEX
  5
3437
  8
0
 10
32.8899300369888579
 20
114.5241809664601931
 30
0.0
  0
VERTEX
  5
3438
  8
0
 10
32.8340396017796365
 20
114.5521146042218987
 30
0.0
  0
VERTEX
  5
3439
  8
0
 10
32.7785272318394618
 20
114.5801317270214952
 30
0.0
  0
VERTEX
  5
343A
  8
0
 10
32.7233939571896215
 20
114.6082317470284977
 30
0.0
  0
VERTEX
  5
343B
  8
0
 10
32.6686408078512613
 20
114.6364140764119952
 30
0.0
  0
VERTEX
  5
343C
  8
0
 10
32.6142688138453423
 20
114.6646781273414035
 30
0.0
  0
VERTEX
  5
343D
  8
0
 10
32.5602790051931379
 20
114.6930233119858968
 30
0.0
  0
VERTEX
  5
343E
  8
0
 10
32.5066724119159289
 20
114.7214490425147062
 30
0.0
  0
VERTEX
  5
343F
  8
0
 10
32.4534500640345414
 20
114.7499547310972048
 30
0.0
  0
VERTEX
  5
3440
  8
0
 10
32.4006129915703696
 20
114.7785397899025952
 30
0.0
  0
VERTEX
  5
3441
  8
0
 10
32.3481622245444669
 20
114.8072036311001938
 30
0.0
  0
VERTEX
  5
3442
  8
0
 10
32.2960987929781069
 20
114.8359456668592031
 30
0.0
  0
VERTEX
  5
3443
  8
0
 10
32.2444237268922507
 20
114.8647653093489964
 30
0.0
  0
VERTEX
  5
3444
  8
0
 10
32.1931380563081575
 20
114.8936619707387052
 30
0.0
  0
VERTEX
  5
3445
  8
0
 10
32.1422428112468879
 20
114.9226350631977027
 30
0.0
  0
VERTEX
  5
3446
  8
0
 10
32.0917389510148112
 20
114.9516839937196977
 30
0.0
  0
VERTEX
  5
3447
  8
0
 10
32.0416269135641869
 20
114.9808081311416004
 30
0.0
  0
VERTEX
  5
3448
  8
0
 10
31.9919069036731116
 20
115.0100068272348039
 30
0.0
  0
VERTEX
  5
3449
  8
0
 10
31.9425791250299689
 20
115.039279433690794
 30
0.0
  0
VERTEX
  5
344A
  8
0
 10
31.8936437813232487
 20
115.0686253022011982
 30
0.0
  0
VERTEX
  5
344B
  8
0
 10
31.8451010762418107
 20
115.0980437844577011
 30
0.0
  0
VERTEX
  5
344C
  8
0
 10
31.7969512134738999
 20
115.127534232151703
 30
0.0
  0
VERTEX
  5
344D
  8
0
 10
31.7491943967082797
 20
115.1570959969748031
 30
0.0
  0
VERTEX
  5
344E
  8
0
 10
31.7018308296334297
 20
115.1867284306187003
 30
0.0
  0
VERTEX
  5
344F
  8
0
 10
31.6548607159378506
 20
115.2164308847748941
 30
0.0
  0
VERTEX
  5
3450
  8
0
 10
31.6082842593102704
 20
115.2462027111349983
 30
0.0
  0
VERTEX
  5
3451
  8
0
 10
31.5621016634392006
 20
115.2760432613905976
 30
0.0
  0
VERTEX
  5
3452
  8
0
 10
31.5163131320131207
 20
115.3059518872333058
 30
0.0
  0
VERTEX
  5
3453
  8
0
 10
31.4709188687206698
 20
115.3359279403545941
 30
0.0
  0
VERTEX
  5
3454
  8
0
 10
31.4259190772504589
 20
115.3659707724462038
 30
0.0
  0
VERTEX
  5
3455
  8
0
 10
31.3813139612908607
 20
115.3960797351995069
 30
0.0
  0
VERTEX
  5
3456
  8
0
 10
31.3371037245306105
 20
115.4262541803063016
 30
0.0
  0
VERTEX
  5
3457
  8
0
 10
31.2932885706583193
 20
115.4564934594581018
 30
0.0
  0
VERTEX
  5
3458
  8
0
 10
31.249868703362381
 20
115.4867969243465069
 30
0.0
  0
VERTEX
  5
3459
  8
0
 10
31.2068443263314101
 20
115.5171639266630024
 30
0.0
  0
VERTEX
  5
345A
  8
0
 10
31.1642156432541206
 20
115.5475938180992017
 30
0.0
  0
VERTEX
  5
345B
  8
0
 10
31.1219828578188107
 20
115.5780859503467042
 30
0.0
  0
VERTEX
  5
345C
  8
0
 10
31.0801461737143008
 20
115.6086396750971943
 30
0.0
  0
VERTEX
  5
345D
  8
0
 10
31.0387057946289815
 20
115.6392543440421008
 30
0.0
  0
VERTEX
  5
345E
  8
0
 10
30.9976619242514815
 20
115.669929308873094
 30
0.0
  0
VERTEX
  5
345F
  8
0
 10
30.9570147662703903
 20
115.7006639212817021
 30
0.0
  0
VERTEX
  5
3460
  8
0
 10
30.9167645243742299
 20
115.7314575329595954
 30
0.0
  0
VERTEX
  5
3461
  8
0
 10
30.8769114154758917
 20
115.7623094958930068
 30
0.0
  0
VERTEX
  5
3462
  8
0
 10
30.8374562891309587
 20
115.793219176162907
 30
0.0
  0
VERTEX
  5
3463
  8
0
 10
30.798400892743981
 20
115.8241859598544039
 30
0.0
  0
VERTEX
  5
3464
  8
0
 10
30.7597470420329309
 20
115.8552092345742039
 30
0.0
  0
VERTEX
  5
3465
  8
0
 10
30.7214965527148287
 20
115.8862883879291985
 30
0.0
  0
VERTEX
  5
3466
  8
0
 10
30.6836512405073982
 20
115.9174228075260942
 30
0.0
  0
VERTEX
  5
3467
  8
0
 10
30.6462129211280399
 20
115.9486118809717965
 30
0.0
  0
VERTEX
  5
3468
  8
0
 10
30.6091834102943494
 20
115.9798549958731968
 30
0.0
  0
VERTEX
  5
3469
  8
0
 10
30.5725645237237096
 20
116.0111515398370017
 30
0.0
  0
VERTEX
  5
346A
  8
0
 10
30.5363580771336309
 20
116.0425009004701025
 30
0.0
  0
VERTEX
  5
346B
  8
0
 10
30.5005658862415885
 20
116.0739024653794047
 30
0.0
  0
VERTEX
  5
346C
  8
0
 10
30.4651897667649791
 20
116.1053556221716008
 30
0.0
  0
VERTEX
  5
346D
  8
0
 10
30.4302315344214094
 20
116.1368597584535962
 30
0.0
  0
VERTEX
  5
346E
  8
0
 10
30.3956930049283791
 20
116.1684142618320976
 30
0.0
  0
VERTEX
  5
346F
  8
0
 10
30.3615759940031502
 20
116.2000185199141953
 30
0.0
  0
VERTEX
  5
3470
  8
0
 10
30.3278823173635601
 20
116.2316719203063968
 30
0.0
  0
VERTEX
  5
3471
  8
0
 10
30.2946137907267712
 20
116.2633738506158068
 30
0.0
  0
VERTEX
  5
3472
  8
0
 10
30.2617722298102798
 20
116.2951236984491032
 30
0.0
  0
VERTEX
  5
3473
  8
0
 10
30.2293594503317991
 20
116.3269208514131066
 30
0.0
  0
VERTEX
  5
3474
  8
0
 10
30.1973772680086086
 20
116.3587646971146938
 30
0.0
  0
VERTEX
  5
3475
  8
0
 10
30.1658274985582011
 20
116.3906546231606995
 30
0.0
  0
VERTEX
  5
3476
  8
0
 10
30.1347119576981903
 20
116.4225900171579013
 30
0.0
  0
VERTEX
  5
3477
  8
0
 10
30.1040324611459518
 20
116.4545702667132048
 30
0.0
  0
VERTEX
  5
3478
  8
0
 10
30.0737908246189782
 20
116.4865947594333022
 30
0.0
  0
VERTEX
  5
3479
  8
0
 10
30.0439888638346702
 20
116.5186628829251987
 30
0.0
  0
VERTEX
  5
347A
  8
0
 10
30.0146283945107406
 20
116.5507740247956008
 30
0.0
  0
VERTEX
  5
347B
  8
0
 10
29.9857112323644515
 20
116.5829275726513998
 30
0.0
  0
VERTEX
  5
347C
  8
0
 10
29.9572391931133097
 20
116.6151229140994019
 30
0.0
  0
VERTEX
  5
347D
  8
0
 10
29.9292135676170084
 20
116.647359436370806
 30
0.0
  0
VERTEX
  5
347E
  8
0
 10
29.9016316588687303
 20
116.6796365238431008
 30
0.0
  0
VERTEX
  5
347F
  8
0
 10
29.8744889389932986
 20
116.711953559583506
 30
0.0
  0
VERTEX
  5
3480
  8
0
 10
29.8477808705046108
 20
116.7443099266523063
 30
0.0
  0
VERTEX
  5
3481
  8
0
 10
29.8215029159171117
 20
116.776705008110099
 30
0.0
  0
VERTEX
  5
3482
  8
0
 10
29.7956505377451286
 20
116.8091381870169982
 30
0.0
  0
VERTEX
  5
3483
  8
0
 10
29.7702191985026801
 20
116.8416088464335019
 30
0.0
  0
VERTEX
  5
3484
  8
0
 10
29.7452043607041787
 20
116.8741163694198946
 30
0.0
  0
VERTEX
  5
3485
  8
0
 10
29.7206014868638704
 20
116.9066601390366031
 30
0.0
  0
VERTEX
  5
3486
  8
0
 10
29.6964060394958516
 20
116.9392395383439975
 30
0.0
  0
VERTEX
  5
3487
  8
0
 10
29.6726134811144711
 20
116.9718539504025046
 30
0.0
  0
VERTEX
  5
3488
  8
0
 10
29.6492192742339284
 20
117.0045027582722952
 30
0.0
  0
VERTEX
  5
3489
  8
0
 10
29.626218881368569
 20
117.0371853450138957
 30
0.0
  0
VERTEX
  5
348A
  8
0
 10
29.6036077650325105
 20
117.069901093687605
 30
0.0
  0
VERTEX
  5
348B
  8
0
 10
29.581381387739949
 20
117.1026493873539067
 30
0.0
  0
VERTEX
  5
348C
  8
0
 10
29.5595352120053612
 20
117.1354296090729008
 30
0.0
  0
VERTEX
  5
348D
  8
0
 10
29.5380647003428294
 20
117.1682411419051988
 30
0.0
  0
VERTEX
  5
348E
  8
0
 10
29.5169653152665887
 20
117.2010833689110996
 30
0.0
  0
VERTEX
  5
348F
  8
0
 10
29.4962325192908601
 20
117.2339556731510015
 30
0.0
  0
VERTEX
  5
3490
  8
0
 10
29.4758617749299709
 20
117.2668574376851041
 30
0.0
  0
VERTEX
  5
3491
  8
0
 10
29.4558485446981386
 20
117.2997880455740045
 30
0.0
  0
VERTEX
  5
3492
  8
0
 10
29.4361882911095982
 20
117.3327468798778028
 30
0.0
  0
VERTEX
  5
3493
  8
0
 10
29.4168764766785706
 20
117.3657333236571958
 30
0.0
  0
VERTEX
  5
3494
  8
0
 10
29.3979085639193691
 20
117.3987467599721981
 30
0.0
  0
VERTEX
  5
3495
  8
0
 10
29.3792800153461293
 20
117.4317865718835066
 30
0.0
  0
VERTEX
  5
3496
  8
0
 10
29.3609862934731609
 20
117.4648521424512069
 30
0.0
  0
VERTEX
  5
3497
  8
0
 10
29.343022860814699
 20
117.4979428547357969
 30
0.0
  0
VERTEX
  5
3498
  8
0
 10
29.3253851798848508
 20
117.5310580917977035
 30
0.0
  0
VERTEX
  5
3499
  8
0
 10
29.3080718269314993
 20
117.5641972326265972
 30
0.0
  0
VERTEX
  5
349A
  8
0
 10
29.2910959356222484
 20
117.5973596371825067
 30
0.0
  0
VERTEX
  5
349B
  8
0
 10
29.2744748904127583
 20
117.630544659868093
 30
0.0
  0
VERTEX
  5
349C
  8
0
 10
29.258226076270379
 20
117.6637516550855054
 30
0.0
  0
VERTEX
  5
349D
  8
0
 10
29.2423668781618815
 20
117.696979977236893
 30
0.0
  0
VERTEX
  5
349E
  8
0
 10
29.2269146810544989
 20
117.7302289807246041
 30
0.0
  0
VERTEX
  5
349F
  8
0
 10
29.2118868699151299
 20
117.7634980199505037
 30
0.0
  0
VERTEX
  5
34A0
  8
0
 10
29.1973008297109082
 20
117.7967864493169969
 30
0.0
  0
VERTEX
  5
34A1
  8
0
 10
29.1831739454088392
 20
117.8300936232262046
 30
0.0
  0
VERTEX
  5
34A2
  8
0
 10
29.1695236019760387
 20
117.8634188960802049
 30
0.0
  0
VERTEX
  5
34A3
  8
0
 10
29.156367184379409
 20
117.8967616222813035
 30
0.0
  0
VERTEX
  5
34A4
  8
0
 10
29.1437220775860588
 20
117.9301211562314933
 30
0.0
  0
VERTEX
  5
34A5
  8
0
 10
29.1316056665630185
 20
117.963496852333094
 30
0.0
  0
VERTEX
  5
34A6
  8
0
 10
29.1200353362774003
 20
117.9968880649881982
 30
0.0
  0
VERTEX
  5
34A7
  8
0
 10
29.1090284716960888
 20
118.0302941485989976
 30
0.0
  0
VERTEX
  5
34A8
  8
0
 10
29.0986024577862317
 20
118.063714457567599
 30
0.0
  0
VERTEX
  5
34A9
  8
0
 10
29.0887746795148203
 20
118.0971483462962937
 30
0.0
  0
VERTEX
  5
34AA
  8
0
 10
29.0795625218489704
 20
118.130595169187103
 30
0.0
  0
VERTEX
  5
34AB
  8
0
 10
29.0709833697555986
 20
118.1640542806423042
 30
0.0
  0
VERTEX
  5
34AC
  8
0
 10
29.06305460820181
 20
118.1975250350640039
 30
0.0
  0
VERTEX
  5
34AD
  8
0
 10
29.0557936221547415
 20
118.2310067868542944
 30
0.0
  0
VERTEX
  5
34AE
  8
0
 10
29.0492177965811607
 20
118.2644988904154957
 30
0.0
  0
VERTEX
  5
34AF
  8
0
 10
29.0433445164484283
 20
118.2980007001497
 30
0.0
  0
VERTEX
  5
34B0
  8
0
 10
29.0381911667232089
 20
118.3315115704591989
 30
0.0
  0
VERTEX
  5
34B1
  8
0
 10
29.0337751323729698
 20
118.3650308557458999
 30
0.0
  0
VERTEX
  5
34B2
  8
0
 10
29.0301137983645994
 20
118.3985579104120944
 30
0.0
  0
VERTEX
  5
34B3
  8
0
 10
29.0272245496649894
 20
118.4320920888600028
 30
0.0
  0
VERTEX
  5
34B4
  8
0
 10
29.0251247712413907
 20
118.4656327454918028
 30
0.0
  0
VERTEX
  5
34B5
  8
0
 10
29.0238219783852891
 20
118.4991792472580983
 30
0.0
  0
VERTEX
  5
34B6
  8
0
 10
29.0232640256374417
 20
118.5327310369632983
 30
0.0
  0
VERTEX
  5
34B7
  8
0
 10
29.0233764637920402
 20
118.5662875857693024
 30
0.0
  0
VERTEX
  5
34B8
  8
0
 10
29.0240848049705811
 20
118.5998483648870945
 30
0.0
  0
VERTEX
  5
34B9
  8
0
 10
29.025314561295211
 20
118.6334128455278005
 30
0.0
  0
VERTEX
  5
34BA
  8
0
 10
29.0269912448881087
 20
118.6669804989023049
 30
0.0
  0
VERTEX
  5
34BB
  8
0
 10
29.0290403678709517
 20
118.7005507962218047
 30
0.0
  0
VERTEX
  5
34BC
  8
0
 10
29.0339579804950709
 20
118.7676972075393991
 30
0.0
  0
VERTEX
  5
34BD
  8
0
 10
29.0394714961432783
 20
118.8348478491688951
 30
0.0
  0
SEQEND
  5
34BE
  8
0
  0
POLYLINE
  5
304C
  8
0
 66
     1
 10
0.0
 20
0.0
 30
0.0
  0
VERTEX
  5
34BF
  8
0
 10
49.9999999999579288
 20
111.399999930324995
 30
0.0
  0
VERTEX
  5
34C0
  8
0
 10
49.71664228586814
 20
111.4032837329600056
 30
0.0
  0
VERTEX
  5
34C1
  8
0
 10
49.4333325834431889
 20
111.406770500202299
 30
0.0
  0
VERTEX
  5
34C2
  8
0
 10
49.1501189043478917
 20
111.410663196659101
 30
0.0
  0
VERTEX
  5
34C3
  8
0
 10
48.8670492602471924
 20
111.415164786937595
 30
0.0
  0
VERTEX
  5
34C4
  8
0
 10
48.5841716628060567
 20
111.4204782356450067
 30
0.0
  0
VERTEX
  5
34C5
  8
0
 10
48.3015341236890734
 20
111.4268065073886049
 30
0.0
  0
VERTEX
  5
34C6
  8
0
 10
48.0191846545612933
 20
111.4343525667757007
 30
0.0
  0
VERTEX
  5
34C7
  8
0
 10
47.7371712670875468
 20
111.4433193784135057
 30
0.0
  0
VERTEX
  5
34C8
  8
0
 10
47.4555508972094913
 20
111.4538791729918046
 30
0.0
  0
VERTEX
  5
34C9
  8
0
 10
47.1744218771345913
 20
111.4660616184514055
 30
0.0
  0
VERTEX
  5
34CA
  8
0
 10
46.8938945333084121
 20
111.4798550763144931
 30
0.0
  0
VERTEX
  5
34CB
  8
0
 10
46.614079193421162
 20
111.4952479038162068
 30
0.0
  0
VERTEX
  5
34CC
  8
0
 10
46.3350861851628224
 20
111.5122284581919985
 30
0.0
  0
VERTEX
  5
34CD
  8
0
 10
46.0570258362238292
 20
111.5307850966769934
 30
0.0
  0
VERTEX
  5
34CE
  8
0
 10
45.7800084742941635
 20
111.5509061765065013
 30
0.0
  0
VERTEX
  5
34CF
  8
0
 10
45.5041437885880597
 20
111.5725795971629992
 30
0.0
  0
VERTEX
  5
34D0
  8
0
 10
45.2294549038158493
 20
111.5957311960483054
 30
0.0
  0
VERTEX
  5
34D1
  8
0
 10
44.9557915684532574
 20
111.6201625091554064
 30
0.0
  0
VERTEX
  5
34D2
  8
0
 10
44.6829828575987378
 20
111.6456602507806934
 30
0.0
  0
VERTEX
  5
34D3
  8
0
 10
44.4108578463507229
 20
111.6720111352205009
 30
0.0
  0
VERTEX
  5
34D4
  8
0
 10
44.1392456098075172
 20
111.6990018767713053
 30
0.0
  0
VERTEX
  5
34D5
  8
0
 10
43.8679752230675604
 20
111.7264191897293983
 30
0.0
  0
VERTEX
  5
34D6
  8
0
 10
43.5968757612291711
 20
111.7540497883911002
 30
0.0
  0
SEQEND
  5
34D7
  8
0
  0
POLYLINE
  5
304D
  8
0
 66
     1
 10
0.0
 20
0.0
 30
0.0
  0
VERTEX
  5
34D8
  8
0
 10
56.4031277284074122
 20
111.7540501840132947
 30
0.0
  0
VERTEX
  5
34D9
  8
0
 10
56.1319657554051901
 20
111.7264762296951943
 30
0.0
  0
VERTEX
  5
34DA
  8
0
 10
55.860637188703997
 20
111.6991118828120051
 30
0.0
  0
VERTEX
  5
34DB
  8
0
 10
55.588975434604663
 20
111.6721667507983966
 30
0.0
  0
VERTEX
  5
34DC
  8
0
 10
55.3168138994080891
 20
111.6458504410892942
 30
0.0
  0
VERTEX
  5
34DD
  8
0
 10
55.0439859894151979
 20
111.6203725611194955
 30
0.0
  0
VERTEX
  5
34DE
  8
0
 10
54.7703251109270468
 20
111.5959427183236983
 30
0.0
  0
VERTEX
  5
34DF
  8
0
 10
54.4956646702445298
 20
111.5727705201368991
 30
0.0
  0
VERTEX
  5
34E0
  8
0
 10
54.2198487444396804
 20
111.5510579423846025
 30
0.0
  0
VERTEX
  5
34E1
  8
0
 10
53.94287297615017
 20
111.5308985629954037
 30
0.0
  0
VERTEX
  5
34E2
  8
0
 10
53.6648456743625886
 20
111.5123053822596972
 30
0.0
  0
VERTEX
  5
34E3
  8
0
 10
53.3858778238308105
 20
111.4952894867906963
 30
0.0
  0
VERTEX
  5
34E4
  8
0
 10
53.1060804093085608
 20
111.4798619632016994
 30
0.0
  0
VERTEX
  5
34E5
  8
0
 10
52.8255644155495929
 20
111.4660338981061045
 30
0.0
  0
VERTEX
  5
34E6
  8
0
 10
52.5444408273078807
 20
111.4538163781170965
 30
0.0
  0
VERTEX
  5
34E7
  8
0
 10
52.262820629337277
 20
111.4432204898481018
 30
0.0
  0
VERTEX
  5
34E8
  8
0
 10
51.9808055996276082
 20
111.4342257648494012
 30
0.0
  0
VERTEX
  5
34E9
  8
0
 10
51.6984555497700669
 20
111.4266678999451017
 30
0.0
  0
VERTEX
  5
34EA
  8
0
 10
51.4158183405279487
 20
111.420341631951004
 30
0.0
  0
VERTEX
  5
34EB
  8
0
 10
51.1329418317985684
 20
111.415041694715498
 30
0.0
  0
VERTEX
  5
34EC
  8
0
 10
50.8498738834793969
 20
111.4105628220869022
 30
0.0
  0
VERTEX
  5
34ED
  8
0
 10
50.5666623554679902
 20
111.4066997479133931
 30
0.0
  0
VERTEX
  5
34EE
  8
0
 10
50.2833551076616914
 20
111.4032472060433037
 30
0.0
  0
VERTEX
  5
34EF
  8
0
 10
49.9999999999579288
 20
111.399999930324995
 30
0.0
  0
SEQEND
  5
34F0
  8
0
  0
POLYLINE
  5
304E
  8
0
 66
     1
 10
0.0
 20
0.0
 30
0.0
  0
VERTEX
  5
34F1
  8
0
 10
70.9633341582697312
 20
118.8348193177202035
 30
0.0
  0
VERTEX
  5
34F2
  8
0
 10
70.9692461419339224
 20
118.7676772963635017
 30
0.0
  0
VERTEX
  5
34F3
  8
0
 10
70.9744852524257794
 20
118.7005391704284989
 30
0.0
  0
VERTEX
  5
34F4
  8
0
 10
70.976642207365785
 20
118.6669727855634022
 30
0.0
  0
VERTEX
  5
34F5
  8
0
 10
70.9783786165729538
 20
118.6334088353368941
 30
0.0
  0
VERTEX
  5
34F6
  8
0
 10
70.9796103709007866
 20
118.5998478066768058
 30
0.0
  0
VERTEX
  5
34F7
  8
0
 10
70.9802533612029265
 20
118.5662901865106988
 30
0.0
  0
VERTEX
  5
34F8
  8
0
 10
70.9802234783327322
 20
118.5327364617662056
 30
0.0
  0
VERTEX
  5
34F9
  8
0
 10
70.9794366714745593
 20
118.4991871194723956
 30
0.0
  0
VERTEX
  5
34FA
  8
0
 10
70.9778347320561807
 20
118.4656426914348941
 30
0.0
  0
VERTEX
  5
34FB
  8
0
 10
70.9754257982132231
 20
118.4321038244193005
 30
0.0
  0
VERTEX
  5
34FC
  8
0
 10
70.9722285074808497
 20
118.3985711833832966
 30
0.0
  0
VERTEX
  5
34FD
  8
0
 10
70.9682614973945647
 20
118.3650454332849051
 30
0.0
  0
VERTEX
  5
34FE
  8
0
 10
70.9635434054897587
 20
118.3315272390816943
 30
0.0
  0
VERTEX
  5
34FF
  8
0
 10
70.9580928693018222
 20
118.2980172657317013
 30
0.0
  0
VERTEX
  5
3500
  8
0
 10
70.9519285263660322
 20
118.264516178192693
 30
0.0
  0
VERTEX
  5
3501
  8
0
 10
70.9450690142177791
 20
118.2310246414224935
 30
0.0
  0
VERTEX
  5
3502
  8
0
 10
70.9375329703924535
 20
118.1975433203788981
 30
0.0
  0
VERTEX
  5
3503
  8
0
 10
70.929339032425446
 20
118.1640728800198019
 30
0.0
  0
VERTEX
  5
3504
  8
0
 10
70.9205058378520334
 20
118.1306139853030004
 30
0.0
  0
VERTEX
  5
3505
  8
0
 10
70.91105202420772
 20
118.0971673011862038
 30
0.0
  0
VERTEX
  5
3506
  8
0
 10
70.9009962290278963
 20
118.0637334926275059
 30
0.0
  0
VERTEX
  5
3507
  8
0
 10
70.8903570898477255
 20
118.0303132245846029
 30
0.0
  0
VERTEX
  5
3508
  8
0
 10
70.8791532442028256
 20
117.996907162015205
 30
0.0
  0
VERTEX
  5
3509
  8
0
 10
70.8674033296284733
 20
117.9635159698773066
 30
0.0
  0
VERTEX
  5
350A
  8
0
 10
70.8551259836599456
 20
117.9301403131287032
 30
0.0
  0
VERTEX
  5
350B
  8
0
 10
70.8423398438326331
 20
117.8967808567272044
 30
0.0
  0
VERTEX
  5
350C
  8
0
 10
70.8290635476820398
 20
117.8634382656306059
 30
0.0
  0
VERTEX
  5
350D
  8
0
 10
70.8153157327434428
 20
117.830113204796703
 30
0.0
  0
VERTEX
  5
350E
  8
0
 10
70.8011150365522326
 20
117.7968063391835045
 30
0.0
  0
VERTEX
  5
350F
  8
0
 10
70.7864800966437997
 20
117.7635183337486069
 30
0.0
  0
VERTEX
  5
3510
  8
0
 10
70.7714295505535347
 20
117.7302498534501041
 30
0.0
  0
VERTEX
  5
3511
  8
0
 10
70.7559820358167144
 20
117.6970015632456068
 30
0.0
  0
VERTEX
  5
3512
  8
0
 10
70.7401561899687294
 20
117.6637741280929959
 30
0.0
  0
VERTEX
  5
3513
  8
0
 10
70.723970650545084
 20
117.6305682129500951
 30
0.0
  0
VERTEX
  5
3514
  8
0
 10
70.7074440550809413
 20
117.5973844827747996
 30
0.0
  0
VERTEX
  5
3515
  8
0
 10
70.6905933921394762
 20
117.5642235980078993
 30
0.0
  0
VERTEX
  5
3516
  8
0
 10
70.6734213426540236
 20
117.5310861798978976
 30
0.0
  0
VERTEX
  5
3517
  8
0
 10
70.6559232394860146
 20
117.4979728295648016
 30
0.0
  0
VERTEX
  5
3518
  8
0
 10
70.6380943553294856
 20
117.4648841479638008
 30
0.0
  0
VERTEX
  5
3519
  8
0
 10
70.6199299628782455
 20
117.4318207360502981
 30
0.0
  0
VERTEX
  5
351A
  8
0
 10
70.6014253348259899
 20
117.3987831947795968
 30
0.0
  0
VERTEX
  5
351B
  8
0
 10
70.5825757438666415
 20
117.3657721251068011
 30
0.0
  0
VERTEX
  5
351C
  8
0
 10
70.5633764626940092
 20
117.3327881279872997
 30
0.0
  0
VERTEX
  5
351D
  8
0
 10
70.5438227640017885
 20
117.2998318043763959
 30
0.0
  0
VERTEX
  5
351E
  8
0
 10
70.5239099204839022
 20
117.266903755229194
 30
0.0
  0
VERTEX
  5
351F
  8
0
 10
70.5036332048341592
 20
117.2340045815010967
 30
0.0
  0
VERTEX
  5
3520
  8
0
 10
70.482987889746255
 20
117.2011348841473932
 30
0.0
  0
VERTEX
  5
3521
  8
0
 10
70.4619692479141122
 20
117.1682952641232021
 30
0.0
  0
VERTEX
  5
3522
  8
0
 10
70.4405725520314263
 20
117.1354863223838976
 30
0.0
  0
VERTEX
  5
3523
  8
0
 10
70.41879307479212
 20
117.1027086598846978
 30
0.0
  0
VERTEX
  5
3524
  8
0
 10
70.3966260888898745
 20
117.0699628775810055
 30
0.0
  0
VERTEX
  5
3525
  8
0
 10
70.3740668670187688
 20
117.0372495764278966
 30
0.0
  0
VERTEX
  5
3526
  8
0
 10
70.3511106818722283
 20
117.0045693573808023
 30
0.0
  0
VERTEX
  5
3527
  8
0
 10
70.3277528061443036
 20
116.9719228213948981
 30
0.0
  0
VERTEX
  5
3528
  8
0
 10
70.3039885125288038
 20
116.9393105694254018
 30
0.0
  0
VERTEX
  5
3529
  8
0
 10
70.2798130737194242
 20
116.9067332024277022
 30
0.0
  0
VERTEX
  5
352A
  8
0
 10
70.2552217624100734
 20
116.8741913213570029
 30
0.0
  0
VERTEX
  5
352B
  8
0
 10
70.2302098512944752
 20
116.8416855271685932
 30
0.0
  0
VERTEX
  5
352C
  8
0
 10
70.2047726130664387
 20
116.8092164208177053
 30
0.0
  0
VERTEX
  5
352D
  8
0
 10
70.1789053204198439
 20
116.7767846032596992
 30
0.0
  0
VERTEX
  5
352E
  8
0
 10
70.1526032460485567
 20
116.7443906754496936
 30
0.0
  0
VERTEX
  5
352F
  8
0
 10
70.1258616626461162
 20
116.7120352383431054
 30
0.0
  0
VERTEX
  5
3530
  8
0
 10
70.0986758999931538
 20
116.6797188931394942
 30
0.0
  0
VERTEX
  5
3531
  8
0
 10
70.0710438603580315
 20
116.6474422520520022
 30
0.0
  0
VERTEX
  5
3532
  8
0
 10
70.0429670078273148
 20
116.6152059425424028
 30
0.0
  0
VERTEX
  5
3533
  8
0
 10
70.0144470680311315
 20
116.5830105931924976
 30
0.0
  0
VERTEX
  5
3534
  8
0
 10
69.985485766598913
 20
116.5508568325837047
 30
0.0
  0
VERTEX
  5
3535
  8
0
 10
69.9560848291607726
 20
116.5187452892977973
 30
0.0
  0
VERTEX
  5
3536
  8
0
 10
69.9262459813462556
 20
116.4866765919164067
 30
0.0
  0
VERTEX
  5
3537
  8
0
 10
69.8959709487852479
 20
116.4546513690210929
 30
0.0
  0
VERTEX
  5
3538
  8
0
 10
69.8652614571075219
 20
116.422670249193601
 30
0.0
  0
VERTEX
  5
3539
  8
0
 10
69.8341192319429638
 20
116.3907338610155051
 30
0.0
  0
VERTEX
  5
353A
  8
0
 10
69.8025459989212322
 20
116.3588428330683939
 30
0.0
  0
VERTEX
  5
353B
  8
0
 10
69.7705434836722134
 20
116.3269977939338986
 30
0.0
  0
VERTEX
  5
353C
  8
0
 10
69.7381134118256654
 20
116.2951993721938067
 30
0.0
  0
VERTEX
  5
353D
  8
0
 10
69.7052575090114033
 20
116.2634481964294935
 30
0.0
  0
VERTEX
  5
353E
  8
0
 10
69.6719775008592705
 20
116.2317448952229029
 30
0.0
  0
VERTEX
  5
353F
  8
0
 10
69.6382751129990538
 20
116.2000900971553961
 30
0.0
  0
VERTEX
  5
3540
  8
0
 10
69.6041520710602981
 20
116.1684844308088032
 30
0.0
  0
VERTEX
  5
3541
  8
0
 10
69.5696101006731169
 20
116.136928524764599
 30
0.0
  0
VERTEX
  5
3542
  8
0
 10
69.5346509274672826
 20
116.1054230076045002
 30
0.0
  0
VERTEX
  5
3543
  8
0
 10
69.4992762770723402
 20
116.0739685079101946
 30
0.0
  0
VERTEX
  5
3544
  8
0
 10
69.4634878751184033
 20
116.0425656542631998
 30
0.0
  0
VERTEX
  5
3545
  8
0
 10
69.4272874472350168
 20
116.0112150752452038
 30
0.0
  0
VERTEX
  5
3546
  8
0
 10
69.3906767190520668
 20
115.9799173994377952
 30
0.0
  0
VERTEX
  5
3547
  8
0
 10
69.3536574161993258
 20
115.9486732554227046
 30
0.0
  0
VERTEX
  5
3548
  8
0
 10
69.3162312643066798
 20
115.917483271781407
 30
0.0
  0
VERTEX
  5
3549
  8
0
 10
69.2783999890037734
 20
115.886348077095704
 30
0.0
  0
VERTEX
  5
354A
  8
0
 10
69.2401653159205352
 20
115.8552682999471983
 30
0.0
  0
VERTEX
  5
354B
  8
0
 10
69.2015289706866952
 20
115.8242445689175071
 30
0.0
  0
VERTEX
  5
354C
  8
0
 10
69.162492458849556
 20
115.7932775132137948
 30
0.0
  0
VERTEX
  5
354D
  8
0
 10
69.123056320074852
 20
115.7623677647896017
 30
0.0
  0
VERTEX
  5
354E
  8
0
 10
69.0832208291323013
 20
115.7315159563511031
 30
0.0
  0
VERTEX
  5
354F
  8
0
 10
69.0429862607843461
 20
115.7007227206048015
 30
0.0
  0
VERTEX
  5
3550
  8
0
 10
69.0023528897935421
 20
115.6699886902570995
 30
0.0
  0
VERTEX
  5
3551
  8
0
 10
68.9613209909222178
 20
115.6393144980143006
 30
0.0
  0
VERTEX
  5
3552
  8
0
 10
68.9198908389330427
 20
115.6087007765827934
 30
0.0
  0
VERTEX
  5
3553
  8
0
 10
68.8780627085882315
 20
115.5781481586690944
 30
0.0
  0
VERTEX
  5
3554
  8
0
 10
68.8358368746504539
 20
115.5476572769795069
 30
0.0
  0
VERTEX
  5
3555
  8
0
 10
68.7932136118821518
 20
115.5172287642204054
 30
0.0
  0
VERTEX
  5
3556
  8
0
 10
68.7501931950457674
 20
115.4868632530982069
 30
0.0
  0
VERTEX
  5
3557
  8
0
 10
68.7067758989037429
 20
115.4565613763192999
 30
0.0
  0
VERTEX
  5
3558
  8
0
 10
68.6629619982186341
 20
115.4263237665902011
 30
0.0
  0
VERTEX
  5
3559
  8
0
 10
68.6187517677527694
 20
115.3961510566171
 30
0.0
  0
VERTEX
  5
355A
  8
0
 10
68.5741454822687047
 20
115.366043879106499
 30
0.0
  0
VERTEX
  5
355B
  8
0
 10
68.5291434165289957
 20
115.336002866764801
 30
0.0
  0
VERTEX
  5
355C
  8
0
 10
68.4837458452959709
 20
115.3060286522982949
 30
0.0
  0
VERTEX
  5
355D
  8
0
 10
68.4379530433321861
 20
115.2761218684134974
 30
0.0
  0
VERTEX
  5
355E
  8
0
 10
68.3917652854000835
 20
115.2462831478166976
 30
0.0
  0
VERTEX
  5
355F
  8
0
 10
68.3451828462621052
 20
115.2165131232144972
 30
0.0
  0
VERTEX
  5
3560
  8
0
 10
68.2982060006806933
 20
115.1868124273130007
 30
0.0
  0
VERTEX
  5
3561
  8
0
 10
68.2508350234185031
 20
115.1571816928187957
 30
0.0
  0
VERTEX
  5
3562
  8
0
 10
68.203070189237792
 20
115.1276215524381996
 30
0.0
  0
VERTEX
  5
3563
  8
0
 10
68.1549117729011869
 20
115.0981326388776012
 30
0.0
  0
VERTEX
  5
3564
  8
0
 10
68.1063600491710304
 20
115.0687155848435026
 30
0.0
  0
VERTEX
  5
3565
  8
0
 10
68.0574152928098783
 20
115.0393710230420936
 30
0.0
  0
VERTEX
  5
3566
  8
0
 10
68.0080777785802866
 20
115.0100995861799049
 30
0.0
  0
VERTEX
  5
3567
  8
0
 10
67.958347792222753
 20
114.9809019064031048
 30
0.0
  0
VERTEX
  5
3568
  8
0
 10
67.9082259306049991
 20
114.9517785999806989
 30
0.0
  0
VERTEX
  5
3569
  8
0
 10
67.8577131382635343
 20
114.922730265439796
 30
0.0
  0
VERTEX
  5
356A
  8
0
 10
67.806810378049363
 20
114.8937575003729989
 30
0.0
  0
VERTEX
  5
356B
  8
0
 10
67.7555186128137166
 20
114.8648609023726976
 30
0.0
  0
VERTEX
  5
356C
  8
0
 10
67.7038388054079405
 20
114.836041069031495
 30
0.0
  0
VERTEX
  5
356D
  8
0
 10
67.6517719186831528
 20
114.807298597941795
 30
0.0
  0
VERTEX
  5
356E
  8
0
 10
67.5993189154905849
 20
114.7786340866963002
 30
0.0
  0
VERTEX
  5
356F
  8
0
 10
67.5464807586813549
 20
114.7500481328874002
 30
0.0
  0
VERTEX
  5
3570
  8
0
 10
67.4932584111069218
 20
114.7215413341075987
 30
0.0
  0
VERTEX
  5
3571
  8
0
 10
67.4396528356182898
 20
114.693114287949399
 30
0.0
  0
VERTEX
  5
3572
  8
0
 10
67.3856649950668043
 20
114.6647675920054041
 30
0.0
  0
VERTEX
  5
3573
  8
0
 10
67.3312958523036968
 20
114.6365018438681034
 30
0.0
  0
VERTEX
  5
3574
  8
0
 10
67.2765463701800854
 20
114.6083176411299007
 30
0.0
  0
VERTEX
  5
3575
  8
0
 10
67.2214175115472017
 20
114.5802155813833991
 30
0.0
  0
VERTEX
  5
3576
  8
0
 10
67.165910239256263
 20
114.5521962622211021
 30
0.0
  0
VERTEX
  5
3577
  8
0
 10
67.1100255161585437
 20
114.5242602812354988
 30
0.0
  0
VERTEX
  5
3578
  8
0
 10
67.0537643051052328
 20
114.4964082360190929
 30
0.0
  0
VERTEX
  5
3579
  8
0
 10
66.997127568947576
 20
114.4686407241645014
 30
0.0
  0
VERTEX
  5
357A
  8
0
 10
66.9401162705366914
 20
114.4409583432641
 30
0.0
  0
VERTEX
  5
357B
  8
0
 10
66.8827313727238106
 20
114.4133616909105058
 30
0.0
  0
VERTEX
  5
357C
  8
0
 10
66.8249738383602789
 20
114.3858513646961939
 30
0.0
  0
VERTEX
  5
357D
  8
0
 10
66.766844630297328
 20
114.3584279622135966
 30
0.0
  0
VERTEX
  5
357E
  8
0
 10
66.708344711385962
 20
114.3310920810554023
 30
0.0
  0
VERTEX
  5
357F
  8
0
 10
66.6494750444775264
 20
114.3038443188139013
 30
0.0
  0
VERTEX
  5
3580
  8
0
 10
66.590236592423139
 20
114.2766852730818954
 30
0.0
  0
VERTEX
  5
3581
  8
0
 10
66.5306303180742589
 20
114.2496155414516039
 30
0.0
  0
VERTEX
  5
3582
  8
0
 10
66.4706571842818903
 20
114.2226357215157009
 30
0.0
  0
VERTEX
  5
3583
  8
0
 10
66.410318146307759
 20
114.1957464253625005
 30
0.0
  0
VERTEX
  5
3584
  8
0
 10
66.3496141048495929
 20
114.1689483692924938
 30
0.0
  0
VERTEX
  5
3585
  8
0
 10
66.2885459367359999
 20
114.1422423151949062
 30
0.0
  0
VERTEX
  5
3586
  8
0
 10
66.2271145186950889
 20
114.115629025151307
 30
0.0
  0
VERTEX
  5
3587
  8
0
 10
66.1653207274546276
 20
114.0891092612432942
 30
0.0
  0
VERTEX
  5
3588
  8
0
 10
66.1031654397427246
 20
114.0626837855521956
 30
0.0
  0
VERTEX
  5
3589
  8
0
 10
66.0406495322871336
 20
114.0363533601596941
 30
0.0
  0
VERTEX
  5
358A
  8
0
 10
65.9777738818161055
 20
114.0101187471472031
 30
0.0
  0
VERTEX
  5
358B
  8
0
 10
65.9145393650572942
 20
113.983980708596107
 30
0.0
  0
VERTEX
  5
358C
  8
0
 10
65.8509468587388938
 20
113.9579400065881032
 30
0.0
  0
VERTEX
  5
358D
  8
0
 10
65.7869972395886862
 20
113.9319974032046048
 30
0.0
  0
VERTEX
  5
358E
  8
0
 10
65.7226913843346665
 20
113.9061536605270959
 30
0.0
  0
VERTEX
  5
358F
  8
0
 10
65.6580301697048299
 20
113.8804095406371033
 30
0.0
  0
VERTEX
  5
3590
  8
0
 10
65.5930144724269439
 20
113.8547658056160969
 30
0.0
  0
VERTEX
  5
3591
  8
0
 10
65.5276451692292312
 20
113.8292232175457031
 30
0.0
  0
VERTEX
  5
3592
  8
0
 10
65.4619231368395731
 20
113.8037825385072068
 30
0.0
  0
VERTEX
  5
3593
  8
0
 10
65.395849251985851
 20
113.7784445305823056
 30
0.0
  0
VERTEX
  5
3594
  8
0
 10
65.3294243913959463
 20
113.7532099558523981
 30
0.0
  0
VERTEX
  5
3595
  8
0
 10
65.2626494317979535
 20
113.7280795763989971
 30
0.0
  0
VERTEX
  5
3596
  8
0
 10
65.1955252499197968
 20
113.7030541543036009
 30
0.0
  0
VERTEX
  5
3597
  8
0
 10
65.1280527224894286
 20
113.678134451647793
 30
0.0
  0
VERTEX
  5
3598
  8
0
 10
65.0602327262347444
 20
113.6533212305129013
 30
0.0
  0
VERTEX
  5
3599
  8
0
 10
64.9920661378837252
 20
113.6286152529805946
 30
0.0
  0
VERTEX
  5
359A
  8
0
 10
64.923553834164295
 20
113.6040172811323004
 30
0.0
  0
VERTEX
  5
359B
  8
0
 10
64.8546966918044063
 20
113.5795280770495026
 30
0.0
  0
VERTEX
  5
359C
  8
0
 10
64.7854955875320684
 20
113.5551484028136997
 30
0.0
  0
VERTEX
  5
359D
  8
0
 10
64.7159513980751626
 20
113.5308790205064042
 30
0.0
  0
VERTEX
  5
359E
  8
0
 10
64.6460650116465558
 20
113.5067206856743951
 30
0.0
  0
VERTEX
  5
359F
  8
0
 10
64.5758378024351032
 20
113.482673877346997
 30
0.0
  0
VERTEX
  5
35A0
  8
0
 10
64.5052717997815535
 20
113.4587387017763973
 30
0.0
  0
VERTEX
  5
35A1
  8
0
 10
64.4343690792967436
 20
113.4349152388872994
 30
0.0
  0
VERTEX
  5
35A2
  8
0
 10
64.3631317165911696
 20
113.4112035686047051
 30
0.0
  0
VERTEX
  5
35A3
  8
0
 10
64.291561787275441
 20
113.3876037708536018
 30
0.0
  0
VERTEX
  5
35A4
  8
0
 10
64.2196613669600538
 20
113.3641159255589059
 30
0.0
  0
VERTEX
  5
35A5
  8
0
 10
64.1474325312557312
 20
113.3407401126455056
 30
0.0
  0
VERTEX
  5
35A6
  8
0
 10
64.0748773557728555
 20
113.3174764120383031
 30
0.0
  0
VERTEX
  5
35A7
  8
0
 10
64.0019979161221499
 20
113.2943249036623001
 30
0.0
  0
VERTEX
  5
35A8
  8
0
 10
63.9287962879141105
 20
113.2712856674423989
 30
0.0
  0
VERTEX
  5
35A9
  8
0
 10
63.8552745467593397
 20
113.2483587833035017
 30
0.0
  0
VERTEX
  5
35AA
  8
0
 10
63.7814347682683476
 20
113.225544331170596
 30
0.0
  0
VERTEX
  5
35AB
  8
0
 10
63.7072790280518504
 20
113.2028423909685984
 30
0.0
  0
VERTEX
  5
35AC
  8
0
 10
63.6328094017203512
 20
113.1802530426223967
 30
0.0
  0
VERTEX
  5
35AD
  8
0
 10
63.5580279648843316
 20
113.1577763660568934
 30
0.0
  0
VERTEX
  5
35AE
  8
0
 10
63.4829367931544084
 20
113.1354124411971043
 30
0.0
  0
VERTEX
  5
35AF
  8
0
 10
63.4075379621411912
 20
113.1131613479679032
 30
0.0
  0
VERTEX
  5
35B0
  8
0
 10
63.3318335474552825
 20
113.0910231662943062
 30
0.0
  0
VERTEX
  5
35B1
  8
0
 10
63.2558256247073203
 20
113.0689979761011017
 30
0.0
  0
VERTEX
  5
35B2
  8
0
 10
63.1795162695076371
 20
113.0470858573133057
 30
0.0
  0
VERTEX
  5
35B3
  8
0
 10
63.1029075574669989
 20
113.0252868898558063
 30
0.0
  0
VERTEX
  5
35B4
  8
0
 10
63.0260015641959015
 20
113.0036011536536051
 30
0.0
  0
VERTEX
  5
35B5
  8
0
 10
62.9488003653049191
 20
112.982028728631505
 30
0.0
  0
VERTEX
  5
35B6
  8
0
 10
62.8713060364046896
 20
112.960569694714593
 30
0.0
  0
VERTEX
  5
35B7
  8
0
 10
62.793520653105702
 20
112.9392241318277001
 30
0.0
  0
VERTEX
  5
35B8
  8
0
 10
62.6370850233723715
 20
112.8968737407937937
 30
0.0
  0
VERTEX
  5
35B9
  8
0
 10
62.4795051107451016
 20
112.8549822647123051
 30
0.0
  0
VERTEX
  5
35BA
  8
0
 10
62.4002850482468219
 20
112.8342138874299962
 30
0.0
  0
VERTEX
  5
35BB
  8
0
 10
62.3207771173229119
 20
112.8135670493859948
 30
0.0
  0
VERTEX
  5
35BC
  8
0
 10
62.2409804697464324
 20
112.7930442246298952
 30
0.0
  0
VERTEX
  5
35BD
  8
0
 10
62.1608942572904581
 20
112.7726478872110931
 30
0.0
  0
VERTEX
  5
35BE
  8
0
 10
62.0805176317275027
 20
112.7523805111789983
 30
0.0
  0
VERTEX
  5
35BF
  8
0
 10
61.9998497448311809
 20
112.7322445705831058
 30
0.0
  0
VERTEX
  5
35C0
  8
0
 10
61.9188897483743403
 20
112.7122425394729959
 30
0.0
  0
VERTEX
  5
35C1
  8
0
 10
61.8376367941300416
 20
112.6923768918982063
 30
0.0
  0
VERTEX
  5
35C2
  8
0
 10
61.7560900338713665
 20
112.6726501019081041
 30
0.0
  0
VERTEX
  5
35C3
  8
0
 10
61.6742486193712693
 20
112.6530646435520993
 30
0.0
  0
VERTEX
  5
35C4
  8
0
 10
61.5921117024028035
 20
112.6336229908798998
 30
0.0
  0
VERTEX
  5
35C5
  8
0
 10
61.5096784347390368
 20
112.6143276179408019
 30
0.0
  0
VERTEX
  5
35C6
  8
0
 10
61.4269479681529518
 20
112.5951809987843006
 30
0.0
  0
VERTEX
  5
35C7
  8
0
 10
61.3439194544175734
 20
112.5761856074600047
 30
0.0
  0
VERTEX
  5
35C8
  8
0
 10
61.2605920453061117
 20
112.5573439180172954
 30
0.0
  0
VERTEX
  5
35C9
  8
0
 10
61.176964892591279
 20
112.5386584045056964
 30
0.0
  0
VERTEX
  5
35CA
  8
0
 10
61.0930371480464984
 20
112.5201315409747025
 30
0.0
  0
VERTEX
  5
35CB
  8
0
 10
61.0088079634444966
 20
112.5017658014737947
 30
0.0
  0
VERTEX
  5
35CC
  8
0
 10
60.9242764905584409
 20
112.4835636600523969
 30
0.0
  0
VERTEX
  5
35CD
  8
0
 10
60.8394418811615196
 20
112.4655275907601037
 30
0.0
  0
VERTEX
  5
35CE
  8
0
 10
60.7543032870263389
 20
112.4476600676462965
 30
0.0
  0
VERTEX
  5
35CF
  8
0
 10
60.6688598599262079
 20
112.4299635647604987
 30
0.0
  0
VERTEX
  5
35D0
  8
0
 10
60.5831107516342016
 20
112.4124405561522053
 30
0.0
  0
VERTEX
  5
35D1
  8
0
 10
60.4970551139233521
 20
112.3950935158708972
 30
0.0
  0
VERTEX
  5
35D2
  8
0
 10
60.4106920989194123
 20
112.3779249177022024
 30
0.0
  0
VERTEX
  5
35D3
  8
0
 10
60.3240232573987214
 20
112.3609354410090049
 30
0.0
  0
VERTEX
  5
35D4
  8
0
 10
60.2370582623730115
 20
112.3441196889370985
 30
0.0
  0
VERTEX
  5
35D5
  8
0
 10
60.1498085043617721
 20
112.3274709797700979
 30
0.0
  0
VERTEX
  5
35D6
  8
0
 10
59.9745002614600935
 20
112.294647963286593
 30
0.0
  0
VERTEX
  5
35D7
  8
0
 10
59.798189652849139
 20
112.2624129378287989
 30
0.0
  0
VERTEX
  5
35D8
  8
0
 10
59.6209678026842766
 20
112.2307124496670951
 30
0.0
  0
VERTEX
  5
35D9
  8
0
 10
59.4429258351208318
 20
112.1994930450719039
 30
0.0
  0
VERTEX
  5
35DA
  8
0
 10
59.2641548743142721
 20
112.1687012703136048
 30
0.0
  0
VERTEX
  5
35DB
  8
0
 10
59.0847460444199513
 20
112.1382836716626059
 30
0.0
  0
VERTEX
  5
35DC
  8
0
 10
58.9047904695933084
 20
112.108186795389301
 30
0.0
  0
VERTEX
  5
35DD
  8
0
 10
58.7243792739897117
 20
112.0783571877639986
 30
0.0
  0
VERTEX
  5
35DE
  8
0
 10
58.5436035817645006
 20
112.0487413950571067
 30
0.0
  0
VERTEX
  5
35DF
  8
0
 10
58.3625545170731286
 20
112.0192859635391045
 30
0.0
  0
VERTEX
  5
35E0
  8
0
 10
58.0000007669134376
 20
111.9606423691511026
 30
0.0
  0
SEQEND
  5
35E1
  8
0
  0
LINE
  5
3087
  8
0
 10
247.0000000000007105
 20
84.7320508075680436
 30
0.0
 11
247.0000000000007105
 21
81.2679491924302653
 31
0.0
  0
LINE
  5
3088
  8
0
 10
247.0000000000007105
 20
81.2679491924302368
 30
0.0
 11
250.0000000000007105
 21
79.535898384861369
 31
0.0
  0
LINE
  5
3089
  8
0
 10
250.0000000000007105
 20
79.535898384861369
 30
0.0
 11
253.0000000000007105
 21
81.2679491924302368
 31
0.0
  0
LINE
  5
308A
  8
0
 10
253.0000000000007105
 20
81.2679491924302368
 30
0.0
 11
253.0000000000007105
 21
84.7320508075680436
 31
0.0
  0
LINE
  5
308B
  8
0
 10
253.0000000000007105
 20
84.7320508075680436
 30
0.0
 11
250.0000000000007105
 21
86.4641016151368973
 31
0.0
  0
LINE
  5
308C
  8
0
 10
250.0000000000007105
 20
86.4641016151368973
 30
0.0
 11
247.0000000000007105
 21
84.7320508075680436
 31
0.0
  0
ENDSEC
  0
EOF
