  0
SECTION
  2
HEADER
  9
$ACADVER
  1
AC1009
  9
$INSBASE
 10
0.0
 20
0.0
 30
0.0
  9
$EXTMIN
 10
0.0
 20
-2.960436562073669
 30
0.0
  9
$EXTMAX
 10
276.0000000000005116
 20
274.9999999999997726
 30
0.0
  9
$LIMMIN
 10
0.0
 20
0.0
  9
$LIMMAX
 10
375.0
 20
270.0
  9
$ORTHOMODE
 70
     1
  9
$REGENMODE
 70
     1
  9
$FILLMODE
 70
     1
  9
$QTEXTMODE
 70
     0
  9
$MIRRTEXT
 70
     0
  9
$DRAGMODE
 70
     2
  9
$LTSCALE
 40
10.0
  9
$OSMODE
 70
    37
  9
$ATTMODE
 70
     1
  9
$TEXTSIZE
 40
0.2
  9
$TRACEWID
 40
0.05
  9
$TEXTSTYLE
  7
STANDARD
  9
$CLAYER
  8
0
  9
$CELTYPE
  6
BYLAYER
  9
$CECOLOR
 62
   256
  9
$DIMSCALE
 40
1.0
  9
$DIMASZ
 40
3.0
  9
$DIMEXO
 40
2.0
  9
$DIMDLI
 40
0.38
  9
$DIMRND
 40
0.0
  9
$DIMDLE
 40
0.0
  9
$DIMEXE
 40
2.0
  9
$DIMTP
 40
0.0
  9
$DIMTM
 40
0.0
  9
$DIMTXT
 40
3.2000000000000002
  9
$DIMCEN
 40
0.0
  9
$DIMTSZ
 40
0.0
  9
$DIMTOL
 70
     0
  9
$DIMLIM
 70
     0
  9
$DIMTIH
 70
     0
  9
$DIMTOH
 70
     0
  9
$DIMSE1
 70
     0
  9
$DIMSE2
 70
     0
  9
$DIMTAD
 70
     1
  9
$DIMZIN
 70
     0
  9
$DIMBLK
  1

  9
$DIMASO
 70
     0
  9
$DIMSHO
 70
     0
  9
$DIMPOST
  1

  9
$DIMAPOST
  1

  9
$DIMALT
 70
     0
  9
$DIMALTD
 70
     2
  9
$DIMALTF
 40
25.3999999999999986
  9
$DIMLFAC
 40
1.0
  9
$DIMTOFL
 70
     1
  9
$DIMTVP
 40
1.6000000000000001
  9
$DIMTIX
 70
     1
  9
$DIMSOXD
 70
     0
  9
$DIMSAH
 70
     0
  9
$DIMBLK1
  1

  9
$DIMBLK2
  1

  9
$DIMSTYLE
  2
STANDARD
  9
$DIMCLRD
 70
     0
  9
$DIMCLRE
 70
     0
  9
$DIMCLRT
 70
     0
  9
$DIMTFAC
 40
1.0
  9
$DIMGAP
 40
0.09
  9
$LUNITS
 70
     2
  9
$LUPREC
 70
     1
  9
$SKETCHINC
 40
0.1
  9
$FILLETRAD
 40
0.0
  9
$AUNITS
 70
     0
  9
$AUPREC
 70
     1
  9
$MENU
  1
E:\r13\win\SUPPORT\ACAD
  9
$ELEVATION
 40
0.0
  9
$PELEVATION
 40
0.0
  9
$THICKNESS
 40
0.0
  9
$LIMCHECK
 70
     0
  9
$BLIPMODE
 70
     0
  9
$CHAMFERA
 40
0.0
  9
$CHAMFERB
 40
0.0
  9
$SKPOLY
 70
     0
  9
$TDCREATE
 40
2449840.6474999999627471
  9
$TDUPDATE
 40
2460203.4983912040479481
  9
$TDINDWG
 40
1.1525772106000001
  9
$TDUSRTIMER
 40
1.1525772106000001
  9
$USRTIMER
 70
     1
  9
$ANGBASE
 50
0.0
  9
$ANGDIR
 70
     0
  9
$PDMODE
 70
     0
  9
$PDSIZE
 40
0.0
  9
$PLINEWID
 40
0.0
  9
$COORDS
 70
     1
  9
$SPLFRAME
 70
     0
  9
$SPLINETYPE
 70
     6
  9
$SPLINESEGS
 70
     8
  9
$ATTDIA
 70
     1
  9
$ATTREQ
 70
     1
  9
$HANDLING
 70
     1
  9
$HANDSEED
  5
29F6
  9
$SURFTAB1
 70
     6
  9
$SURFTAB2
 70
     6
  9
$SURFTYPE
 70
     6
  9
$SURFU
 70
     6
  9
$SURFV
 70
     6
  9
$UCSNAME
  2

  9
$UCSORG
 10
0.0
 20
0.0
 30
0.0
  9
$UCSXDIR
 10
1.0
 20
0.0
 30
0.0
  9
$UCSYDIR
 10
0.0
 20
1.0
 30
0.0
  9
$PUCSNAME
  2

  9
$PUCSORG
 10
0.0
 20
0.0
 30
0.0
  9
$PUCSXDIR
 10
1.0
 20
0.0
 30
0.0
  9
$PUCSYDIR
 10
0.0
 20
1.0
 30
0.0
  9
$USERI1
 70
     0
  9
$USERI2
 70
     1
  9
$USERI3
 70
     0
  9
$USERI4
 70
     0
  9
$USERI5
 70
     0
  9
$USERR1
 40
0.0
  9
$USERR2
 40
0.0
  9
$USERR3
 40
0.0
  9
$USERR4
 40
0.0
  9
$USERR5
 40
0.0
  9
$WORLDVIEW
 70
     1
  9
$SHADEDGE
 70
     3
  9
$SHADEDIF
 70
    70
  9
$TILEMODE
 70
     1
  9
$MAXACTVP
 70
    16
  9
$PLIMCHECK
 70
     0
  9
$PEXTMIN
 10
1.0000000000000000E+20
 20
1.0000000000000000E+20
 30
1.0000000000000000E+20
  9
$PEXTMAX
 10
-1.0000000000000000E+20
 20
-1.0000000000000000E+20
 30
-1.0000000000000000E+20
  9
$PLIMMIN
 10
0.0
 20
0.0
  9
$PLIMMAX
 10
12.0
 20
9.0
  9
$UNITMODE
 70
     0
  9
$VISRETAIN
 70
     0
  9
$PLINEGEN
 70
     0
  9
$PSLTSCALE
 70
     0
  0
ENDSEC
  0
SECTION
  2
TABLES
  0
TABLE
  2
VPORT
 70
     1
  0
VPORT
  2
*ACTIVE
 70
     0
 10
0.0
 20
0.0
 11
1.0
 21
1.0
 12
485.8598726114648798
 22
200.0
 13
0.0
 23
0.0
 14
10.0
 24
10.0
 15
10.0
 25
10.0
 16
0.0
 26
0.0
 36
1.0
 17
0.0
 27
0.0
 37
0.0
 40
400.0
 41
2.4292993630573241
 42
50.0
 43
0.0
 44
0.0
 50
0.0
 51
0.0
 71
     0
 72
   500
 73
     1
 74
     0
 75
     0
 76
     0
 77
     0
 78
     2
  0
ENDTAB
  0
TABLE
  2
LTYPE
 70
    11
  0
LTYPE
  2
CONTINUOUS
 70
     0
  3
Solid Line
 72
    65
 73
     0
 40
0.0
  0
LTYPE
  2
CENTER
 70
     0
  3
____ _ ____ _ ____ _ ____ _ ____ _ ____ _ ____
 72
    65
 73
     4
 40
2.0
 49
1.25
 49
-0.25
 49
0.25
 49
-0.25
  0
LTYPE
  2
HIDDEN
 70
     0
  3
_ _ _ _ _ _ _ _ _ _ _ _ _ _ _ _ _ _ _ _ _ _ _
 72
    65
 73
     2
 40
0.375
 49
0.25
 49
-0.125
  0
LTYPE
  2
PHANTOM2
 70
     0
  3
Phantom (.5x) ___ _ _ ___ _ _ ___ _ _ ___ _ _
 72
    65
 73
     6
 40
1.25
 49
0.625
 49
-0.125
 49
0.125
 49
-0.125
 49
0.125
 49
-0.125
  0
LTYPE
  2
CENTER2
 70
     0
  3
Center (.5x) ___ _ ___ _ ___ _ ___ _ ___ _ ___
 72
    65
 73
     4
 40
1.125
 49
0.75
 49
-0.125
 49
0.125
 49
-0.125
  0
LTYPE
  2
HIDDEN2
 70
     0
  3
Hidden (.5x) _ _ _ _ _ _ _ _ _ _ _ _ _ _ _ _ _
 72
    65
 73
     2
 40
0.1875
 49
0.125
 49
-0.0625
  0
LTYPE
  2
ACANSTGB
 70
     0
  3
__ . . __ . .
 72
    65
 73
     6
 40
0.35433070866
 49
0.15748031496
 49
-0.03937007874
 49
0.03937007874
 49
-0.03937007874
 49
0.03937007874
 49
-0.03937007874
  0
LTYPE
  2
ACANSTGL
 70
     0
  3
_ _ _ _ _
 72
    65
 73
     2
 40
0.11811023622
 49
0.07874015748
 49
-0.03937007874
  0
LTYPE
  2
ACISOWELD
 70
     0
  3
_ _ _ _ _
 72
    65
 73
     2
 40
2.0
 49
2.0
 49
-1.0
  0
LTYPE
  2
ACISOTGL
 70
     0
  3
_ _ _ _ _
 72
    65
 73
     2
 40
3.0
 49
2.0
 49
-1.0
  0
LTYPE
  2
ACISOTGB
 70
     0
  3
__ . . __ . .
 72
    65
 73
     6
 40
9.0
 49
4.0
 49
-1.0
 49
1.0
 49
-1.0
 49
1.0
 49
-1.0
  0
ENDTAB
  0
TABLE
  2
LAYER
 70
     5
  0
LAYER
  2
0
 70
     0
 62
     7
  6
CONTINUOUS
  0
LAYER
  2
1
 70
     0
 62
     1
  6
CENTER
  0
LAYER
  2
2
 70
     0
 62
     2
  6
HIDDEN
  0
LAYER
  2
DEFPOINTS
 70
     0
 62
     7
  6
CONTINUOUS
  0
LAYER
  2
3
 70
     0
 62
     3
  6
CONTINUOUS
  0
ENDTAB
  0
TABLE
  2
STYLE
 70
     4
  0
STYLE
  2
STANDARD
 70
     0
 40
0.0
 41
1.0
 50
0.0
 71
     0
 42
0.2
  3
TXT
  4
BIGFONT
  0
STYLE
  2
STANDARD1
 70
     0
 40
0.0
 41
1.0
 50
0.0
 71
     0
 42
3.0
  3
txt
  4

  0
STYLE
  2
ACANSGDT
 70
     0
 40
0.0
 41
1.0
 50
0.0
 71
     0
 42
0.2
  3
amgdt.shx
  4

  0
STYLE
  2
ACISOGDT
 70
     0
 40
0.0
 41
1.0
 50
0.0
 71
     0
 42
2.5
  3
amgdt.shx
  4

  0
ENDTAB
  0
TABLE
  2
VIEW
 70
     1
  0
VIEW
  2
ALL
 70
     0
 40
270.0
 10
220.9915966386554942
 20
135.0
 41
0.0
 11
0.0
 21
0.0
 31
1.0
 12
0.0
 22
0.0
 32
0.0
 42
0.0
 43
0.0
 44
0.0
 50
0.0
 71
     0
  0
ENDTAB
  0
TABLE
  2
UCS
 70
     0
  0
ENDTAB
  0
TABLE
  2
APPID
 70
    22
  0
APPID
  2
ACAD
 70
     0
  0
APPID
  2
ACAD_EXEMPT_FROM_CAD_STANDARDS
 70
     0
  0
APPID
  2
ACAD_MLEADERVER
 70
     0
  0
APPID
  2
MCAD_NO_VIS
 70
     0
  0
APPID
  2
ACAD_TEMP_GRAPHIC
 70
     0
  0
APPID
  2
ACATTRIBSERVICES
 70
     0
  0
APPID
  2
DESIGNERASSEMBLIES
 70
     0
  0
APPID
  2
ACAD_DSTYLE_DIMJAG
 70
     0
  0
APPID
  2
ACAD_DSTYLE_DIMBREAK
 70
     0
  0
APPID
  2
ACAD_NAV_VCDISPLAY
 70
     0
  0
APPID
  2
ACAECLAYERSTANDARD
 70
     0
  0
APPID
  2
GENIUS_GENODEF_13
 70
     0
  0
APPID
  2
GENIUS_GENOBJ-N-CEN_13
 70
     0
  0
APPID
  2
GENIUS_GENCEN_19
 70
     0
  0
APPID
  2
GENIUS_GENDTOL_13
 70
     0
  0
APPID
  2
ACAD_DSTYLE_DIMINSPECT
 70
     0
  0
APPID
  2
ACADANNOMONITORALERTICONDI
 70
     0
  0
APPID
  2
ACAD_DSTYLE_DIMRADIAL_EXTENSION
 70
     0
  0
APPID
  2
GENIUS_GENREC_14
 70
     0
  0
APPID
  2
GENIUS_GENOBJ-N-REC_13
 70
     0
  0
APPID
  2
GENIUS_GENOBJ-N-FIL_13
 70
     0
  0
APPID
  2
ACAD_DSTYLE_DIMTALN
 70
     0
  0
ENDTAB
  0
TABLE
  2
DIMSTYLE
 70
    14
  0
DIMSTYLE
  2
STANDARD
 70
     0
  3

  4

  5

  6

  7

 40
1.0
 41
0.18
 42
0.0625
 43
0.38
 44
0.18
 45
0.0
 46
0.0
 47
0.0
 48
0.0
140
0.18
141
0.09
142
0.0
143
25.3999999999999986
144
1.0
145
0.0
146
1.0
147
0.09
 71
     0
 72
     0
 73
     1
 74
     1
 75
     0
 76
     0
 77
     0
 78
     0
170
     0
171
     2
172
     0
173
     0
174
     0
175
     0
176
     0
177
     0
178
     0
  0
DIMSTYLE
  2
AM_ANSI
 70
     0
  3

  4
mm
  5

  6

  7

 40
1.0
 41
0.12
 42
0.05
 43
0.5
 44
0.1
 45
0.0
 46
0.0
 47
0.1
 48
0.1
140
0.12
141
0.0
142
0.0
143
25.3999999999999986
144
1.0
145
0.0
146
0.71
147
0.06
 71
     0
 72
     0
 73
     1
 74
     1
 75
     0
 76
     0
 77
     0
 78
     7
170
     0
171
     2
172
     0
173
     0
174
     0
175
     0
176
   256
177
   256
178
     2
  0
DIMSTYLE
  2
AM_ANSI$3
 70
     0
  3

  4
mm
  5

  6

  7

 40
1.0
 41
0.12
 42
0.05
 43
0.5
 44
0.1
 45
0.0
 46
0.0
 47
0.1
 48
0.1
140
0.12
141
0.0
142
0.0
143
25.3999999999999986
144
1.0
145
0.0
146
0.71
147
0.06
 71
     0
 72
     0
 73
     1
 74
     1
 75
     0
 76
     0
 77
     0
 78
     7
170
     0
171
     2
172
     0
173
     0
174
     0
175
     0
176
   256
177
   256
178
     2
  0
DIMSTYLE
  2
AM_ANSI$4
 70
     0
  3

  4
mm
  5

  6

  7

 40
1.0
 41
0.12
 42
0.05
 43
0.5
 44
0.1
 45
0.0
 46
0.0
 47
0.1
 48
0.1
140
0.12
141
0.0
142
0.0
143
25.3999999999999986
144
1.0
145
0.0
146
0.71
147
0.06
 71
     0
 72
     0
 73
     1
 74
     1
 75
     0
 76
     0
 77
     0
 78
     7
170
     0
171
     2
172
     0
173
     0
174
     0
175
     0
176
   256
177
   256
178
     2
  0
DIMSTYLE
  2
AM_ANSI$7
 70
     0
  3

  4
mm
  5

  6

  7

 40
1.0
 41
0.12
 42
0.05
 43
0.5
 44
0.1
 45
0.0
 46
0.0
 47
0.1
 48
0.1
140
0.12
141
0.0
142
0.0
143
25.3999999999999986
144
1.0
145
0.0
146
0.71
147
0.06
 71
     0
 72
     0
 73
     1
 74
     1
 75
     0
 76
     0
 77
     0
 78
     7
170
     0
171
     2
172
     0
173
     0
174
     0
175
     0
176
   256
177
   256
178
     2
  0
DIMSTYLE
  2
AM_ANSI$SF
 70
     0
  3

  4
mm
  5

  6

  7

 40
1.0
 41
0.12
 42
0.05
 43
0.5
 44
0.1
 45
0.0
 46
0.0
 47
0.1
 48
0.1
140
0.12
141
0.0
142
0.0
143
25.3999999999999986
144
1.0
145
0.0
146
0.71
147
0.06
 71
     0
 72
     0
 73
     1
 74
     1
 75
     1
 76
     1
 77
     0
 78
     7
170
     0
171
     2
172
     0
173
     0
174
     0
175
     0
176
   256
177
   256
178
     2
  0
DIMSTYLE
  2
AM_ANSI$SH
 70
     0
  3

  4
mm
  5

  6
GENAXEH
  7

 40
1.0
 41
0.12
 42
0.05
 43
0.5
 44
0.1
 45
0.0
 46
0.0
 47
0.1
 48
0.1
140
0.12
141
0.0
142
0.0
143
25.3999999999999986
144
1.0
145
0.0
146
0.71
147
0.06
 71
     0
 72
     0
 73
     1
 74
     1
 75
     1
 76
     1
 77
     0
 78
     7
170
     0
171
     2
172
     0
173
     1
174
     0
175
     0
176
   256
177
   256
178
     2
  0
DIMSTYLE
  2
AM_ISO
 70
     0
  3

  4
"
  5

  6

  7

 40
1.0
 41
3.5
 42
1.0
 43
10.0
 44
1.0
 45
0.0
 46
0.0
 47
0.1
 48
0.1
140
3.5
141
0.0
142
0.0
143
0.0393701
144
1.0
145
0.0
146
0.71
147
1.5
 71
     0
 72
     0
 73
     0
 74
     0
 75
     0
 76
     0
 77
     1
 78
     8
170
     0
171
     2
172
     1
173
     0
174
     0
175
     0
176
   256
177
   256
178
     2
  0
DIMSTYLE
  2
AM_ISO$3
 70
     0
  3

  4
"
  5

  6

  7

 40
1.0
 41
3.5
 42
1.0
 43
10.0
 44
1.0
 45
0.0
 46
0.0
 47
0.1
 48
0.1
140
3.5
141
0.0
142
0.0
143
0.0393701
144
1.0
145
0.0
146
0.71
147
1.5
 71
     0
 72
     0
 73
     0
 74
     1
 75
     0
 76
     0
 77
     1
 78
     8
170
     0
171
     2
172
     0
173
     0
174
     0
175
     0
176
   256
177
   256
178
     2
  0
DIMSTYLE
  2
AM_ISO$4
 70
     0
  3

  4
"
  5

  6

  7

 40
1.0
 41
3.5
 42
1.0
 43
10.0
 44
1.0
 45
0.0
 46
0.0
 47
0.1
 48
0.1
140
3.5
141
0.0
142
0.0
143
0.0393701
144
1.0
145
0.0
146
0.71
147
1.5
 71
     0
 72
     0
 73
     0
 74
     1
 75
     0
 76
     0
 77
     1
 78
     8
170
     0
171
     2
172
     0
173
     0
174
     0
175
     0
176
   256
177
   256
178
     2
  0
DIMSTYLE
  2
AM_ISO$6
 70
     0
  3

  4
"
  5

  6

  7

 40
1.0
 41
3.5
 42
1.0
 43
10.0
 44
1.0
 45
0.0
 46
0.0
 47
0.1
 48
0.1
140
3.5
141
0.0
142
0.0
143
0.0393701
144
1.0
145
0.0
146
0.71
147
1.5
 71
     0
 72
     0
 73
     0
 74
     0
 75
     0
 76
     0
 77
     0
 78
     8
170
     0
171
     2
172
     1
173
     0
174
     0
175
     0
176
   256
177
   256
178
     2
  0
DIMSTYLE
  2
AM_ISO$7
 70
     0
  3

  4
"
  5

  6

  7

 40
1.0
 41
3.5
 42
1.0
 43
10.0
 44
1.0
 45
0.0
 46
0.0
 47
0.1
 48
0.1
140
3.5
141
0.0
142
0.0
143
0.0393701
144
1.0
145
0.0
146
0.71
147
1.5
 71
     0
 72
     0
 73
     0
 74
     0
 75
     0
 76
     0
 77
     1
 78
     8
170
     0
171
     2
172
     1
173
     0
174
     0
175
     0
176
   256
177
   256
178
     2
  0
DIMSTYLE
  2
AM_ISO$SF
 70
     0
  3

  4
"
  5

  6

  7

 40
1.0
 41
3.5
 42
1.0
 43
10.0
 44
1.0
 45
0.0
 46
0.0
 47
0.1
 48
0.1
140
3.5
141
0.0
142
0.0
143
0.0393701
144
1.0
145
0.0
146
0.71
147
1.5
 71
     0
 72
     0
 73
     0
 74
     0
 75
     1
 76
     1
 77
     1
 78
     8
170
     0
171
     2
172
     1
173
     0
174
     0
175
     0
176
   256
177
   256
178
     2
  0
DIMSTYLE
  2
AM_ISO$SH
 70
     0
  3

  4
"
  5

  6
GENAXEH
  7

 40
1.0
 41
3.5
 42
1.0
 43
10.0
 44
1.0
 45
0.0
 46
0.0
 47
0.1
 48
0.1
140
3.5
141
0.0
142
0.0
143
0.0393701
144
2.0
145
0.0
146
0.71
147
1.5
 71
     0
 72
     0
 73
     0
 74
     0
 75
     1
 76
     1
 77
     1
 78
     8
170
     0
171
     2
172
     1
173
     1
174
     0
175
     0
176
   256
177
   256
178
     2
  0
ENDTAB
  0
ENDSEC
  0
SECTION
  2
BLOCKS
  0
BLOCK
  8
0
  2
$MODEL_SPACE
 70
     0
 10
0.0
 20
0.0
 30
0.0
  3
$MODEL_SPACE
  1

  0
ENDBLK
  5
AA
  8
0
  0
BLOCK
 67
     1
  8
0
  2
$PAPER_SPACE
 70
     0
 10
0.0
 20
0.0
 30
0.0
  3
$PAPER_SPACE
  1

  0
ENDBLK
  5
A8
 67
     1
  8
0
  0
BLOCK
  8
0
  2
*U0
 70
     1
 10
0.0
 20
0.0
 30
0.0
  3
*U0
  1

  0
ENDBLK
  5
20F
  8
0
  0
BLOCK
  8
0
  2
GENAXEH
 70
     0
 10
0.0
 20
0.0
 30
0.0
  3
GENAXEH
  1

  0
LINE
  5
239
  8
0
 10
-1.0
 20
0.0
 30
0.0
 11
1.0
 21
0.0
 31
0.0
  0
ENDBLK
  5
23B
  8
0
  0
ENDSEC
  0
SECTION
  2
ENTITIES
  0
TEXT
  5
1CC
  8
0
 62
     3
 10
0.0
 20
0.0
 30
0.0
 40
10.0
  1
TCC30-AP-S-B
  7
STANDARD1
  0
ARC
  5
23DD
  8
0
 10
190.850000000000108
 20
232.6499999999996078
 30
0.0
 40
0.6499999999998636
 50
269.9999999999902229
 51
0.0000000000130276
  0
ARC
  5
23DE
  8
0
 10
179.149999999999892
 20
232.6499999999996078
 30
0.0
 40
0.649999999999892
 50
179.9999999999870113
 51
270.0000000000130171
  0
LINE
  5
23DF
  8
0
 10
191.5
 20
232.6499999999998067
 30
0.0
 11
191.5
 21
236.0
 31
0.0
  0
LINE
  5
23E0
  8
0
 10
178.5
 20
235.9999999999998863
 30
0.0
 11
178.5
 21
232.6499999999998067
 31
0.0
  0
LINE
  5
23E1
  8
0
 10
189.0
 20
247.75
 30
0.0
 11
189.0
 21
252.2499999999998863
 31
0.0
  0
LINE
  5
23E2
  8
0
 10
181.0
 20
252.2499999999998863
 30
0.0
 11
181.0
 21
247.7499999999998863
 31
0.0
  0
LINE
  5
23E3
  8
0
 10
191.5
 20
265.2000000000001023
 30
0.0
 11
190.7497422611926936
 21
268.0
 31
0.0
  0
LINE
  5
23E4
  8
0
 10
179.2502577388069938
 20
267.9999999999998863
 30
0.0
 11
178.4999999999998863
 21
265.1999999999998749
 31
0.0
  0
LINE
  5
23E5
  8
0
 10
195.999999999999801
 20
271.0000000000001137
 30
0.0
 11
163.8350167000197928
 21
270.9999999999998863
 31
0.0
  0
LINE
  5
23E6
  8
0
 10
163.8349804994583963
 20
228.9999999999998863
 30
0.0
 11
196.0000000000007958
 21
229.0000000000001137
 31
0.0
  0
LINE
  5
23EE
  8
0
 10
190.8499999999999091
 20
231.999999999999801
 30
0.0
 11
179.149999999999892
 21
231.999999999999801
 31
0.0
  0
LINE
  5
23EF
  8
0
 10
179.2502577388069938
 20
267.9999999999998863
 30
0.0
 11
190.7497422611926936
 21
268.0
 31
0.0
  0
LINE
  5
23F0
  8
0
 10
172.6880572962159022
 20
252.2499999999998863
 30
0.0
 11
172.6880572962157885
 21
263.9999999999998863
 31
0.0
  0
LINE
  5
23F1
  8
0
 10
196.0
 20
264.0000000000001137
 30
0.0
 11
169.3768012538720882
 21
264.0000001867427954
 31
0.0
  0
LINE
  5
23F2
  8
0
 10
196.0
 20
252.25
 30
0.0
 11
170.1999999999999886
 21
252.2499999999998863
 31
0.0
  0
LINE
  5
23F3
  8
0
 10
196.0
 20
236.0000000000001137
 30
0.0
 11
169.3768013117118869
 21
235.999999997952699
 31
0.0
  0
LINE
  5
23F4
  8
0
 10
172.6880572962159022
 20
235.999999999999801
 30
0.0
 11
172.6880572962159022
 21
247.7499999999998863
 31
0.0
  0
LINE
  5
23F5
  8
0
 10
170.1999999999999886
 20
247.7499999999998863
 30
0.0
 11
196.0
 21
247.75
 31
0.0
  0
POLYLINE
  5
23F6
  8
0
 10
163.8350455544724582
 20
229.999999999999801
 30
0.0
 66
     1
 70
     8
  0
VERTEX
  8
0
  5
276C
 10
163.835
 20
230.000
 30
0.00000
  70
    32
  0
VERTEX
  8
0
  5
276D
 10
163.916
 20
230.001
 30
0.00000
  70
    32
  0
VERTEX
  8
0
  5
276E
 10
163.996
 20
230.005
 30
0.00000
  70
    32
  0
VERTEX
  8
0
  5
276F
 10
164.077
 20
230.012
 30
0.00000
  70
    32
  0
VERTEX
  8
0
  5
2770
 10
164.158
 20
230.021
 30
0.00000
  70
    32
  0
VERTEX
  8
0
  5
2771
 10
164.238
 20
230.032
 30
0.00000
  70
    32
  0
VERTEX
  8
0
  5
2772
 10
164.319
 20
230.047
 30
0.00000
  70
    32
  0
VERTEX
  8
0
  5
2773
 10
164.399
 20
230.064
 30
0.00000
  70
    32
  0
VERTEX
  8
0
  5
2774
 10
164.479
 20
230.083
 30
0.00000
  70
    32
  0
VERTEX
  8
0
  5
2775
 10
164.560
 20
230.105
 30
0.00000
  70
    32
  0
VERTEX
  8
0
  5
2776
 10
164.640
 20
230.130
 30
0.00000
  70
    32
  0
VERTEX
  8
0
  5
2777
 10
164.720
 20
230.157
 30
0.00000
  70
    32
  0
VERTEX
  8
0
  5
2778
 10
164.800
 20
230.187
 30
0.00000
  70
    32
  0
VERTEX
  8
0
  5
2779
 10
164.880
 20
230.219
 30
0.00000
  70
    32
  0
VERTEX
  8
0
  5
277A
 10
164.960
 20
230.254
 30
0.00000
  70
    32
  0
VERTEX
  8
0
  5
277B
 10
165.039
 20
230.291
 30
0.00000
  70
    32
  0
VERTEX
  8
0
  5
277C
 10
165.118
 20
230.331
 30
0.00000
  70
    32
  0
VERTEX
  8
0
  5
277D
 10
165.198
 20
230.374
 30
0.00000
  70
    32
  0
VERTEX
  8
0
  5
277E
 10
165.277
 20
230.419
 30
0.00000
  70
    32
  0
VERTEX
  8
0
  5
277F
 10
165.356
 20
230.467
 30
0.00000
  70
    32
  0
VERTEX
  8
0
  5
2780
 10
165.434
 20
230.517
 30
0.00000
  70
    32
  0
VERTEX
  8
0
  5
2781
 10
165.513
 20
230.570
 30
0.00000
  70
    32
  0
VERTEX
  8
0
  5
2782
 10
165.591
 20
230.625
 30
0.00000
  70
    32
  0
VERTEX
  8
0
  5
2783
 10
165.669
 20
230.682
 30
0.00000
  70
    32
  0
VERTEX
  8
0
  5
2784
 10
165.747
 20
230.743
 30
0.00000
  70
    32
  0
VERTEX
  8
0
  5
2785
 10
165.824
 20
230.806
 30
0.00000
  70
    32
  0
VERTEX
  8
0
  5
2786
 10
165.902
 20
230.871
 30
0.00000
  70
    32
  0
VERTEX
  8
0
  5
2787
 10
165.979
 20
230.938
 30
0.00000
  70
    32
  0
VERTEX
  8
0
  5
2788
 10
166.055
 20
231.009
 30
0.00000
  70
    32
  0
VERTEX
  8
0
  5
2789
 10
166.132
 20
231.081
 30
0.00000
  70
    32
  0
VERTEX
  8
0
  5
278A
 10
166.208
 20
231.156
 30
0.00000
  70
    32
  0
VERTEX
  8
0
  5
278B
 10
166.284
 20
231.234
 30
0.00000
  70
    32
  0
VERTEX
  8
0
  5
278C
 10
166.359
 20
231.314
 30
0.00000
  70
    32
  0
VERTEX
  8
0
  5
278D
 10
166.435
 20
231.396
 30
0.00000
  70
    32
  0
VERTEX
  8
0
  5
278E
 10
166.509
 20
231.481
 30
0.00000
  70
    32
  0
VERTEX
  8
0
  5
278F
 10
166.584
 20
231.569
 30
0.00000
  70
    32
  0
VERTEX
  8
0
  5
2790
 10
166.658
 20
231.658
 30
0.00000
  70
    32
  0
VERTEX
  8
0
  5
2791
 10
166.732
 20
231.750
 30
0.00000
  70
    32
  0
VERTEX
  8
0
  5
2792
 10
166.805
 20
231.845
 30
0.00000
  70
    32
  0
VERTEX
  8
0
  5
2793
 10
166.878
 20
231.941
 30
0.00000
  70
    32
  0
VERTEX
  8
0
  5
2794
 10
166.951
 20
232.040
 30
0.00000
  70
    32
  0
VERTEX
  8
0
  5
2795
 10
167.023
 20
232.142
 30
0.00000
  70
    32
  0
VERTEX
  8
0
  5
2796
 10
167.095
 20
232.246
 30
0.00000
  70
    32
  0
VERTEX
  8
0
  5
2797
 10
167.166
 20
232.352
 30
0.00000
  70
    32
  0
VERTEX
  8
0
  5
2798
 10
167.237
 20
232.460
 30
0.00000
  70
    32
  0
VERTEX
  8
0
  5
2799
 10
167.308
 20
232.571
 30
0.00000
  70
    32
  0
VERTEX
  8
0
  5
279A
 10
167.378
 20
232.683
 30
0.00000
  70
    32
  0
VERTEX
  8
0
  5
279B
 10
167.448
 20
232.799
 30
0.00000
  70
    32
  0
VERTEX
  8
0
  5
279C
 10
167.517
 20
232.916
 30
0.00000
  70
    32
  0
VERTEX
  8
0
  5
279D
 10
167.585
 20
233.035
 30
0.00000
  70
    32
  0
VERTEX
  8
0
  5
279E
 10
167.654
 20
233.157
 30
0.00000
  70
    32
  0
VERTEX
  8
0
  5
279F
 10
167.721
 20
233.281
 30
0.00000
  70
    32
  0
VERTEX
  8
0
  5
27A0
 10
167.788
 20
233.407
 30
0.00000
  70
    32
  0
VERTEX
  8
0
  5
27A1
 10
167.855
 20
233.535
 30
0.00000
  70
    32
  0
VERTEX
  8
0
  5
27A2
 10
167.921
 20
233.666
 30
0.00000
  70
    32
  0
VERTEX
  8
0
  5
27A3
 10
167.987
 20
233.798
 30
0.00000
  70
    32
  0
VERTEX
  8
0
  5
27A4
 10
168.052
 20
233.933
 30
0.00000
  70
    32
  0
VERTEX
  8
0
  5
27A5
 10
168.116
 20
234.070
 30
0.00000
  70
    32
  0
VERTEX
  8
0
  5
27A6
 10
168.180
 20
234.209
 30
0.00000
  70
    32
  0
VERTEX
  8
0
  5
27A7
 10
168.244
 20
234.349
 30
0.00000
  70
    32
  0
VERTEX
  8
0
  5
27A8
 10
168.307
 20
234.492
 30
0.00000
  70
    32
  0
VERTEX
  8
0
  5
27A9
 10
168.369
 20
234.637
 30
0.00000
  70
    32
  0
VERTEX
  8
0
  5
27AA
 10
168.430
 20
234.784
 30
0.00000
  70
    32
  0
VERTEX
  8
0
  5
27AB
 10
168.492
 20
234.933
 30
0.00000
  70
    32
  0
VERTEX
  8
0
  5
27AC
 10
168.552
 20
235.084
 30
0.00000
  70
    32
  0
VERTEX
  8
0
  5
27AD
 10
168.612
 20
235.236
 30
0.00000
  70
    32
  0
VERTEX
  8
0
  5
27AE
 10
168.671
 20
235.391
 30
0.00000
  70
    32
  0
VERTEX
  8
0
  5
27AF
 10
168.730
 20
235.547
 30
0.00000
  70
    32
  0
VERTEX
  8
0
  5
27B0
 10
168.788
 20
235.706
 30
0.00000
  70
    32
  0
VERTEX
  8
0
  5
27B1
 10
168.845
 20
235.866
 30
0.00000
  70
    32
  0
VERTEX
  8
0
  5
27B2
 10
168.902
 20
236.028
 30
0.00000
  70
    32
  0
VERTEX
  8
0
  5
27B3
 10
168.958
 20
236.192
 30
0.00000
  70
    32
  0
VERTEX
  8
0
  5
27B4
 10
169.013
 20
236.358
 30
0.00000
  70
    32
  0
VERTEX
  8
0
  5
27B5
 10
169.068
 20
236.525
 30
0.00000
  70
    32
  0
VERTEX
  8
0
  5
27B6
 10
169.122
 20
236.695
 30
0.00000
  70
    32
  0
VERTEX
  8
0
  5
27B7
 10
169.175
 20
236.866
 30
0.00000
  70
    32
  0
VERTEX
  8
0
  5
27B8
 10
169.228
 20
237.038
 30
0.00000
  70
    32
  0
VERTEX
  8
0
  5
27B9
 10
169.280
 20
237.213
 30
0.00000
  70
    32
  0
VERTEX
  8
0
  5
27BA
 10
169.331
 20
237.389
 30
0.00000
  70
    32
  0
VERTEX
  8
0
  5
27BB
 10
169.381
 20
237.566
 30
0.00000
  70
    32
  0
VERTEX
  8
0
  5
27BC
 10
169.431
 20
237.745
 30
0.00000
  70
    32
  0
VERTEX
  8
0
  5
27BD
 10
169.480
 20
237.926
 30
0.00000
  70
    32
  0
VERTEX
  8
0
  5
27BE
 10
169.528
 20
238.109
 30
0.00000
  70
    32
  0
VERTEX
  8
0
  5
27BF
 10
169.576
 20
238.293
 30
0.00000
  70
    32
  0
VERTEX
  8
0
  5
27C0
 10
169.623
 20
238.478
 30
0.00000
  70
    32
  0
VERTEX
  8
0
  5
27C1
 10
169.669
 20
238.665
 30
0.00000
  70
    32
  0
VERTEX
  8
0
  5
27C2
 10
169.714
 20
238.853
 30
0.00000
  70
    32
  0
VERTEX
  8
0
  5
27C3
 10
169.759
 20
239.043
 30
0.00000
  70
    32
  0
VERTEX
  8
0
  5
27C4
 10
169.803
 20
239.235
 30
0.00000
  70
    32
  0
VERTEX
  8
0
  5
27C5
 10
169.846
 20
239.427
 30
0.00000
  70
    32
  0
VERTEX
  8
0
  5
27C6
 10
169.888
 20
239.621
 30
0.00000
  70
    32
  0
VERTEX
  8
0
  5
27C7
 10
169.929
 20
239.817
 30
0.00000
  70
    32
  0
VERTEX
  8
0
  5
27C8
 10
169.970
 20
240.014
 30
0.00000
  70
    32
  0
VERTEX
  8
0
  5
27C9
 10
170.010
 20
240.212
 30
0.00000
  70
    32
  0
VERTEX
  8
0
  5
27CA
 10
170.049
 20
240.411
 30
0.00000
  70
    32
  0
VERTEX
  8
0
  5
27CB
 10
170.087
 20
240.611
 30
0.00000
  70
    32
  0
VERTEX
  8
0
  5
27CC
 10
170.125
 20
240.813
 30
0.00000
  70
    32
  0
VERTEX
  8
0
  5
27CD
 10
170.161
 20
241.016
 30
0.00000
  70
    32
  0
VERTEX
  8
0
  5
27CE
 10
170.197
 20
241.220
 30
0.00000
  70
    32
  0
VERTEX
  8
0
  5
27CF
 10
170.232
 20
241.426
 30
0.00000
  70
    32
  0
VERTEX
  8
0
  5
27D0
 10
170.266
 20
241.632
 30
0.00000
  70
    32
  0
VERTEX
  8
0
  5
27D1
 10
170.300
 20
241.839
 30
0.00000
  70
    32
  0
VERTEX
  8
0
  5
27D2
 10
170.332
 20
242.048
 30
0.00000
  70
    32
  0
VERTEX
  8
0
  5
27D3
 10
170.364
 20
242.257
 30
0.00000
  70
    32
  0
VERTEX
  8
0
  5
27D4
 10
170.395
 20
242.468
 30
0.00000
  70
    32
  0
VERTEX
  8
0
  5
27D5
 10
170.425
 20
242.680
 30
0.00000
  70
    32
  0
VERTEX
  8
0
  5
27D6
 10
170.454
 20
242.892
 30
0.00000
  70
    32
  0
VERTEX
  8
0
  5
27D7
 10
170.482
 20
243.105
 30
0.00000
  70
    32
  0
VERTEX
  8
0
  5
27D8
 10
170.509
 20
243.320
 30
0.00000
  70
    32
  0
VERTEX
  8
0
  5
27D9
 10
170.536
 20
243.535
 30
0.00000
  70
    32
  0
VERTEX
  8
0
  5
27DA
 10
170.562
 20
243.751
 30
0.00000
  70
    32
  0
VERTEX
  8
0
  5
27DB
 10
170.586
 20
243.968
 30
0.00000
  70
    32
  0
VERTEX
  8
0
  5
27DC
 10
170.610
 20
244.185
 30
0.00000
  70
    32
  0
VERTEX
  8
0
  5
27DD
 10
170.633
 20
244.404
 30
0.00000
  70
    32
  0
VERTEX
  8
0
  5
27DE
 10
170.655
 20
244.623
 30
0.00000
  70
    32
  0
VERTEX
  8
0
  5
27DF
 10
170.677
 20
244.842
 30
0.00000
  70
    32
  0
VERTEX
  8
0
  5
27E0
 10
170.697
 20
245.063
 30
0.00000
  70
    32
  0
VERTEX
  8
0
  5
27E1
 10
170.716
 20
245.284
 30
0.00000
  70
    32
  0
VERTEX
  8
0
  5
27E2
 10
170.735
 20
245.506
 30
0.00000
  70
    32
  0
VERTEX
  8
0
  5
27E3
 10
170.753
 20
245.728
 30
0.00000
  70
    32
  0
VERTEX
  8
0
  5
27E4
 10
170.769
 20
245.951
 30
0.00000
  70
    32
  0
VERTEX
  8
0
  5
27E5
 10
170.785
 20
246.174
 30
0.00000
  70
    32
  0
VERTEX
  8
0
  5
27E6
 10
170.800
 20
246.398
 30
0.00000
  70
    32
  0
VERTEX
  8
0
  5
27E7
 10
170.814
 20
246.622
 30
0.00000
  70
    32
  0
VERTEX
  8
0
  5
27E8
 10
170.828
 20
246.847
 30
0.00000
  70
    32
  0
VERTEX
  8
0
  5
27E9
 10
170.840
 20
247.072
 30
0.00000
  70
    32
  0
VERTEX
  8
0
  5
27EA
 10
170.851
 20
247.298
 30
0.00000
  70
    32
  0
VERTEX
  8
0
  5
27EB
 10
170.862
 20
247.524
 30
0.00000
  70
    32
  0
VERTEX
  8
0
  5
27EC
 10
170.871
 20
247.750
 30
0.00000
  70
    32
  0
SEQEND
  8
0
  5
27ED
  0
POLYLINE
  5
23F7
  8
0
 10
170.8710892101136096
 20
252.2500000000931664
 30
0.0
 66
     1
 70
     8
  0
VERTEX
  8
0
  5
27EE
 10
170.871
 20
252.250
 30
0.00000
  70
    32
  0
VERTEX
  8
0
  5
27EF
 10
170.862
 20
252.476
 30
0.00000
  70
    32
  0
VERTEX
  8
0
  5
27F0
 10
170.851
 20
252.702
 30
0.00000
  70
    32
  0
VERTEX
  8
0
  5
27F1
 10
170.840
 20
252.928
 30
0.00000
  70
    32
  0
VERTEX
  8
0
  5
27F2
 10
170.828
 20
253.153
 30
0.00000
  70
    32
  0
VERTEX
  8
0
  5
27F3
 10
170.814
 20
253.378
 30
0.00000
  70
    32
  0
VERTEX
  8
0
  5
27F4
 10
170.800
 20
253.602
 30
0.00000
  70
    32
  0
VERTEX
  8
0
  5
27F5
 10
170.785
 20
253.826
 30
0.00000
  70
    32
  0
VERTEX
  8
0
  5
27F6
 10
170.769
 20
254.049
 30
0.00000
  70
    32
  0
VERTEX
  8
0
  5
27F7
 10
170.753
 20
254.272
 30
0.00000
  70
    32
  0
VERTEX
  8
0
  5
27F8
 10
170.735
 20
254.494
 30
0.00000
  70
    32
  0
VERTEX
  8
0
  5
27F9
 10
170.716
 20
254.716
 30
0.00000
  70
    32
  0
VERTEX
  8
0
  5
27FA
 10
170.697
 20
254.937
 30
0.00000
  70
    32
  0
VERTEX
  8
0
  5
27FB
 10
170.677
 20
255.158
 30
0.00000
  70
    32
  0
VERTEX
  8
0
  5
27FC
 10
170.655
 20
255.377
 30
0.00000
  70
    32
  0
VERTEX
  8
0
  5
27FD
 10
170.633
 20
255.596
 30
0.00000
  70
    32
  0
VERTEX
  8
0
  5
27FE
 10
170.610
 20
255.815
 30
0.00000
  70
    32
  0
VERTEX
  8
0
  5
27FF
 10
170.586
 20
256.032
 30
0.00000
  70
    32
  0
VERTEX
  8
0
  5
2800
 10
170.562
 20
256.249
 30
0.00000
  70
    32
  0
VERTEX
  8
0
  5
2801
 10
170.536
 20
256.465
 30
0.00000
  70
    32
  0
VERTEX
  8
0
  5
2802
 10
170.509
 20
256.680
 30
0.00000
  70
    32
  0
VERTEX
  8
0
  5
2803
 10
170.482
 20
256.895
 30
0.00000
  70
    32
  0
VERTEX
  8
0
  5
2804
 10
170.454
 20
257.108
 30
0.00000
  70
    32
  0
VERTEX
  8
0
  5
2805
 10
170.425
 20
257.320
 30
0.00000
  70
    32
  0
VERTEX
  8
0
  5
2806
 10
170.395
 20
257.532
 30
0.00000
  70
    32
  0
VERTEX
  8
0
  5
2807
 10
170.364
 20
257.743
 30
0.00000
  70
    32
  0
VERTEX
  8
0
  5
2808
 10
170.332
 20
257.952
 30
0.00000
  70
    32
  0
VERTEX
  8
0
  5
2809
 10
170.300
 20
258.161
 30
0.00000
  70
    32
  0
VERTEX
  8
0
  5
280A
 10
170.266
 20
258.368
 30
0.00000
  70
    32
  0
VERTEX
  8
0
  5
280B
 10
170.232
 20
258.574
 30
0.00000
  70
    32
  0
VERTEX
  8
0
  5
280C
 10
170.197
 20
258.780
 30
0.00000
  70
    32
  0
VERTEX
  8
0
  5
280D
 10
170.161
 20
258.984
 30
0.00000
  70
    32
  0
VERTEX
  8
0
  5
280E
 10
170.125
 20
259.187
 30
0.00000
  70
    32
  0
VERTEX
  8
0
  5
280F
 10
170.087
 20
259.389
 30
0.00000
  70
    32
  0
VERTEX
  8
0
  5
2810
 10
170.049
 20
259.589
 30
0.00000
  70
    32
  0
VERTEX
  8
0
  5
2811
 10
170.010
 20
259.788
 30
0.00000
  70
    32
  0
VERTEX
  8
0
  5
2812
 10
169.970
 20
259.986
 30
0.00000
  70
    32
  0
VERTEX
  8
0
  5
2813
 10
169.929
 20
260.183
 30
0.00000
  70
    32
  0
VERTEX
  8
0
  5
2814
 10
169.888
 20
260.379
 30
0.00000
  70
    32
  0
VERTEX
  8
0
  5
2815
 10
169.846
 20
260.573
 30
0.00000
  70
    32
  0
VERTEX
  8
0
  5
2816
 10
169.803
 20
260.765
 30
0.00000
  70
    32
  0
VERTEX
  8
0
  5
2817
 10
169.759
 20
260.957
 30
0.00000
  70
    32
  0
VERTEX
  8
0
  5
2818
 10
169.714
 20
261.147
 30
0.00000
  70
    32
  0
VERTEX
  8
0
  5
2819
 10
169.669
 20
261.335
 30
0.00000
  70
    32
  0
VERTEX
  8
0
  5
281A
 10
169.623
 20
261.522
 30
0.00000
  70
    32
  0
VERTEX
  8
0
  5
281B
 10
169.576
 20
261.707
 30
0.00000
  70
    32
  0
VERTEX
  8
0
  5
281C
 10
169.528
 20
261.891
 30
0.00000
  70
    32
  0
VERTEX
  8
0
  5
281D
 10
169.480
 20
262.074
 30
0.00000
  70
    32
  0
VERTEX
  8
0
  5
281E
 10
169.431
 20
262.255
 30
0.00000
  70
    32
  0
VERTEX
  8
0
  5
281F
 10
169.381
 20
262.434
 30
0.00000
  70
    32
  0
VERTEX
  8
0
  5
2820
 10
169.331
 20
262.611
 30
0.00000
  70
    32
  0
VERTEX
  8
0
  5
2821
 10
169.280
 20
262.787
 30
0.00000
  70
    32
  0
VERTEX
  8
0
  5
2822
 10
169.228
 20
262.962
 30
0.00000
  70
    32
  0
VERTEX
  8
0
  5
2823
 10
169.175
 20
263.134
 30
0.00000
  70
    32
  0
VERTEX
  8
0
  5
2824
 10
169.122
 20
263.305
 30
0.00000
  70
    32
  0
VERTEX
  8
0
  5
2825
 10
169.068
 20
263.475
 30
0.00000
  70
    32
  0
VERTEX
  8
0
  5
2826
 10
169.013
 20
263.642
 30
0.00000
  70
    32
  0
VERTEX
  8
0
  5
2827
 10
168.958
 20
263.808
 30
0.00000
  70
    32
  0
VERTEX
  8
0
  5
2828
 10
168.902
 20
263.972
 30
0.00000
  70
    32
  0
VERTEX
  8
0
  5
2829
 10
168.845
 20
264.134
 30
0.00000
  70
    32
  0
VERTEX
  8
0
  5
282A
 10
168.788
 20
264.294
 30
0.00000
  70
    32
  0
VERTEX
  8
0
  5
282B
 10
168.730
 20
264.453
 30
0.00000
  70
    32
  0
VERTEX
  8
0
  5
282C
 10
168.671
 20
264.609
 30
0.00000
  70
    32
  0
VERTEX
  8
0
  5
282D
 10
168.612
 20
264.764
 30
0.00000
  70
    32
  0
VERTEX
  8
0
  5
282E
 10
168.552
 20
264.916
 30
0.00000
  70
    32
  0
VERTEX
  8
0
  5
282F
 10
168.492
 20
265.067
 30
0.00000
  70
    32
  0
VERTEX
  8
0
  5
2830
 10
168.430
 20
265.216
 30
0.00000
  70
    32
  0
VERTEX
  8
0
  5
2831
 10
168.369
 20
265.363
 30
0.00000
  70
    32
  0
VERTEX
  8
0
  5
2832
 10
168.307
 20
265.508
 30
0.00000
  70
    32
  0
VERTEX
  8
0
  5
2833
 10
168.244
 20
265.651
 30
0.00000
  70
    32
  0
VERTEX
  8
0
  5
2834
 10
168.180
 20
265.791
 30
0.00000
  70
    32
  0
VERTEX
  8
0
  5
2835
 10
168.116
 20
265.930
 30
0.00000
  70
    32
  0
VERTEX
  8
0
  5
2836
 10
168.052
 20
266.067
 30
0.00000
  70
    32
  0
VERTEX
  8
0
  5
2837
 10
167.987
 20
266.202
 30
0.00000
  70
    32
  0
VERTEX
  8
0
  5
2838
 10
167.921
 20
266.334
 30
0.00000
  70
    32
  0
VERTEX
  8
0
  5
2839
 10
167.855
 20
266.465
 30
0.00000
  70
    32
  0
VERTEX
  8
0
  5
283A
 10
167.788
 20
266.593
 30
0.00000
  70
    32
  0
VERTEX
  8
0
  5
283B
 10
167.721
 20
266.719
 30
0.00000
  70
    32
  0
VERTEX
  8
0
  5
283C
 10
167.654
 20
266.843
 30
0.00000
  70
    32
  0
VERTEX
  8
0
  5
283D
 10
167.585
 20
266.965
 30
0.00000
  70
    32
  0
VERTEX
  8
0
  5
283E
 10
167.517
 20
267.084
 30
0.00000
  70
    32
  0
VERTEX
  8
0
  5
283F
 10
167.448
 20
267.201
 30
0.00000
  70
    32
  0
VERTEX
  8
0
  5
2840
 10
167.378
 20
267.317
 30
0.00000
  70
    32
  0
VERTEX
  8
0
  5
2841
 10
167.308
 20
267.429
 30
0.00000
  70
    32
  0
VERTEX
  8
0
  5
2842
 10
167.237
 20
267.540
 30
0.00000
  70
    32
  0
VERTEX
  8
0
  5
2843
 10
167.166
 20
267.648
 30
0.00000
  70
    32
  0
VERTEX
  8
0
  5
2844
 10
167.095
 20
267.754
 30
0.00000
  70
    32
  0
VERTEX
  8
0
  5
2845
 10
167.023
 20
267.858
 30
0.00000
  70
    32
  0
VERTEX
  8
0
  5
2846
 10
166.951
 20
267.960
 30
0.00000
  70
    32
  0
VERTEX
  8
0
  5
2847
 10
166.878
 20
268.059
 30
0.00000
  70
    32
  0
VERTEX
  8
0
  5
2848
 10
166.805
 20
268.155
 30
0.00000
  70
    32
  0
VERTEX
  8
0
  5
2849
 10
166.732
 20
268.250
 30
0.00000
  70
    32
  0
VERTEX
  8
0
  5
284A
 10
166.658
 20
268.342
 30
0.00000
  70
    32
  0
VERTEX
  8
0
  5
284B
 10
166.584
 20
268.431
 30
0.00000
  70
    32
  0
VERTEX
  8
0
  5
284C
 10
166.509
 20
268.519
 30
0.00000
  70
    32
  0
VERTEX
  8
0
  5
284D
 10
166.435
 20
268.604
 30
0.00000
  70
    32
  0
VERTEX
  8
0
  5
284E
 10
166.359
 20
268.686
 30
0.00000
  70
    32
  0
VERTEX
  8
0
  5
284F
 10
166.284
 20
268.766
 30
0.00000
  70
    32
  0
VERTEX
  8
0
  5
2850
 10
166.208
 20
268.844
 30
0.00000
  70
    32
  0
VERTEX
  8
0
  5
2851
 10
166.132
 20
268.919
 30
0.00000
  70
    32
  0
VERTEX
  8
0
  5
2852
 10
166.055
 20
268.991
 30
0.00000
  70
    32
  0
VERTEX
  8
0
  5
2853
 10
165.979
 20
269.062
 30
0.00000
  70
    32
  0
VERTEX
  8
0
  5
2854
 10
165.902
 20
269.129
 30
0.00000
  70
    32
  0
VERTEX
  8
0
  5
2855
 10
165.824
 20
269.194
 30
0.00000
  70
    32
  0
VERTEX
  8
0
  5
2856
 10
165.747
 20
269.257
 30
0.00000
  70
    32
  0
VERTEX
  8
0
  5
2857
 10
165.669
 20
269.318
 30
0.00000
  70
    32
  0
VERTEX
  8
0
  5
2858
 10
165.591
 20
269.375
 30
0.00000
  70
    32
  0
VERTEX
  8
0
  5
2859
 10
165.513
 20
269.430
 30
0.00000
  70
    32
  0
VERTEX
  8
0
  5
285A
 10
165.434
 20
269.483
 30
0.00000
  70
    32
  0
VERTEX
  8
0
  5
285B
 10
165.356
 20
269.533
 30
0.00000
  70
    32
  0
VERTEX
  8
0
  5
285C
 10
165.277
 20
269.581
 30
0.00000
  70
    32
  0
VERTEX
  8
0
  5
285D
 10
165.198
 20
269.626
 30
0.00000
  70
    32
  0
VERTEX
  8
0
  5
285E
 10
165.118
 20
269.669
 30
0.00000
  70
    32
  0
VERTEX
  8
0
  5
285F
 10
165.039
 20
269.709
 30
0.00000
  70
    32
  0
VERTEX
  8
0
  5
2860
 10
164.960
 20
269.746
 30
0.00000
  70
    32
  0
VERTEX
  8
0
  5
2861
 10
164.880
 20
269.781
 30
0.00000
  70
    32
  0
VERTEX
  8
0
  5
2862
 10
164.800
 20
269.813
 30
0.00000
  70
    32
  0
VERTEX
  8
0
  5
2863
 10
164.720
 20
269.843
 30
0.00000
  70
    32
  0
VERTEX
  8
0
  5
2864
 10
164.640
 20
269.870
 30
0.00000
  70
    32
  0
VERTEX
  8
0
  5
2865
 10
164.560
 20
269.895
 30
0.00000
  70
    32
  0
VERTEX
  8
0
  5
2866
 10
164.479
 20
269.917
 30
0.00000
  70
    32
  0
VERTEX
  8
0
  5
2867
 10
164.399
 20
269.936
 30
0.00000
  70
    32
  0
VERTEX
  8
0
  5
2868
 10
164.319
 20
269.953
 30
0.00000
  70
    32
  0
VERTEX
  8
0
  5
2869
 10
164.238
 20
269.968
 30
0.00000
  70
    32
  0
VERTEX
  8
0
  5
286A
 10
164.158
 20
269.979
 30
0.00000
  70
    32
  0
VERTEX
  8
0
  5
286B
 10
164.077
 20
269.988
 30
0.00000
  70
    32
  0
VERTEX
  8
0
  5
286C
 10
163.996
 20
269.995
 30
0.00000
  70
    32
  0
VERTEX
  8
0
  5
286D
 10
163.916
 20
269.999
 30
0.00000
  70
    32
  0
VERTEX
  8
0
  5
286E
 10
163.835
 20
270.000
 30
0.00000
  70
    32
  0
SEQEND
  8
0
  5
286F
  0
LINE
  5
23FC
  8
0
 10
163.8350455544724866
 20
229.999999999999801
 30
0.0
 11
128.0
 21
229.9999999999998863
 31
0.0
  0
LINE
  5
23FD
  8
0
 10
151.0
 20
247.0000000000001137
 30
0.0
 11
170.1999999999999886
 21
246.9999999999998863
 31
0.0
  0
LINE
  5
23FE
  8
0
 10
170.1999999999999886
 20
246.9999999999998863
 30
0.0
 11
170.1999999999999886
 21
247.7499999999998863
 31
0.0
  0
LINE
  5
23FF
  8
0
 10
170.1999999999999886
 20
252.2499999999998863
 30
0.0
 11
170.1999999999999886
 21
253.0000000000019043
 31
0.0
  0
LINE
  5
2400
  8
0
 10
170.1999999999999886
 20
253.0000000000019043
 30
0.0
 11
151.0
 21
252.999999999999801
 31
0.0
  0
LINE
  5
2401
  8
0
 10
151.0
 20
269.9999999999998863
 30
0.0
 11
151.0
 21
229.999999999999801
 31
0.0
  0
LINE
  5
2402
  8
0
 10
128.0
 20
269.9999999999998863
 30
0.0
 11
163.8350455544722024
 21
269.9999999999998863
 31
0.0
  0
LINE
  5
2405
  8
0
 10
195.999999999999801
 20
271.0000000000001137
 30
0.0
 11
196.0000000000007958
 21
229.0000000000001137
 31
0.0
  0
LINE
  5
2406
  8
0
 10
176.0
 20
247.7499999999998863
 30
0.0
 11
176.0
 21
252.2499999999998863
 31
0.0
  0
LINE
  5
2407
  8
0
 10
171.0
 20
252.2499999999998863
 30
0.0
 11
171.0
 21
247.7499999999998863
 31
0.0
  0
ARC
  5
240A
  8
0
 10
127.0
 20
249.9999999999998863
 30
0.0
 40
20.0
 50
146.6329870307669978
 51
213.3670129692330022
  0
ARC
  5
240B
  8
0
 10
128.0
 20
249.999999999999801
 30
0.0
 40
20.0
 50
90.0
 51
146.6329870307669978
  0
ARC
  5
240C
  8
0
 10
128.0
 20
249.999999999999801
 30
0.0
 40
20.0000000000000107
 50
213.3670129692330022
 51
270.0
  0
LINE
  5
240D
  8
0
 10
110.2967069115100003
 20
238.999999999999801
 30
0.0
 11
111.2967069115099008
 21
238.999999999999801
 31
0.0
  0
LINE
  5
240E
  8
0
 10
111.2967069115099008
 20
260.9999999999998863
 30
0.0
 11
110.2967069115097019
 21
260.9999999999998863
 31
0.0
  0
ARC
  5
2427
  8
0
 10
122.1499999999998067
 20
165.2500000000001137
 30
0.0
 40
0.6499999999998636
 50
89.9999999999837144
 51
180.0000000000129887
  0
ARC
  5
2428
  8
0
 10
133.850000000000108
 20
165.2500000000001137
 30
0.0
 40
0.6499999999998636
 50
359.9999999999885745
 51
90.0000000000130314
  0
LINE
  5
2429
  8
0
 10
121.5
 20
165.25
 30
0.0
 11
121.5
 21
157.899999999999892
 31
0.0
  0
LINE
  5
242A
  8
0
 10
134.5
 20
157.899999999999892
 30
0.0
 11
134.5
 21
165.25
 31
0.0
  0
LINE
  5
242B
  8
0
 10
124.0
 20
157.899999999999892
 30
0.0
 11
124.0
 21
150.0
 31
0.0
  0
LINE
  5
242C
  8
0
 10
132.0
 20
150.0
 30
0.0
 11
132.0
 21
157.899999999999892
 31
0.0
  0
LINE
  5
242D
  8
0
 10
122.0127623393408953
 20
130.8863448973712025
 30
0.0
 11
122.2502577388069938
 21
130.0
 31
0.0
  0
LINE
  5
242E
  8
0
 10
133.7497422611926936
 20
130.0
 30
0.0
 11
133.8280062364025866
 21
130.2920851318853863
 31
0.0
  0
LINE
  5
242F
  8
0
 10
156.3999999999998067
 20
129.0
 30
0.0
 11
195.999999999999801
 21
129.0
 31
0.0
  0
LINE
  5
2430
  8
0
 10
135.7942286340600901
 20
130.0
 30
0.0
 11
156.7540497883080093
 21
130.0
 31
0.0
  0
ARC
  5
2433
  8
0
 10
127.0
 20
150.0
 30
0.0
 40
20.0
 50
180.0
 51
250.140706089014202
  0
LINE
  5
2434
  8
0
 10
122.1499999999998067
 20
165.899999999999892
 30
0.0
 11
133.8499999999999091
 21
165.899999999999892
 31
0.0
  0
LINE
  5
2435
  8
0
 10
121.5
 20
157.899999999999892
 30
0.0
 11
134.5
 21
157.899999999999892
 31
0.0
  0
CIRCLE
  5
2436
  8
0
 10
185.0
 20
171.0
 30
0.0
 40
6.4999999999999707
  0
LINE
  5
243D
  8
0
 10
133.7497422611926936
 20
130.0
 30
0.0
 11
122.2502577388069938
 21
130.0
 31
0.0
  0
LINE
  5
243E
  8
0
 10
180.5818410695748923
 20
165.6524757434096955
 30
0.0
 11
169.3768013117120006
 21
165.6524758398535084
 31
0.0
  0
LINE
  5
243F
  8
0
 10
196.0
 20
165.6524758424984896
 30
0.0
 11
189.4181589876583018
 21
165.6524758425289008
 31
0.0
  0
LINE
  5
2440
  8
0
 10
196.0
 20
171.0
 30
0.0
 11
196.0
 21
129.0
 31
0.0
  0
LINE
  5
2442
  8
0
 10
151.0
 20
169.7737199332852072
 30
0.0
 11
151.0
 21
150.0
 31
0.0
  0
LINE
  5
2443
  8
0
 10
151.0
 20
169.7737199332852072
 30
0.0
 11
170.83592691091809
 21
169.7737199332850935
 31
0.0
  0
POLYLINE
  5
2444
  8
0
 10
132.3922325419812864
 20
130.8877194513987092
 30
0.0
 66
     1
 70
     8
  0
VERTEX
  8
0
  5
2870
 10
132.392
 20
130.888
 30
0.00000
  70
    32
  0
VERTEX
  8
0
  5
2871
 10
132.418
 20
130.874
 30
0.00000
  70
    32
  0
VERTEX
  8
0
  5
2872
 10
132.444
 20
130.860
 30
0.00000
  70
    32
  0
VERTEX
  8
0
  5
2873
 10
132.470
 20
130.847
 30
0.00000
  70
    32
  0
VERTEX
  8
0
  5
2874
 10
132.496
 20
130.833
 30
0.00000
  70
    32
  0
VERTEX
  8
0
  5
2875
 10
132.521
 20
130.820
 30
0.00000
  70
    32
  0
VERTEX
  8
0
  5
2876
 10
132.547
 20
130.807
 30
0.00000
  70
    32
  0
VERTEX
  8
0
  5
2877
 10
132.573
 20
130.794
 30
0.00000
  70
    32
  0
VERTEX
  8
0
  5
2878
 10
132.599
 20
130.781
 30
0.00000
  70
    32
  0
VERTEX
  8
0
  5
2879
 10
132.625
 20
130.768
 30
0.00000
  70
    32
  0
VERTEX
  8
0
  5
287A
 10
132.651
 20
130.755
 30
0.00000
  70
    32
  0
VERTEX
  8
0
  5
287B
 10
132.677
 20
130.743
 30
0.00000
  70
    32
  0
VERTEX
  8
0
  5
287C
 10
132.703
 20
130.730
 30
0.00000
  70
    32
  0
VERTEX
  8
0
  5
287D
 10
132.729
 20
130.718
 30
0.00000
  70
    32
  0
VERTEX
  8
0
  5
287E
 10
132.755
 20
130.705
 30
0.00000
  70
    32
  0
VERTEX
  8
0
  5
287F
 10
132.781
 20
130.693
 30
0.00000
  70
    32
  0
VERTEX
  8
0
  5
2880
 10
132.807
 20
130.681
 30
0.00000
  70
    32
  0
VERTEX
  8
0
  5
2881
 10
132.833
 20
130.669
 30
0.00000
  70
    32
  0
VERTEX
  8
0
  5
2882
 10
132.859
 20
130.657
 30
0.00000
  70
    32
  0
VERTEX
  8
0
  5
2883
 10
132.885
 20
130.645
 30
0.00000
  70
    32
  0
VERTEX
  8
0
  5
2884
 10
132.911
 20
130.633
 30
0.00000
  70
    32
  0
VERTEX
  8
0
  5
2885
 10
132.938
 20
130.622
 30
0.00000
  70
    32
  0
VERTEX
  8
0
  5
2886
 10
132.964
 20
130.610
 30
0.00000
  70
    32
  0
VERTEX
  8
0
  5
2887
 10
132.990
 20
130.599
 30
0.00000
  70
    32
  0
VERTEX
  8
0
  5
2888
 10
133.016
 20
130.588
 30
0.00000
  70
    32
  0
VERTEX
  8
0
  5
2889
 10
133.042
 20
130.576
 30
0.00000
  70
    32
  0
VERTEX
  8
0
  5
288A
 10
133.068
 20
130.565
 30
0.00000
  70
    32
  0
VERTEX
  8
0
  5
288B
 10
133.095
 20
130.554
 30
0.00000
  70
    32
  0
VERTEX
  8
0
  5
288C
 10
133.121
 20
130.543
 30
0.00000
  70
    32
  0
VERTEX
  8
0
  5
288D
 10
133.147
 20
130.533
 30
0.00000
  70
    32
  0
VERTEX
  8
0
  5
288E
 10
133.173
 20
130.522
 30
0.00000
  70
    32
  0
VERTEX
  8
0
  5
288F
 10
133.200
 20
130.511
 30
0.00000
  70
    32
  0
VERTEX
  8
0
  5
2890
 10
133.226
 20
130.501
 30
0.00000
  70
    32
  0
VERTEX
  8
0
  5
2891
 10
133.252
 20
130.491
 30
0.00000
  70
    32
  0
VERTEX
  8
0
  5
2892
 10
133.279
 20
130.480
 30
0.00000
  70
    32
  0
VERTEX
  8
0
  5
2893
 10
133.305
 20
130.470
 30
0.00000
  70
    32
  0
VERTEX
  8
0
  5
2894
 10
133.331
 20
130.460
 30
0.00000
  70
    32
  0
VERTEX
  8
0
  5
2895
 10
133.358
 20
130.450
 30
0.00000
  70
    32
  0
VERTEX
  8
0
  5
2896
 10
133.384
 20
130.441
 30
0.00000
  70
    32
  0
VERTEX
  8
0
  5
2897
 10
133.410
 20
130.431
 30
0.00000
  70
    32
  0
VERTEX
  8
0
  5
2898
 10
133.437
 20
130.421
 30
0.00000
  70
    32
  0
VERTEX
  8
0
  5
2899
 10
133.463
 20
130.412
 30
0.00000
  70
    32
  0
VERTEX
  8
0
  5
289A
 10
133.490
 20
130.402
 30
0.00000
  70
    32
  0
VERTEX
  8
0
  5
289B
 10
133.516
 20
130.393
 30
0.00000
  70
    32
  0
VERTEX
  8
0
  5
289C
 10
133.543
 20
130.384
 30
0.00000
  70
    32
  0
VERTEX
  8
0
  5
289D
 10
133.569
 20
130.375
 30
0.00000
  70
    32
  0
VERTEX
  8
0
  5
289E
 10
133.596
 20
130.366
 30
0.00000
  70
    32
  0
VERTEX
  8
0
  5
289F
 10
133.622
 20
130.357
 30
0.00000
  70
    32
  0
VERTEX
  8
0
  5
28A0
 10
133.648
 20
130.348
 30
0.00000
  70
    32
  0
VERTEX
  8
0
  5
28A1
 10
133.675
 20
130.340
 30
0.00000
  70
    32
  0
VERTEX
  8
0
  5
28A2
 10
133.702
 20
130.331
 30
0.00000
  70
    32
  0
VERTEX
  8
0
  5
28A3
 10
133.728
 20
130.323
 30
0.00000
  70
    32
  0
VERTEX
  8
0
  5
28A4
 10
133.755
 20
130.314
 30
0.00000
  70
    32
  0
VERTEX
  8
0
  5
28A5
 10
133.781
 20
130.306
 30
0.00000
  70
    32
  0
VERTEX
  8
0
  5
28A6
 10
133.808
 20
130.298
 30
0.00000
  70
    32
  0
VERTEX
  8
0
  5
28A7
 10
133.834
 20
130.290
 30
0.00000
  70
    32
  0
VERTEX
  8
0
  5
28A8
 10
133.861
 20
130.282
 30
0.00000
  70
    32
  0
VERTEX
  8
0
  5
28A9
 10
133.888
 20
130.275
 30
0.00000
  70
    32
  0
VERTEX
  8
0
  5
28AA
 10
133.914
 20
130.267
 30
0.00000
  70
    32
  0
VERTEX
  8
0
  5
28AB
 10
133.941
 20
130.259
 30
0.00000
  70
    32
  0
VERTEX
  8
0
  5
28AC
 10
133.967
 20
130.252
 30
0.00000
  70
    32
  0
VERTEX
  8
0
  5
28AD
 10
133.994
 20
130.245
 30
0.00000
  70
    32
  0
VERTEX
  8
0
  5
28AE
 10
134.021
 20
130.237
 30
0.00000
  70
    32
  0
VERTEX
  8
0
  5
28AF
 10
134.047
 20
130.230
 30
0.00000
  70
    32
  0
VERTEX
  8
0
  5
28B0
 10
134.074
 20
130.223
 30
0.00000
  70
    32
  0
VERTEX
  8
0
  5
28B1
 10
134.101
 20
130.216
 30
0.00000
  70
    32
  0
VERTEX
  8
0
  5
28B2
 10
134.127
 20
130.209
 30
0.00000
  70
    32
  0
VERTEX
  8
0
  5
28B3
 10
134.154
 20
130.203
 30
0.00000
  70
    32
  0
VERTEX
  8
0
  5
28B4
 10
134.181
 20
130.196
 30
0.00000
  70
    32
  0
VERTEX
  8
0
  5
28B5
 10
134.208
 20
130.190
 30
0.00000
  70
    32
  0
VERTEX
  8
0
  5
28B6
 10
134.234
 20
130.183
 30
0.00000
  70
    32
  0
VERTEX
  8
0
  5
28B7
 10
134.261
 20
130.177
 30
0.00000
  70
    32
  0
VERTEX
  8
0
  5
28B8
 10
134.288
 20
130.171
 30
0.00000
  70
    32
  0
VERTEX
  8
0
  5
28B9
 10
134.314
 20
130.165
 30
0.00000
  70
    32
  0
VERTEX
  8
0
  5
28BA
 10
134.341
 20
130.159
 30
0.00000
  70
    32
  0
VERTEX
  8
0
  5
28BB
 10
134.368
 20
130.153
 30
0.00000
  70
    32
  0
VERTEX
  8
0
  5
28BC
 10
134.395
 20
130.147
 30
0.00000
  70
    32
  0
VERTEX
  8
0
  5
28BD
 10
134.422
 20
130.142
 30
0.00000
  70
    32
  0
VERTEX
  8
0
  5
28BE
 10
134.448
 20
130.136
 30
0.00000
  70
    32
  0
VERTEX
  8
0
  5
28BF
 10
134.475
 20
130.131
 30
0.00000
  70
    32
  0
VERTEX
  8
0
  5
28C0
 10
134.502
 20
130.126
 30
0.00000
  70
    32
  0
VERTEX
  8
0
  5
28C1
 10
134.529
 20
130.120
 30
0.00000
  70
    32
  0
VERTEX
  8
0
  5
28C2
 10
134.556
 20
130.115
 30
0.00000
  70
    32
  0
VERTEX
  8
0
  5
28C3
 10
134.582
 20
130.110
 30
0.00000
  70
    32
  0
VERTEX
  8
0
  5
28C4
 10
134.609
 20
130.106
 30
0.00000
  70
    32
  0
VERTEX
  8
0
  5
28C5
 10
134.636
 20
130.101
 30
0.00000
  70
    32
  0
VERTEX
  8
0
  5
28C6
 10
134.663
 20
130.096
 30
0.00000
  70
    32
  0
VERTEX
  8
0
  5
28C7
 10
134.690
 20
130.092
 30
0.00000
  70
    32
  0
VERTEX
  8
0
  5
28C8
 10
134.717
 20
130.087
 30
0.00000
  70
    32
  0
VERTEX
  8
0
  5
28C9
 10
134.744
 20
130.083
 30
0.00000
  70
    32
  0
VERTEX
  8
0
  5
28CA
 10
134.770
 20
130.079
 30
0.00000
  70
    32
  0
VERTEX
  8
0
  5
28CB
 10
134.797
 20
130.075
 30
0.00000
  70
    32
  0
VERTEX
  8
0
  5
28CC
 10
134.824
 20
130.071
 30
0.00000
  70
    32
  0
VERTEX
  8
0
  5
28CD
 10
134.851
 20
130.067
 30
0.00000
  70
    32
  0
VERTEX
  8
0
  5
28CE
 10
134.878
 20
130.063
 30
0.00000
  70
    32
  0
VERTEX
  8
0
  5
28CF
 10
134.905
 20
130.059
 30
0.00000
  70
    32
  0
VERTEX
  8
0
  5
28D0
 10
134.932
 20
130.056
 30
0.00000
  70
    32
  0
VERTEX
  8
0
  5
28D1
 10
134.959
 20
130.052
 30
0.00000
  70
    32
  0
VERTEX
  8
0
  5
28D2
 10
134.986
 20
130.049
 30
0.00000
  70
    32
  0
VERTEX
  8
0
  5
28D3
 10
135.012
 20
130.046
 30
0.00000
  70
    32
  0
VERTEX
  8
0
  5
28D4
 10
135.039
 20
130.043
 30
0.00000
  70
    32
  0
VERTEX
  8
0
  5
28D5
 10
135.066
 20
130.040
 30
0.00000
  70
    32
  0
VERTEX
  8
0
  5
28D6
 10
135.093
 20
130.037
 30
0.00000
  70
    32
  0
VERTEX
  8
0
  5
28D7
 10
135.120
 20
130.034
 30
0.00000
  70
    32
  0
VERTEX
  8
0
  5
28D8
 10
135.147
 20
130.031
 30
0.00000
  70
    32
  0
VERTEX
  8
0
  5
28D9
 10
135.174
 20
130.029
 30
0.00000
  70
    32
  0
VERTEX
  8
0
  5
28DA
 10
135.201
 20
130.026
 30
0.00000
  70
    32
  0
VERTEX
  8
0
  5
28DB
 10
135.228
 20
130.024
 30
0.00000
  70
    32
  0
VERTEX
  8
0
  5
28DC
 10
135.255
 20
130.022
 30
0.00000
  70
    32
  0
VERTEX
  8
0
  5
28DD
 10
135.282
 20
130.020
 30
0.00000
  70
    32
  0
VERTEX
  8
0
  5
28DE
 10
135.309
 20
130.018
 30
0.00000
  70
    32
  0
VERTEX
  8
0
  5
28DF
 10
135.336
 20
130.016
 30
0.00000
  70
    32
  0
VERTEX
  8
0
  5
28E0
 10
135.363
 20
130.014
 30
0.00000
  70
    32
  0
VERTEX
  8
0
  5
28E1
 10
135.390
 20
130.012
 30
0.00000
  70
    32
  0
VERTEX
  8
0
  5
28E2
 10
135.417
 20
130.011
 30
0.00000
  70
    32
  0
VERTEX
  8
0
  5
28E3
 10
135.444
 20
130.009
 30
0.00000
  70
    32
  0
VERTEX
  8
0
  5
28E4
 10
135.471
 20
130.008
 30
0.00000
  70
    32
  0
VERTEX
  8
0
  5
28E5
 10
135.497
 20
130.007
 30
0.00000
  70
    32
  0
VERTEX
  8
0
  5
28E6
 10
135.524
 20
130.005
 30
0.00000
  70
    32
  0
VERTEX
  8
0
  5
28E7
 10
135.551
 20
130.004
 30
0.00000
  70
    32
  0
VERTEX
  8
0
  5
28E8
 10
135.578
 20
130.003
 30
0.00000
  70
    32
  0
VERTEX
  8
0
  5
28E9
 10
135.605
 20
130.003
 30
0.00000
  70
    32
  0
VERTEX
  8
0
  5
28EA
 10
135.632
 20
130.002
 30
0.00000
  70
    32
  0
VERTEX
  8
0
  5
28EB
 10
135.659
 20
130.001
 30
0.00000
  70
    32
  0
VERTEX
  8
0
  5
28EC
 10
135.686
 20
130.001
 30
0.00000
  70
    32
  0
VERTEX
  8
0
  5
28ED
 10
135.713
 20
130.000
 30
0.00000
  70
    32
  0
VERTEX
  8
0
  5
28EE
 10
135.740
 20
130.000
 30
0.00000
  70
    32
  0
VERTEX
  8
0
  5
28EF
 10
135.767
 20
130.000
 30
0.00000
  70
    32
  0
VERTEX
  8
0
  5
28F0
 10
135.794
 20
130.000
 30
0.00000
  70
    32
  0
SEQEND
  8
0
  5
28F1
  0
LINE
  5
2445
  8
0
 10
151.0
 20
150.0
 30
0.0
 11
107.0
 21
150.0
 31
0.0
  0
ARC
  5
2447
  8
0
 10
184.0
 20
171.0
 30
0.0
 40
12.0
 50
0.0000000000001399
 51
160.503501982468606
1001
GENIUS_GENODEF_13
1002
{
1000
HIER
1070
     0
1002
}
1002
{
1000
MANEDIT
1070
     0
1002
}
1002
{
1000
NOSEL
1070
     0
1002
}
1002
{
1000
BEHIND
1070
     0
1002
}
1002
{
1000
OTHER
1070
     0
1002
}
1002
{
1000
REACTOR
1002
}
1001
GENIUS_GENOBJ-N-FIL_13
1002
{
1000
OWNER
1000
GEN
1002
}
  0
LINE
  5
2448
  8
0
 10
172.6880572962161011
 20
175.0049909196289946
 30
0.0
 11
156.3999999999998067
 21
129.0
 31
0.0
  0
ARC
  5
2449
  8
0
 10
127.0
 20
150.0
 30
0.0
 40
16.7032930884900495
 50
180.0
 51
270.0
  0
ARC
  5
244A
  8
0
 10
121.9104894209108068
 20
135.8549297434659024
 30
0.0
 40
4.9672102920672607
 50
249.9283944702077065
 51
270.0
  0
LINE
  5
244B
  8
0
 10
243.5
 20
163.5185058345954019
 30
0.0
 11
243.5
 21
157.899999999999892
 31
0.0
  0
LINE
  5
244C
  8
0
 10
256.5
 20
157.899999999999892
 30
0.0
 11
256.5
 21
163.5185058345961124
 31
0.0
  0
LINE
  5
244D
  8
0
 10
246.0
 20
157.899999999999892
 30
0.0
 11
246.0
 21
150.0
 31
0.0
  0
LINE
  5
244E
  8
0
 10
254.0
 20
150.0
 30
0.0
 11
254.0
 21
157.899999999999892
 31
0.0
  0
LINE
  5
244F
  8
0
 10
232.6500000000002899
 20
164.5
 30
0.0
 11
234.8095424690625919
 21
164.5
 31
0.0
  0
LINE
  5
2450
  8
0
 10
236.000000000000199
 20
177.5
 30
0.0
 11
232.6500000000002899
 21
177.5
 31
0.0
  0
ARC
  5
2451
  8
0
 10
232.6500000000000909
 20
165.1499999999998067
 30
0.0
 40
0.6499999999998636
 50
179.9999999999870113
 51
270.0000000000163141
  0
ARC
  5
2452
  8
0
 10
232.6500000000000909
 20
176.850000000000108
 30
0.0
 40
0.6499999999998636
 50
89.9999999999837144
 51
180.0000000000113971
  0
LINE
  5
2453
  8
0
 10
247.7500000000003979
 20
167.0
 30
0.0
 11
252.2500000000003979
 21
167.0
 31
0.0
  0
LINE
  5
2454
  8
0
 10
252.2500000000003979
 20
175.0
 30
0.0
 11
247.7500000000003979
 21
175.0
 31
0.0
  0
LINE
  5
2455
  8
0
 10
265.2000000000002728
 20
164.5
 30
0.0
 11
268.0000000000005116
 21
165.2502577388071074
 31
0.0
  0
LINE
  5
2456
  8
0
 10
268.0000000000005116
 20
176.7497422611928926
 30
0.0
 11
265.2000000000002728
 21
177.5
 31
0.0
  0
LINE
  5
2457
  8
0
 10
247.7500000000003979
 20
183.0
 30
0.0
 11
236.000000000000199
 21
183.0
 31
0.0
  0
LINE
  5
2458
  8
0
 10
264.0000000000005116
 20
183.0000000000001137
 30
0.0
 11
252.2500000000003979
 21
183.0
 31
0.0
  0
LINE
  5
2459
  8
0
 10
243.5
 20
157.899999999999892
 30
0.0
 11
256.5
 21
157.899999999999892
 31
0.0
  0
LINE
  5
245A
  8
0
 10
247.7500000000007105
 20
165.899999999999892
 30
0.0
 11
252.2500000000007105
 21
165.9000000000000057
 31
0.0
  0
LINE
  5
245B
  8
0
 10
232.000000000000199
 20
165.149999999999892
 30
0.0
 11
232.000000000000199
 21
176.8499999739067903
 31
0.0
  0
LINE
  5
245C
  8
0
 10
268.0000000000005116
 20
176.7497422611928926
 30
0.0
 11
268.0000000000005116
 21
165.2502577388071074
 31
0.0
  0
LINE
  5
245F
  8
0
 10
247.000000000000199
 20
134.25
 30
0.0
 11
247.000000000000199
 21
135.3030615433009984
 31
0.0
  0
LINE
  5
2460
  8
0
 10
253.000000000000199
 20
134.25
 30
0.0
 11
247.000000000000199
 21
134.25
 31
0.0
  0
LINE
  5
2461
  8
0
 10
253.000000000000199
 20
134.25
 30
0.0
 11
253.000000000000199
 21
135.3030615433009132
 31
0.0
  0
ARC
  5
2462
  8
0
 10
250.0000000000003979
 20
150.0
 30
0.0
 40
15.0000000000000107
 50
98.626926558678619
 51
81.3730734413213668
  0
LINE
  5
2463
  8
0
 10
264.0000000000005116
 20
165.6524758424986032
 30
0.0
 11
264.0000000000005116
 21
183.0000000000001137
 31
0.0
  0
LINE
  5
2464
  8
0
 10
236.0000000000005116
 20
165.6524758424984896
 30
0.0
 11
236.0000000000005116
 21
183.0
 31
0.0
  0
ARC
  5
2465
  8
0
 10
250.0000000000003979
 20
150.0
 30
0.0
 40
21.0000000000000284
 50
131.8103148957798965
 51
48.1896851042200609
  0
LINE
  5
2466
  8
0
 10
247.7500000000003979
 20
183.0
 30
0.0
 11
247.7500000000003979
 21
164.8302899499639125
 31
0.0
  0
LINE
  5
2467
  8
0
 10
252.2500000000003979
 20
164.8302899499639125
 30
0.0
 11
252.2500000000003979
 21
183.0
 31
0.0
  0
LINE
  5
2468
  8
0
 10
235.000000000000199
 20
149.9999999999998863
 30
0.0
 11
265.0000000000002274
 21
150.0
 31
0.0
  0
LINE
  5
246A
  8
0
 10
43.5
 20
165.25
 30
0.0
 11
43.5
 21
157.899999999999892
 31
0.0
  0
LINE
  5
246B
  8
0
 10
56.5
 20
157.899999999999892
 30
0.0
 11
56.5
 21
165.25
 31
0.0
  0
ARC
  5
246C
  8
0
 10
44.1499999999998565
 20
165.2500000000001137
 30
0.0
 40
0.6499999999998636
 50
89.9999999999869686
 51
180.0000000000163141
  0
ARC
  5
246D
  8
0
 10
55.8500000000001933
 20
165.2500000000001137
 30
0.0
 40
0.6499999999998636
 50
359.9999999999885745
 51
90.0000000000130314
  0
LINE
  5
246E
  8
0
 10
46.0
 20
157.899999999999892
 30
0.0
 11
45.9999999999999289
 21
150.0000000000001137
 31
0.0
  0
LINE
  5
246F
  8
0
 10
53.9999999999999289
 20
150.0
 30
0.0
 11
54.0
 21
157.899999999999892
 31
0.0
  0
LINE
  5
2470
  8
0
 10
67.3499999999992269
 20
177.5
 30
0.0
 11
63.9999999999990266
 21
177.5
 31
0.0
  0
LINE
  5
2471
  8
0
 10
65.1825961818902329
 20
164.5
 30
0.0
 11
67.3499999999992269
 21
164.5
 31
0.0
  0
ARC
  5
2472
  8
0
 10
67.3499999999993832
 20
176.850000000000108
 30
0.0
 40
0.6499999999998636
 50
359.9999999999902229
 51
90.0000000000130314
  0
ARC
  5
2473
  8
0
 10
67.3499999999993832
 20
165.1499999999998067
 30
0.0
 40
0.6499999999998636
 50
269.9999999999869829
 51
0.0000000000130276
  0
LINE
  5
2474
  8
0
 10
52.249999999999261
 20
175.0
 30
0.0
 11
47.749999999999261
 21
175.0
 31
0.0
  0
LINE
  5
2475
  8
0
 10
47.7499999999993108
 20
167.0
 30
0.0
 11
52.2499999999993179
 21
167.0
 31
0.0
  0
LINE
  5
2476
  8
0
 10
43.9202409660959532
 20
131.2316393631068934
 30
0.0
 11
44.2502577388068516
 21
130.0
 31
0.0
  0
LINE
  5
2477
  8
0
 10
55.7497422611926297
 20
130.0
 30
0.0
 11
56.0797590339034784
 21
131.2316393631068934
 31
0.0
  0
LINE
  5
2478
  8
0
 10
34.7999999999991019
 20
177.5
 30
0.0
 11
31.9999999999990905
 21
176.7497422611928926
 31
0.0
  0
LINE
  5
2479
  8
0
 10
31.9999999999990301
 20
165.2502577388071074
 30
0.0
 11
34.7999999999990379
 21
164.5
 31
0.0
  0
LINE
  5
247C
  8
0
 10
47.7499999999991473
 20
183.0
 30
0.0
 11
35.9999999999993676
 21
183.0000000000001137
 31
0.0
  0
LINE
  5
247D
  8
0
 10
63.9999999999993818
 20
183.0
 30
0.0
 11
52.2499999999990905
 21
183.0
 31
0.0
  0
LINE
  5
247E
  8
0
 10
43.5
 20
157.899999999999892
 30
0.0
 11
56.5
 21
157.899999999999892
 31
0.0
  0
LINE
  5
247F
  8
0
 10
44.150000000000027
 20
165.9000000000000057
 30
0.0
 11
55.8499999739068969
 21
165.899999999999892
 31
0.0
  0
LINE
  5
2480
  8
0
 10
67.9999999999992042
 20
176.8499999739067903
 30
0.0
 11
67.9999999999992042
 21
165.149999999999892
 31
0.0
  0
LINE
  5
2481
  8
0
 10
55.7497422611926297
 20
130.0
 30
0.0
 11
44.2502577388068516
 21
130.0
 31
0.0
  0
LINE
  5
2482
  8
0
 10
31.9999999999990301
 20
165.2502577388071074
 30
0.0
 11
31.9999999999990905
 21
176.7497422611928926
 31
0.0
  0
LINE
  5
2483
  8
0
 10
38.9999999999997726
 20
133.2967069115098866
 30
0.0
 11
39.0
 21
150.0000000000001137
 31
0.0
  0
LINE
  5
2484
  8
0
 10
61.0
 20
150.0
 30
0.0
 11
60.9999999999997726
 21
133.2967069115098866
 31
0.0
  0
LINE
  5
2485
  8
0
 10
56.7499999999999432
 20
131.397735927203513
 30
0.0
 11
56.75
 21
131.1734894364356876
 31
0.0
  0
ARC
  5
2486
  8
0
 10
52.9431729631834784
 20
145.2849765811542966
 30
0.0
 40
14.3995619748998003
 50
258.2060184560390894
 51
285.3295826810423819
  0
ARC
  5
2487
  8
0
 10
47.05682703681628
 20
145.284976581155405
 30
0.0
 40
14.3995619749010295
 50
254.6704173189575897
 51
281.7939815439643212
  0
LINE
  5
2488
  8
0
 10
43.25
 20
131.1734894364356023
 30
0.0
 11
43.2499999999999432
 21
131.3977359272033141
 31
0.0
  0
LINE
  5
2489
  8
0
 10
61.0
 20
150.0
 30
0.0
 11
39.0
 21
150.0000000000001137
 31
0.0
  0
LINE
  5
248B
  8
0
 10
38.9999999999999503
 20
150.0
 30
0.0
 11
29.9999999999997691
 21
150.0
 31
0.0
  0
LINE
  5
248C
  8
0
 10
69.9999999999997726
 20
150.0
 30
0.0
 11
61.0
 21
149.9999999999998863
 31
0.0
  0
ARC
  5
248D
  8
0
 10
49.9999999999997087
 20
150.0
 30
0.0
 40
20.0
 50
250.2753664412996955
 51
252.5536075561140024
  0
ARC
  5
248E
  8
0
 10
49.9999999999997087
 20
150.0
 30
0.0
 40
20.0000000000000391
 50
287.4463924438859976
 51
289.7246335587001909
  0
ARC
  5
248F
  8
0
 10
49.9999999999996021
 20
150.0
 30
0.0
 40
15.0000000000000195
 50
115.6792886194570968
 51
180.0
  0
LINE
  5
2490
  8
0
 10
46.9999999999996021
 20
169.7737199332852072
 30
0.0
 11
46.9999999999996021
 21
165.9000000000000057
 31
0.0
  0
LINE
  5
2491
  8
0
 10
52.9999999999993179
 20
169.7737199332852072
 30
0.0
 11
52.9999999999996021
 21
165.899999999999892
 31
0.0
  0
ARC
  5
2492
  8
0
 10
49.9999999999996021
 20
150.0
 30
0.0
 40
15.0
 50
0.0
 51
64.3207113805393078
  0
LINE
  5
2493
  8
0
 10
35.9999999999993676
 20
183.0000000000001137
 30
0.0
 11
35.9999999999993676
 21
165.6524756754704981
 31
0.0
  0
LINE
  5
2496
  8
0
 10
63.9999999999993818
 20
183.0
 30
0.0
 11
63.9999999999993818
 21
165.6524758388362102
 31
0.0
  0
ARC
  5
2498
  8
0
 10
49.9999999999993676
 20
150.0
 30
0.0
 40
20.0000000000000213
 50
96.4594497773557435
 51
98.6269265586839055
  0
ARC
  5
249A
  8
0
 10
49.9999999999993676
 20
150.0
 30
0.0
 40
20.0000000000000711
 50
81.3730734413193773
 51
83.5405502226442707
  0
LINE
  5
249B
  8
0
 10
47.7499999999991473
 20
183.0
 30
0.0
 11
47.7499999999993889
 21
165.9000000000000057
 31
0.0
  0
LINE
  5
249C
  8
0
 10
52.24999999999946
 20
165.9000000000000057
 30
0.0
 11
52.2499999999990905
 21
183.0
 31
0.0
  0
LINE
  5
249D
  8
0
 10
196.0
 20
70.9999999999998863
 30
0.0
 11
163.834980499458311
 21
71.0000000000001137
 31
0.0
  0
LINE
  5
249E
  8
0
 10
163.8350167000197928
 20
29.0000000000000604
 30
0.0
 11
195.999999999999801
 21
28.9999999999998295
 31
0.0
  0
CIRCLE
  5
24A1
  8
0
 10
128.0
 20
50.0000000000002274
 30
0.0
 40
3.2330000000000041
  0
CIRCLE
  5
24A2
  8
3
 10
128.0
 20
50.0000000000001066
 30
0.0
 40
4.0
  0
ARC
  5
24A3
  8
0
 10
128.0
 20
50.0000000000001066
 30
0.0
 40
6.5000000000000737
 50
209.9999987118837055
 51
270.0000069244989049
  0
ARC
  5
24A4
  8
0
 10
128.0
 20
50.0000000000001066
 30
0.0
 40
6.5000000000000071
 50
149.9999995485927116
 51
209.9999987118837055
  0
ARC
  5
24A5
  8
0
 10
128.0
 20
50.0000000000001066
 30
0.0
 40
6.5000000000000062
 50
90.0000024254403144
 51
149.9999995485927116
  0
ARC
  5
24A6
  8
0
 10
128.0
 20
50.0000000000001066
 30
0.0
 40
6.5000000000000169
 50
29.9999995484928306
 51
90.0000024254403144
  0
ARC
  5
24A7
  8
0
 10
128.0
 20
50.0000000000001066
 30
0.0
 40
6.5
 50
329.9999987115724025
 51
29.9999995484929087
  0
ARC
  5
24A8
  8
0
 10
128.0
 20
50.0000000000001066
 30
0.0
 40
6.5000000000000471
 50
270.0000069244989049
 51
329.9999987115724025
  0
POLYLINE
  5
24B6
  8
0
 10
156.7540501508364628
 20
43.5968725642922124
 30
0.0
 66
     1
 70
     8
  0
VERTEX
  8
0
  5
28F2
 10
156.754
 20
43.5969
 30
0.00000
  70
    32
  0
VERTEX
  8
0
  5
28F3
 10
156.755
 20
43.5842
 30
0.00000
  70
    32
  0
VERTEX
  8
0
  5
28F4
 10
156.757
 20
43.5716
 30
0.00000
  70
    32
  0
VERTEX
  8
0
  5
28F5
 10
156.758
 20
43.5589
 30
0.00000
  70
    32
  0
VERTEX
  8
0
  5
28F6
 10
156.760
 20
43.5463
 30
0.00000
  70
    32
  0
VERTEX
  8
0
  5
28F7
 10
156.761
 20
43.5336
 30
0.00000
  70
    32
  0
VERTEX
  8
0
  5
28F8
 10
156.763
 20
43.5210
 30
0.00000
  70
    32
  0
VERTEX
  8
0
  5
28F9
 10
156.764
 20
43.5084
 30
0.00000
  70
    32
  0
VERTEX
  8
0
  5
28FA
 10
156.766
 20
43.4957
 30
0.00000
  70
    32
  0
VERTEX
  8
0
  5
28FB
 10
156.767
 20
43.4831
 30
0.00000
  70
    32
  0
VERTEX
  8
0
  5
28FC
 10
156.769
 20
43.4705
 30
0.00000
  70
    32
  0
VERTEX
  8
0
  5
28FD
 10
156.770
 20
43.4578
 30
0.00000
  70
    32
  0
VERTEX
  8
0
  5
28FE
 10
156.771
 20
43.4452
 30
0.00000
  70
    32
  0
VERTEX
  8
0
  5
28FF
 10
156.773
 20
43.4326
 30
0.00000
  70
    32
  0
VERTEX
  8
0
  5
2900
 10
156.774
 20
43.4200
 30
0.00000
  70
    32
  0
VERTEX
  8
0
  5
2901
 10
156.776
 20
43.4074
 30
0.00000
  70
    32
  0
VERTEX
  8
0
  5
2902
 10
156.777
 20
43.3948
 30
0.00000
  70
    32
  0
VERTEX
  8
0
  5
2903
 10
156.779
 20
43.3821
 30
0.00000
  70
    32
  0
VERTEX
  8
0
  5
2904
 10
156.780
 20
43.3695
 30
0.00000
  70
    32
  0
VERTEX
  8
0
  5
2905
 10
156.782
 20
43.3569
 30
0.00000
  70
    32
  0
VERTEX
  8
0
  5
2906
 10
156.783
 20
43.3443
 30
0.00000
  70
    32
  0
VERTEX
  8
0
  5
2907
 10
156.785
 20
43.3317
 30
0.00000
  70
    32
  0
VERTEX
  8
0
  5
2908
 10
156.786
 20
43.3191
 30
0.00000
  70
    32
  0
VERTEX
  8
0
  5
2909
 10
156.788
 20
43.3065
 30
0.00000
  70
    32
  0
VERTEX
  8
0
  5
290A
 10
156.789
 20
43.2939
 30
0.00000
  70
    32
  0
VERTEX
  8
0
  5
290B
 10
156.791
 20
43.2814
 30
0.00000
  70
    32
  0
VERTEX
  8
0
  5
290C
 10
156.792
 20
43.2688
 30
0.00000
  70
    32
  0
VERTEX
  8
0
  5
290D
 10
156.794
 20
43.2562
 30
0.00000
  70
    32
  0
VERTEX
  8
0
  5
290E
 10
156.795
 20
43.2436
 30
0.00000
  70
    32
  0
VERTEX
  8
0
  5
290F
 10
156.797
 20
43.2310
 30
0.00000
  70
    32
  0
VERTEX
  8
0
  5
2910
 10
156.798
 20
43.2184
 30
0.00000
  70
    32
  0
VERTEX
  8
0
  5
2911
 10
156.800
 20
43.2059
 30
0.00000
  70
    32
  0
VERTEX
  8
0
  5
2912
 10
156.801
 20
43.1933
 30
0.00000
  70
    32
  0
VERTEX
  8
0
  5
2913
 10
156.803
 20
43.1807
 30
0.00000
  70
    32
  0
VERTEX
  8
0
  5
2914
 10
156.804
 20
43.1682
 30
0.00000
  70
    32
  0
VERTEX
  8
0
  5
2915
 10
156.806
 20
43.1556
 30
0.00000
  70
    32
  0
VERTEX
  8
0
  5
2916
 10
156.808
 20
43.1431
 30
0.00000
  70
    32
  0
VERTEX
  8
0
  5
2917
 10
156.809
 20
43.1305
 30
0.00000
  70
    32
  0
VERTEX
  8
0
  5
2918
 10
156.811
 20
43.1179
 30
0.00000
  70
    32
  0
VERTEX
  8
0
  5
2919
 10
156.812
 20
43.1054
 30
0.00000
  70
    32
  0
VERTEX
  8
0
  5
291A
 10
156.814
 20
43.0928
 30
0.00000
  70
    32
  0
VERTEX
  8
0
  5
291B
 10
156.815
 20
43.0803
 30
0.00000
  70
    32
  0
VERTEX
  8
0
  5
291C
 10
156.817
 20
43.0678
 30
0.00000
  70
    32
  0
VERTEX
  8
0
  5
291D
 10
156.818
 20
43.0552
 30
0.00000
  70
    32
  0
VERTEX
  8
0
  5
291E
 10
156.820
 20
43.0427
 30
0.00000
  70
    32
  0
VERTEX
  8
0
  5
291F
 10
156.821
 20
43.0301
 30
0.00000
  70
    32
  0
VERTEX
  8
0
  5
2920
 10
156.823
 20
43.0176
 30
0.00000
  70
    32
  0
VERTEX
  8
0
  5
2921
 10
156.825
 20
43.0051
 30
0.00000
  70
    32
  0
VERTEX
  8
0
  5
2922
 10
156.826
 20
42.9926
 30
0.00000
  70
    32
  0
VERTEX
  8
0
  5
2923
 10
156.828
 20
42.9800
 30
0.00000
  70
    32
  0
VERTEX
  8
0
  5
2924
 10
156.829
 20
42.9675
 30
0.00000
  70
    32
  0
VERTEX
  8
0
  5
2925
 10
156.831
 20
42.9550
 30
0.00000
  70
    32
  0
VERTEX
  8
0
  5
2926
 10
156.832
 20
42.9425
 30
0.00000
  70
    32
  0
VERTEX
  8
0
  5
2927
 10
156.834
 20
42.9300
 30
0.00000
  70
    32
  0
VERTEX
  8
0
  5
2928
 10
156.836
 20
42.9175
 30
0.00000
  70
    32
  0
VERTEX
  8
0
  5
2929
 10
156.837
 20
42.9050
 30
0.00000
  70
    32
  0
VERTEX
  8
0
  5
292A
 10
156.839
 20
42.8925
 30
0.00000
  70
    32
  0
VERTEX
  8
0
  5
292B
 10
156.840
 20
42.8800
 30
0.00000
  70
    32
  0
VERTEX
  8
0
  5
292C
 10
156.842
 20
42.8675
 30
0.00000
  70
    32
  0
VERTEX
  8
0
  5
292D
 10
156.844
 20
42.8550
 30
0.00000
  70
    32
  0
VERTEX
  8
0
  5
292E
 10
156.845
 20
42.8425
 30
0.00000
  70
    32
  0
VERTEX
  8
0
  5
292F
 10
156.847
 20
42.8300
 30
0.00000
  70
    32
  0
VERTEX
  8
0
  5
2930
 10
156.848
 20
42.8175
 30
0.00000
  70
    32
  0
VERTEX
  8
0
  5
2931
 10
156.850
 20
42.8050
 30
0.00000
  70
    32
  0
VERTEX
  8
0
  5
2932
 10
156.852
 20
42.7925
 30
0.00000
  70
    32
  0
VERTEX
  8
0
  5
2933
 10
156.853
 20
42.7801
 30
0.00000
  70
    32
  0
VERTEX
  8
0
  5
2934
 10
156.855
 20
42.7676
 30
0.00000
  70
    32
  0
VERTEX
  8
0
  5
2935
 10
156.856
 20
42.7551
 30
0.00000
  70
    32
  0
VERTEX
  8
0
  5
2936
 10
156.858
 20
42.7426
 30
0.00000
  70
    32
  0
VERTEX
  8
0
  5
2937
 10
156.860
 20
42.7302
 30
0.00000
  70
    32
  0
VERTEX
  8
0
  5
2938
 10
156.861
 20
42.7177
 30
0.00000
  70
    32
  0
VERTEX
  8
0
  5
2939
 10
156.863
 20
42.7052
 30
0.00000
  70
    32
  0
VERTEX
  8
0
  5
293A
 10
156.865
 20
42.6928
 30
0.00000
  70
    32
  0
VERTEX
  8
0
  5
293B
 10
156.866
 20
42.6803
 30
0.00000
  70
    32
  0
VERTEX
  8
0
  5
293C
 10
156.868
 20
42.6679
 30
0.00000
  70
    32
  0
VERTEX
  8
0
  5
293D
 10
156.870
 20
42.6554
 30
0.00000
  70
    32
  0
VERTEX
  8
0
  5
293E
 10
156.871
 20
42.6430
 30
0.00000
  70
    32
  0
VERTEX
  8
0
  5
293F
 10
156.873
 20
42.6305
 30
0.00000
  70
    32
  0
VERTEX
  8
0
  5
2940
 10
156.874
 20
42.6181
 30
0.00000
  70
    32
  0
VERTEX
  8
0
  5
2941
 10
156.876
 20
42.6057
 30
0.00000
  70
    32
  0
VERTEX
  8
0
  5
2942
 10
156.878
 20
42.5932
 30
0.00000
  70
    32
  0
VERTEX
  8
0
  5
2943
 10
156.879
 20
42.5808
 30
0.00000
  70
    32
  0
VERTEX
  8
0
  5
2944
 10
156.881
 20
42.5684
 30
0.00000
  70
    32
  0
VERTEX
  8
0
  5
2945
 10
156.883
 20
42.5560
 30
0.00000
  70
    32
  0
VERTEX
  8
0
  5
2946
 10
156.884
 20
42.5435
 30
0.00000
  70
    32
  0
VERTEX
  8
0
  5
2947
 10
156.886
 20
42.5311
 30
0.00000
  70
    32
  0
VERTEX
  8
0
  5
2948
 10
156.888
 20
42.5187
 30
0.00000
  70
    32
  0
VERTEX
  8
0
  5
2949
 10
156.889
 20
42.5063
 30
0.00000
  70
    32
  0
VERTEX
  8
0
  5
294A
 10
156.891
 20
42.4939
 30
0.00000
  70
    32
  0
VERTEX
  8
0
  5
294B
 10
156.893
 20
42.4815
 30
0.00000
  70
    32
  0
VERTEX
  8
0
  5
294C
 10
156.895
 20
42.4691
 30
0.00000
  70
    32
  0
VERTEX
  8
0
  5
294D
 10
156.896
 20
42.4567
 30
0.00000
  70
    32
  0
VERTEX
  8
0
  5
294E
 10
156.898
 20
42.4443
 30
0.00000
  70
    32
  0
VERTEX
  8
0
  5
294F
 10
156.900
 20
42.4319
 30
0.00000
  70
    32
  0
VERTEX
  8
0
  5
2950
 10
156.901
 20
42.4195
 30
0.00000
  70
    32
  0
VERTEX
  8
0
  5
2951
 10
156.903
 20
42.4071
 30
0.00000
  70
    32
  0
VERTEX
  8
0
  5
2952
 10
156.905
 20
42.3947
 30
0.00000
  70
    32
  0
VERTEX
  8
0
  5
2953
 10
156.906
 20
42.3823
 30
0.00000
  70
    32
  0
VERTEX
  8
0
  5
2954
 10
156.908
 20
42.3699
 30
0.00000
  70
    32
  0
VERTEX
  8
0
  5
2955
 10
156.910
 20
42.3576
 30
0.00000
  70
    32
  0
VERTEX
  8
0
  5
2956
 10
156.912
 20
42.3452
 30
0.00000
  70
    32
  0
VERTEX
  8
0
  5
2957
 10
156.913
 20
42.3328
 30
0.00000
  70
    32
  0
VERTEX
  8
0
  5
2958
 10
156.915
 20
42.3205
 30
0.00000
  70
    32
  0
VERTEX
  8
0
  5
2959
 10
156.917
 20
42.3081
 30
0.00000
  70
    32
  0
VERTEX
  8
0
  5
295A
 10
156.918
 20
42.2957
 30
0.00000
  70
    32
  0
VERTEX
  8
0
  5
295B
 10
156.920
 20
42.2834
 30
0.00000
  70
    32
  0
VERTEX
  8
0
  5
295C
 10
156.922
 20
42.2710
 30
0.00000
  70
    32
  0
VERTEX
  8
0
  5
295D
 10
156.924
 20
42.2587
 30
0.00000
  70
    32
  0
VERTEX
  8
0
  5
295E
 10
156.925
 20
42.2463
 30
0.00000
  70
    32
  0
VERTEX
  8
0
  5
295F
 10
156.927
 20
42.2340
 30
0.00000
  70
    32
  0
VERTEX
  8
0
  5
2960
 10
156.929
 20
42.2216
 30
0.00000
  70
    32
  0
VERTEX
  8
0
  5
2961
 10
156.931
 20
42.2093
 30
0.00000
  70
    32
  0
VERTEX
  8
0
  5
2962
 10
156.932
 20
42.1970
 30
0.00000
  70
    32
  0
VERTEX
  8
0
  5
2963
 10
156.934
 20
42.1846
 30
0.00000
  70
    32
  0
VERTEX
  8
0
  5
2964
 10
156.936
 20
42.1723
 30
0.00000
  70
    32
  0
VERTEX
  8
0
  5
2965
 10
156.938
 20
42.1600
 30
0.00000
  70
    32
  0
VERTEX
  8
0
  5
2966
 10
156.939
 20
42.1476
 30
0.00000
  70
    32
  0
VERTEX
  8
0
  5
2967
 10
156.941
 20
42.1353
 30
0.00000
  70
    32
  0
VERTEX
  8
0
  5
2968
 10
156.943
 20
42.1230
 30
0.00000
  70
    32
  0
VERTEX
  8
0
  5
2969
 10
156.945
 20
42.1107
 30
0.00000
  70
    32
  0
VERTEX
  8
0
  5
296A
 10
156.946
 20
42.0984
 30
0.00000
  70
    32
  0
VERTEX
  8
0
  5
296B
 10
156.948
 20
42.0861
 30
0.00000
  70
    32
  0
VERTEX
  8
0
  5
296C
 10
156.950
 20
42.0738
 30
0.00000
  70
    32
  0
VERTEX
  8
0
  5
296D
 10
156.952
 20
42.0615
 30
0.00000
  70
    32
  0
VERTEX
  8
0
  5
296E
 10
156.953
 20
42.0492
 30
0.00000
  70
    32
  0
VERTEX
  8
0
  5
296F
 10
156.955
 20
42.0369
 30
0.00000
  70
    32
  0
VERTEX
  8
0
  5
2970
 10
156.957
 20
42.0246
 30
0.00000
  70
    32
  0
VERTEX
  8
0
  5
2971
 10
156.959
 20
42.0123
 30
0.00000
  70
    32
  0
VERTEX
  8
0
  5
2972
 10
156.961
 20
42.0000
 30
0.00000
  70
    32
  0
SEQEND
  8
0
  5
2973
  0
POLYLINE
  5
24B9
  8
0
 10
156.9606421482316421
 20
58.0000000187268299
 30
0.0
 66
     1
 70
     8
  0
VERTEX
  8
0
  5
2974
 10
156.961
 20
58.0000
 30
0.00000
  70
    32
  0
VERTEX
  8
0
  5
2975
 10
156.959
 20
57.9877
 30
0.00000
  70
    32
  0
VERTEX
  8
0
  5
2976
 10
156.957
 20
57.9754
 30
0.00000
  70
    32
  0
VERTEX
  8
0
  5
2977
 10
156.955
 20
57.9631
 30
0.00000
  70
    32
  0
VERTEX
  8
0
  5
2978
 10
156.953
 20
57.9508
 30
0.00000
  70
    32
  0
VERTEX
  8
0
  5
2979
 10
156.952
 20
57.9385
 30
0.00000
  70
    32
  0
VERTEX
  8
0
  5
297A
 10
156.950
 20
57.9262
 30
0.00000
  70
    32
  0
VERTEX
  8
0
  5
297B
 10
156.948
 20
57.9139
 30
0.00000
  70
    32
  0
VERTEX
  8
0
  5
297C
 10
156.946
 20
57.9016
 30
0.00000
  70
    32
  0
VERTEX
  8
0
  5
297D
 10
156.945
 20
57.8893
 30
0.00000
  70
    32
  0
VERTEX
  8
0
  5
297E
 10
156.943
 20
57.8770
 30
0.00000
  70
    32
  0
VERTEX
  8
0
  5
297F
 10
156.941
 20
57.8647
 30
0.00000
  70
    32
  0
VERTEX
  8
0
  5
2980
 10
156.939
 20
57.8524
 30
0.00000
  70
    32
  0
VERTEX
  8
0
  5
2981
 10
156.938
 20
57.8400
 30
0.00000
  70
    32
  0
VERTEX
  8
0
  5
2982
 10
156.936
 20
57.8277
 30
0.00000
  70
    32
  0
VERTEX
  8
0
  5
2983
 10
156.934
 20
57.8154
 30
0.00000
  70
    32
  0
VERTEX
  8
0
  5
2984
 10
156.932
 20
57.8030
 30
0.00000
  70
    32
  0
VERTEX
  8
0
  5
2985
 10
156.931
 20
57.7907
 30
0.00000
  70
    32
  0
VERTEX
  8
0
  5
2986
 10
156.929
 20
57.7784
 30
0.00000
  70
    32
  0
VERTEX
  8
0
  5
2987
 10
156.927
 20
57.7660
 30
0.00000
  70
    32
  0
VERTEX
  8
0
  5
2988
 10
156.925
 20
57.7537
 30
0.00000
  70
    32
  0
VERTEX
  8
0
  5
2989
 10
156.924
 20
57.7413
 30
0.00000
  70
    32
  0
VERTEX
  8
0
  5
298A
 10
156.922
 20
57.7290
 30
0.00000
  70
    32
  0
VERTEX
  8
0
  5
298B
 10
156.920
 20
57.7166
 30
0.00000
  70
    32
  0
VERTEX
  8
0
  5
298C
 10
156.918
 20
57.7043
 30
0.00000
  70
    32
  0
VERTEX
  8
0
  5
298D
 10
156.917
 20
57.6919
 30
0.00000
  70
    32
  0
VERTEX
  8
0
  5
298E
 10
156.915
 20
57.6795
 30
0.00000
  70
    32
  0
VERTEX
  8
0
  5
298F
 10
156.913
 20
57.6672
 30
0.00000
  70
    32
  0
VERTEX
  8
0
  5
2990
 10
156.912
 20
57.6548
 30
0.00000
  70
    32
  0
VERTEX
  8
0
  5
2991
 10
156.910
 20
57.6424
 30
0.00000
  70
    32
  0
VERTEX
  8
0
  5
2992
 10
156.908
 20
57.6301
 30
0.00000
  70
    32
  0
VERTEX
  8
0
  5
2993
 10
156.906
 20
57.6177
 30
0.00000
  70
    32
  0
VERTEX
  8
0
  5
2994
 10
156.905
 20
57.6053
 30
0.00000
  70
    32
  0
VERTEX
  8
0
  5
2995
 10
156.903
 20
57.5929
 30
0.00000
  70
    32
  0
VERTEX
  8
0
  5
2996
 10
156.901
 20
57.5805
 30
0.00000
  70
    32
  0
VERTEX
  8
0
  5
2997
 10
156.900
 20
57.5681
 30
0.00000
  70
    32
  0
VERTEX
  8
0
  5
2998
 10
156.898
 20
57.5557
 30
0.00000
  70
    32
  0
VERTEX
  8
0
  5
2999
 10
156.896
 20
57.5433
 30
0.00000
  70
    32
  0
VERTEX
  8
0
  5
299A
 10
156.895
 20
57.5309
 30
0.00000
  70
    32
  0
VERTEX
  8
0
  5
299B
 10
156.893
 20
57.5185
 30
0.00000
  70
    32
  0
VERTEX
  8
0
  5
299C
 10
156.891
 20
57.5061
 30
0.00000
  70
    32
  0
VERTEX
  8
0
  5
299D
 10
156.889
 20
57.4937
 30
0.00000
  70
    32
  0
VERTEX
  8
0
  5
299E
 10
156.888
 20
57.4813
 30
0.00000
  70
    32
  0
VERTEX
  8
0
  5
299F
 10
156.886
 20
57.4689
 30
0.00000
  70
    32
  0
VERTEX
  8
0
  5
29A0
 10
156.884
 20
57.4565
 30
0.00000
  70
    32
  0
VERTEX
  8
0
  5
29A1
 10
156.883
 20
57.4440
 30
0.00000
  70
    32
  0
VERTEX
  8
0
  5
29A2
 10
156.881
 20
57.4316
 30
0.00000
  70
    32
  0
VERTEX
  8
0
  5
29A3
 10
156.879
 20
57.4192
 30
0.00000
  70
    32
  0
VERTEX
  8
0
  5
29A4
 10
156.878
 20
57.4068
 30
0.00000
  70
    32
  0
VERTEX
  8
0
  5
29A5
 10
156.876
 20
57.3943
 30
0.00000
  70
    32
  0
VERTEX
  8
0
  5
29A6
 10
156.874
 20
57.3819
 30
0.00000
  70
    32
  0
VERTEX
  8
0
  5
29A7
 10
156.873
 20
57.3695
 30
0.00000
  70
    32
  0
VERTEX
  8
0
  5
29A8
 10
156.871
 20
57.3570
 30
0.00000
  70
    32
  0
VERTEX
  8
0
  5
29A9
 10
156.870
 20
57.3446
 30
0.00000
  70
    32
  0
VERTEX
  8
0
  5
29AA
 10
156.868
 20
57.3321
 30
0.00000
  70
    32
  0
VERTEX
  8
0
  5
29AB
 10
156.866
 20
57.3197
 30
0.00000
  70
    32
  0
VERTEX
  8
0
  5
29AC
 10
156.865
 20
57.3072
 30
0.00000
  70
    32
  0
VERTEX
  8
0
  5
29AD
 10
156.863
 20
57.2948
 30
0.00000
  70
    32
  0
VERTEX
  8
0
  5
29AE
 10
156.861
 20
57.2823
 30
0.00000
  70
    32
  0
VERTEX
  8
0
  5
29AF
 10
156.860
 20
57.2698
 30
0.00000
  70
    32
  0
VERTEX
  8
0
  5
29B0
 10
156.858
 20
57.2574
 30
0.00000
  70
    32
  0
VERTEX
  8
0
  5
29B1
 10
156.856
 20
57.2449
 30
0.00000
  70
    32
  0
VERTEX
  8
0
  5
29B2
 10
156.855
 20
57.2324
 30
0.00000
  70
    32
  0
VERTEX
  8
0
  5
29B3
 10
156.853
 20
57.2199
 30
0.00000
  70
    32
  0
VERTEX
  8
0
  5
29B4
 10
156.852
 20
57.2075
 30
0.00000
  70
    32
  0
VERTEX
  8
0
  5
29B5
 10
156.850
 20
57.1950
 30
0.00000
  70
    32
  0
VERTEX
  8
0
  5
29B6
 10
156.848
 20
57.1825
 30
0.00000
  70
    32
  0
VERTEX
  8
0
  5
29B7
 10
156.847
 20
57.1700
 30
0.00000
  70
    32
  0
VERTEX
  8
0
  5
29B8
 10
156.845
 20
57.1575
 30
0.00000
  70
    32
  0
VERTEX
  8
0
  5
29B9
 10
156.844
 20
57.1450
 30
0.00000
  70
    32
  0
VERTEX
  8
0
  5
29BA
 10
156.842
 20
57.1325
 30
0.00000
  70
    32
  0
VERTEX
  8
0
  5
29BB
 10
156.840
 20
57.1200
 30
0.00000
  70
    32
  0
VERTEX
  8
0
  5
29BC
 10
156.839
 20
57.1075
 30
0.00000
  70
    32
  0
VERTEX
  8
0
  5
29BD
 10
156.837
 20
57.0950
 30
0.00000
  70
    32
  0
VERTEX
  8
0
  5
29BE
 10
156.836
 20
57.0825
 30
0.00000
  70
    32
  0
VERTEX
  8
0
  5
29BF
 10
156.834
 20
57.0700
 30
0.00000
  70
    32
  0
VERTEX
  8
0
  5
29C0
 10
156.832
 20
57.0575
 30
0.00000
  70
    32
  0
VERTEX
  8
0
  5
29C1
 10
156.831
 20
57.0450
 30
0.00000
  70
    32
  0
VERTEX
  8
0
  5
29C2
 10
156.829
 20
57.0325
 30
0.00000
  70
    32
  0
VERTEX
  8
0
  5
29C3
 10
156.828
 20
57.0200
 30
0.00000
  70
    32
  0
VERTEX
  8
0
  5
29C4
 10
156.826
 20
57.0074
 30
0.00000
  70
    32
  0
VERTEX
  8
0
  5
29C5
 10
156.825
 20
56.9949
 30
0.00000
  70
    32
  0
VERTEX
  8
0
  5
29C6
 10
156.823
 20
56.9824
 30
0.00000
  70
    32
  0
VERTEX
  8
0
  5
29C7
 10
156.821
 20
56.9699
 30
0.00000
  70
    32
  0
VERTEX
  8
0
  5
29C8
 10
156.820
 20
56.9573
 30
0.00000
  70
    32
  0
VERTEX
  8
0
  5
29C9
 10
156.818
 20
56.9448
 30
0.00000
  70
    32
  0
VERTEX
  8
0
  5
29CA
 10
156.817
 20
56.9322
 30
0.00000
  70
    32
  0
VERTEX
  8
0
  5
29CB
 10
156.815
 20
56.9197
 30
0.00000
  70
    32
  0
VERTEX
  8
0
  5
29CC
 10
156.814
 20
56.9072
 30
0.00000
  70
    32
  0
VERTEX
  8
0
  5
29CD
 10
156.812
 20
56.8946
 30
0.00000
  70
    32
  0
VERTEX
  8
0
  5
29CE
 10
156.811
 20
56.8821
 30
0.00000
  70
    32
  0
VERTEX
  8
0
  5
29CF
 10
156.809
 20
56.8695
 30
0.00000
  70
    32
  0
VERTEX
  8
0
  5
29D0
 10
156.808
 20
56.8569
 30
0.00000
  70
    32
  0
VERTEX
  8
0
  5
29D1
 10
156.806
 20
56.8444
 30
0.00000
  70
    32
  0
VERTEX
  8
0
  5
29D2
 10
156.804
 20
56.8318
 30
0.00000
  70
    32
  0
VERTEX
  8
0
  5
29D3
 10
156.803
 20
56.8193
 30
0.00000
  70
    32
  0
VERTEX
  8
0
  5
29D4
 10
156.801
 20
56.8067
 30
0.00000
  70
    32
  0
VERTEX
  8
0
  5
29D5
 10
156.800
 20
56.7941
 30
0.00000
  70
    32
  0
VERTEX
  8
0
  5
29D6
 10
156.798
 20
56.7815
 30
0.00000
  70
    32
  0
VERTEX
  8
0
  5
29D7
 10
156.797
 20
56.7690
 30
0.00000
  70
    32
  0
VERTEX
  8
0
  5
29D8
 10
156.795
 20
56.7564
 30
0.00000
  70
    32
  0
VERTEX
  8
0
  5
29D9
 10
156.794
 20
56.7438
 30
0.00000
  70
    32
  0
VERTEX
  8
0
  5
29DA
 10
156.792
 20
56.7312
 30
0.00000
  70
    32
  0
VERTEX
  8
0
  5
29DB
 10
156.791
 20
56.7186
 30
0.00000
  70
    32
  0
VERTEX
  8
0
  5
29DC
 10
156.789
 20
56.7061
 30
0.00000
  70
    32
  0
VERTEX
  8
0
  5
29DD
 10
156.788
 20
56.6935
 30
0.00000
  70
    32
  0
VERTEX
  8
0
  5
29DE
 10
156.786
 20
56.6809
 30
0.00000
  70
    32
  0
VERTEX
  8
0
  5
29DF
 10
156.785
 20
56.6683
 30
0.00000
  70
    32
  0
VERTEX
  8
0
  5
29E0
 10
156.783
 20
56.6557
 30
0.00000
  70
    32
  0
VERTEX
  8
0
  5
29E1
 10
156.782
 20
56.6431
 30
0.00000
  70
    32
  0
VERTEX
  8
0
  5
29E2
 10
156.780
 20
56.6305
 30
0.00000
  70
    32
  0
VERTEX
  8
0
  5
29E3
 10
156.779
 20
56.6179
 30
0.00000
  70
    32
  0
VERTEX
  8
0
  5
29E4
 10
156.777
 20
56.6052
 30
0.00000
  70
    32
  0
VERTEX
  8
0
  5
29E5
 10
156.776
 20
56.5926
 30
0.00000
  70
    32
  0
VERTEX
  8
0
  5
29E6
 10
156.774
 20
56.5800
 30
0.00000
  70
    32
  0
VERTEX
  8
0
  5
29E7
 10
156.773
 20
56.5674
 30
0.00000
  70
    32
  0
VERTEX
  8
0
  5
29E8
 10
156.771
 20
56.5548
 30
0.00000
  70
    32
  0
VERTEX
  8
0
  5
29E9
 10
156.770
 20
56.5422
 30
0.00000
  70
    32
  0
VERTEX
  8
0
  5
29EA
 10
156.769
 20
56.5295
 30
0.00000
  70
    32
  0
VERTEX
  8
0
  5
29EB
 10
156.767
 20
56.5169
 30
0.00000
  70
    32
  0
VERTEX
  8
0
  5
29EC
 10
156.766
 20
56.5043
 30
0.00000
  70
    32
  0
VERTEX
  8
0
  5
29ED
 10
156.764
 20
56.4916
 30
0.00000
  70
    32
  0
VERTEX
  8
0
  5
29EE
 10
156.763
 20
56.4790
 30
0.00000
  70
    32
  0
VERTEX
  8
0
  5
29EF
 10
156.761
 20
56.4664
 30
0.00000
  70
    32
  0
VERTEX
  8
0
  5
29F0
 10
156.760
 20
56.4537
 30
0.00000
  70
    32
  0
VERTEX
  8
0
  5
29F1
 10
156.758
 20
56.4411
 30
0.00000
  70
    32
  0
VERTEX
  8
0
  5
29F2
 10
156.757
 20
56.4284
 30
0.00000
  70
    32
  0
VERTEX
  8
0
  5
29F3
 10
156.755
 20
56.4158
 30
0.00000
  70
    32
  0
VERTEX
  8
0
  5
29F4
 10
156.754
 20
56.4031
 30
0.00000
  70
    32
  0
SEQEND
  8
0
  5
29F5
  0
LINE
  5
24BB
  8
0
 10
196.0
 20
70.9999999999998863
 30
0.0
 11
195.999999999999801
 21
28.9999999999998295
 31
0.0
  0
LINE
  5
24BC
  8
0
 10
128.0
 20
70.0000000000001137
 30
0.0
 11
128.0
 21
61.0000000000001705
 31
0.0
  0
LINE
  5
24BD
  8
0
 10
161.5675149645850013
 20
70.000000000000199
 30
0.0
 11
128.0
 21
70.0000000000001137
 31
0.0
  0
LINE
  5
24BE
  8
0
 10
128.0
 20
30.0000000000001705
 30
0.0
 11
161.5677895732476088
 21
30.0000000000001705
 31
0.0
  0
LINE
  5
24BF
  8
0
 10
128.0
 20
39.0000000000001705
 30
0.0
 11
128.0
 21
30.0000000000001705
 31
0.0
  0
LINE
  5
24C0
  8
0
 10
126.9999999999999005
 20
39.0000000000001066
 30
0.0
 11
110.2967069115097019
 21
39.0000000000001705
 31
0.0
  0
ARC
  5
24C1
  8
0
 10
127.0
 20
50.0000000000001066
 30
0.0
 40
20.0
 50
146.6329870307669125
 51
213.3670129692330022
  0
LINE
  5
24C2
  8
0
 10
110.2967069115100003
 20
61.0000000000001705
 30
0.0
 11
126.9999999999999005
 21
61.0000000000001208
 31
0.0
  0
ARC
  5
24C3
  8
0
 10
128.0
 20
50.0000000000001066
 30
0.0
 40
19.9999999999999787
 50
213.3670129692330022
 51
270.0
  0
ARC
  5
24C4
  8
0
 10
128.0
 20
50.0000000000001066
 30
0.0
 40
20.0000000000000107
 50
90.0
 51
146.6329870307669125
  0
LINE
  5
24C5
  8
1
 10
185.0000000000001137
 20
70.9999999999999716
 30
0.0
 11
184.9999999999996874
 21
28.9999999999999112
 31
0.0
  0
LINE
  5
24C6
  8
1
 10
128.0
 20
25.0000000000001386
 30
0.0
 11
128.0
 21
75.0000000000001137
 31
0.0
  0
LINE
  5
24C7
  8
1
 10
102.0
 20
50.0
 30
0.0
 11
201.0
 21
49.9999999999999432
 31
0.0
  0
LINE
  5
24C8
  8
2
 10
151.0
 20
65.0
 30
0.0
 11
150.999999999999801
 21
35.0
 31
0.0
  0
LINE
  5
24C9
  8
2
 10
196.0
 20
64.9999999999997158
 30
0.0
 11
151.0
 21
65.0
 31
0.0
  0
LINE
  5
24CA
  8
2
 10
150.999999999999801
 20
35.0
 30
0.0
 11
195.999999999999801
 21
34.9999999999997229
 31
0.0
  0
ARC
  5
24CE
  8
0
 10
49.9999999999996021
 20
150.0
 30
0.0
 40
21.0003973348684099
 50
131.8093452937721963
 51
48.1906547062279174
  0
ARC
  5
24CF
  8
0
 10
49.9999999999996021
 20
150.0
 30
0.0
 40
20.0
 50
98.6269265586773258
 51
250.2753664412996955
  0
ARC
  5
24D0
  8
0
 10
49.9999999999996021
 20
150.0
 30
0.0
 40
20.0
 50
289.7246335587037152
 51
81.3730734413226884
  0
LINE
  5
24D1
  8
1
 10
50.0
 20
188.0
 30
0.0
 11
50.0
 21
124.0
 31
0.0
  0
LINE
  5
24D2
  8
1
 10
23.9996026651311887
 20
150.0
 30
0.0
 11
76.000397334868012
 21
150.0
 31
0.0
  0
LINE
  5
24D3
  8
1
 10
70.9999999999984652
 20
171.000000000000199
 30
0.0
 11
28.9999999999983515
 21
171.000000000000199
 31
0.0
  0
ARC
  5
24D4
  8
2
 10
50.0
 20
150.0
 30
0.0
 40
15.0000000000007301
 50
180.000000000000199
 51
359.9999999999996021
  0
LINE
  5
24D6
  8
0
 10
124.0
 20
153.899999999999892
 30
0.0
 11
132.0
 21
153.899999999999892
 31
0.0
  0
LINE
  5
24D7
  8
3
 10
131.2329999999998904
 20
150.0
 30
0.0
 11
131.2329999999998904
 21
153.899999999999892
 31
0.0
  0
LINE
  5
24D8
  8
3
 10
124.7670000000000954
 20
150.0
 30
0.0
 11
124.7669999999998964
 21
153.899999999999892
 31
0.0
  0
LINE
  5
24D9
  8
0
 10
46.0
 20
153.899999999999892
 30
0.0
 11
54.0
 21
153.899999999999892
 31
0.0
  0
LINE
  5
24DA
  8
3
 10
53.2330000000000965
 20
150.0
 30
0.0
 11
53.232999999999997
 21
153.899999999999892
 31
0.0
  0
LINE
  5
24DB
  8
3
 10
46.7669999999999888
 20
150.0000000000001137
 30
0.0
 11
46.7669999999999888
 21
153.899999999999892
 31
0.0
  0
LINE
  5
24DC
  8
0
 10
246.0
 20
153.899999999999892
 30
0.0
 11
254.0
 21
153.899999999999892
 31
0.0
  0
LINE
  5
24DD
  8
3
 10
253.2330000000000041
 20
150.0
 30
0.0
 11
253.2329999999998904
 21
153.899999999999892
 31
0.0
  0
LINE
  5
24DE
  8
3
 10
246.7669999999999959
 20
150.0
 30
0.0
 11
246.7669999999999959
 21
153.899999999999892
 31
0.0
  0
LINE
  5
24DF
  8
3
 10
52.2499999999993676
 20
174.233000000000203
 30
0.0
 11
47.7499999999993108
 21
174.233000000000203
 31
0.0
  0
LINE
  5
24E0
  8
3
 10
52.2499999999993676
 20
167.7670000000001949
 30
0.0
 11
47.7499999999993108
 21
167.7670000000001949
 31
0.0
  0
LINE
  5
24E1
  8
3
 10
252.2500000000003979
 20
174.2330000000000041
 30
0.0
 11
247.7500000000003979
 21
174.2330000000000041
 31
0.0
  0
LINE
  5
24E2
  8
3
 10
252.2500000000003979
 20
167.7669999999999959
 30
0.0
 11
247.7500000000003979
 21
167.7669999999999959
 31
0.0
  0
LINE
  5
24E3
  8
0
 10
35.9999999999993676
 20
177.5
 30
0.0
 11
34.7999999999989882
 21
177.5
 31
0.0
  0
LINE
  5
24E4
  8
0
 10
34.7999999999989882
 20
164.5
 30
0.0
 11
34.8089931794380618
 21
164.5
 31
0.0
  0
LINE
  5
24E5
  8
0
 10
34.7999999999989882
 20
164.5
 30
0.0
 11
34.7999999999989882
 21
177.5
 31
0.0
  0
LINE
  5
24E6
  8
0
 10
35.3805565835997982
 20
171.0
 30
0.0
 11
35.9999999999993676
 21
171.0
 31
0.0
  0
ARC
  5
24E7
  8
0
 10
44.2012427409167117
 20
167.75
 30
0.0
 40
9.4003725610149864
 50
159.773576233349786
 51
197.445166079849713
  0
ARC
  5
24E8
  8
0
 10
44.2012427409167117
 20
174.25
 30
0.0
 40
9.4003725610149864
 50
159.773576233349786
 51
200.2264237666501003
  0
LINE
  5
24E9
  8
0
 10
265.2000000000005002
 20
177.5
 30
0.0
 11
264.0000000000005116
 21
177.5
 31
0.0
  0
LINE
  5
24EA
  8
0
 10
265.2000000000005002
 20
177.5
 30
0.0
 11
265.2000000000005002
 21
164.5
 31
0.0
  0
LINE
  5
24EB
  8
0
 10
264.6194434163996902
 20
171.0
 30
0.0
 11
264.0000000000006821
 21
171.0
 31
0.0
  0
ARC
  5
24EC
  8
0
 10
255.7987572590828051
 20
174.25
 30
0.0
 40
9.4003725610149864
 50
339.773576233349786
 51
20.2264237666501394
  0
ARC
  5
24ED
  8
0
 10
255.7987572590828051
 20
167.75
 30
0.0
 40
9.4003725610149864
 50
342.552110173998301
 51
20.2264237666501394
  0
LINE
  5
24EE
  8
2
 10
151.0
 20
164.6969384566990016
 30
0.0
 11
196.0
 21
164.6969384566990016
 31
0.0
  0
LINE
  5
24EF
  8
2
 10
151.0
 20
134.9999999999998863
 30
0.0
 11
196.0
 21
134.9999999999998863
 31
0.0
  0
LINE
  5
24F0
  8
2
 10
151.0
 20
235.0
 30
0.0
 11
196.0
 21
235.0
 31
0.0
  0
LINE
  5
24F1
  8
2
 10
196.0
 20
265.0
 30
0.0
 11
151.0
 21
265.0
 31
0.0
  0
LINE
  5
24F2
  8
0
 10
121.9104894209108068
 20
130.8877194513987092
 30
0.0
 11
132.3922325419812012
 21
130.8877194513987092
 31
0.0
  0
LINE
  5
24F3
  8
0
 10
178.4999999999998863
 20
265.1999999999998749
 30
0.0
 11
177.4944465005345933
 21
264.6194434163991787
 31
0.0
  0
LINE
  5
24F4
  8
0
 10
192.5055534994650088
 20
264.6194434163991787
 30
0.0
 11
191.4999999999998863
 21
265.1999999999998749
 31
0.0
  0
LINE
  5
24F5
  8
0
 10
177.4944465005345933
 20
264.6194434163991787
 30
0.0
 11
177.4944465005345933
 21
264.0000001298033112
 31
0.0
  0
LINE
  5
24F6
  8
0
 10
192.5055534994650088
 20
264.6194434163991787
 30
0.0
 11
192.5055534994650088
 21
264.0000000245112233
 31
0.0
  0
LINE
  5
24F7
  8
0
 10
188.7527767497323907
 20
264.6194434163991787
 30
0.0
 11
188.7527767497323907
 21
264.0000000508342168
 31
0.0
  0
LINE
  5
24F8
  8
0
 10
181.2472232502672966
 20
264.6194434163991787
 30
0.0
 11
181.2472232502672966
 21
264.0000001034803176
 31
0.0
  0
LINE
  5
24F9
  8
0
 10
178.4999999999998863
 20
265.1999999999998749
 30
0.0
 11
191.4999999999998863
 21
265.1999999999998749
 31
0.0
  0
ARC
  5
24FA
  8
0
 10
190.6291651245985861
 20
261.8774304270481252
 30
0.0
 40
3.3225695729515041
 50
64.384247468028363
 51
124.3842474680225934
  0
ARC
  5
24FB
  8
0
 10
184.9999999999998863
 20
252.7802494380356961
 30
0.0
 40
12.4197362045516098
 50
72.4124743850324109
 51
107.5875256149676034
  0
ARC
  5
24FC
  8
0
 10
179.3708348754009876
 20
261.8774304270481252
 30
0.0
 40
3.3225695729515041
 50
55.6157525319774635
 51
115.6157525319715944
  0
LINE
  5
24FD
  8
1
 10
175.5
 20
170.9999999999998863
 30
0.0
 11
194.5
 21
170.9999999999998863
 31
0.0
  0
LINE
  5
24FE
  8
1
 10
185.0
 20
161.5
 30
0.0
 11
185.0
 21
180.4999999999998863
 31
0.0
  0
LINE
  5
24FF
  8
1
 10
102.0
 20
150.0
 30
0.0
 11
201.0
 21
150.0
 31
0.0
  0
LINE
  5
2500
  8
1
 10
128.0
 20
168.899999999999892
 30
0.0
 11
128.0
 21
127.0
 31
0.0
  0
LINE
  5
2503
  8
1
 10
250.0
 20
187.9999999999998863
 30
0.0
 11
250.0
 21
124.0
 31
0.0
  0
LINE
  5
2504
  8
1
 10
270.9999999999994884
 20
171.0
 30
0.0
 11
228.9999999999996021
 21
171.0
 31
0.0
  0
LINE
  5
2505
  8
1
 10
224.0000000000003979
 20
150.0
 30
0.0
 11
276.0000000000005116
 21
150.0
 31
0.0
  0
LINE
  5
2506
  8
1
 10
128.0
 20
224.999999999999801
 30
0.0
 11
128.0
 21
274.9999999999997726
 31
0.0
  0
LINE
  5
2507
  8
1
 10
102.0
 20
250.0
 30
0.0
 11
201.0
 21
250.0
 31
0.0
  0
LINE
  5
2508
  8
1
 10
185.0
 20
271.0
 30
0.0
 11
185.0
 21
229.0
 31
0.0
  0
LINE
  5
2509
  8
3
 10
181.766999999999797
 20
252.25
 30
0.0
 11
181.766999999999797
 21
247.75
 31
0.0
  0
LINE
  5
250A
  8
3
 10
188.2329999999998904
 20
252.25
 30
0.0
 11
188.2329999999998904
 21
247.75
 31
0.0
  0
CIRCLE
  5
25A5
  8
0
 10
128.0
 20
250.0
 30
0.0
 40
6.5000000000000284
  0
ARC
  5
25AC
  8
0
 10
128.0
 20
249.9999999999998863
 30
0.0
 40
9.0000000000000089
 50
184.7801918471980116
 51
235.2198081528009084
  0
LINE
  5
25AD
  8
0
 10
119.0313044426738998
 20
249.2499999999998863
 30
0.0
 11
113.363777714610606
 21
249.2499999999998863
 31
0.0
  0
ARC
  5
25AE
  8
0
 10
128.0
 20
250.0000000000001137
 30
0.0
 40
14.6554257115694408
 50
182.9334264593342141
 51
237.0665735406662122
  0
LINE
  5
25AF
  8
0
 10
120.0323698044667964
 20
237.6996596854168899
 30
0.0
 11
122.866133168498493
 21
242.6078818085468924
 31
0.0
  0
ARC
  5
25B0
  8
0
 10
128.0
 20
249.9999999999998863
 30
0.0
 40
8.9999999999999947
 50
244.7801918472019906
 51
295.2198081527980094
  0
LINE
  5
25B1
  8
0
 10
124.1651712741751936
 20
241.8578818085470061
 30
0.0
 11
121.331407910143497
 21
236.9496596854166057
 31
0.0
  0
ARC
  5
25B2
  8
0
 10
128.0
 20
250.0000000000001137
 30
0.0
 40
14.6554257115697393
 50
242.9334264593350099
 51
297.0665735406651038
  0
LINE
  5
25B3
  8
0
 10
134.6685920898561903
 20
236.949659685416492
 30
0.0
 11
131.8348287258245932
 21
241.8578818085468072
 31
0.0
  0
ARC
  5
25B4
  8
0
 10
128.0
 20
249.9999999999998863
 30
0.0
 40
9.0000000000000071
 50
304.7801918471989779
 51
355.2198081528018747
  0
LINE
  5
25B5
  8
0
 10
133.1338668315013081
 20
242.6078818085468072
 30
0.0
 11
135.9676301955329905
 21
237.699659685416691
 31
0.0
  0
ARC
  5
25B6
  8
0
 10
128.0
 20
250.0000000000001137
 30
0.0
 40
14.6554257115695403
 50
302.9334264593338162
 51
357.066573540669026
  0
LINE
  5
25B7
  8
0
 10
142.6362222853894934
 20
249.2500000000001137
 30
0.0
 11
136.9686955573259866
 21
249.249999999999801
 31
0.0
  0
ARC
  5
25B8
  8
0
 10
128.0
 20
249.9999999999998863
 30
0.0
 40
9.0000000000000249
 50
4.7801918471980649
 51
55.2198081528009368
  0
LINE
  5
25B9
  8
0
 10
136.9686955573261002
 20
250.749999999999801
 30
0.0
 11
142.6362222853894082
 21
250.7499999999998863
 31
0.0
  0
ARC
  5
25BA
  8
0
 10
128.0
 20
250.0000000000001137
 30
0.0
 40
14.6554257115693591
 50
2.9334264593309798
 51
57.0665735406662193
  0
LINE
  5
25BB
  8
0
 10
135.9676301955331894
 20
262.3003403145830248
 30
0.0
 11
133.1338668315013933
 21
257.3921181914528802
 31
0.0
  0
ARC
  5
25BC
  8
0
 10
128.0
 20
249.9999999999998863
 30
0.0
 40
9.0000000000000195
 50
64.7801918472020901
 51
115.2198081527978957
  0
LINE
  5
25BD
  8
0
 10
131.8348287258247069
 20
258.1421181914528802
 30
0.0
 11
134.668592089856503
 21
263.050340314583309
 31
0.0
  0
ARC
  5
25BE
  8
0
 10
128.0
 20
250.0000000000001137
 30
0.0
 40
14.6554257115697002
 50
62.9334264593349317
 51
117.0665735406650043
  0
LINE
  5
25BF
  8
0
 10
121.3314079101435965
 20
263.0503403145834795
 30
0.0
 11
124.1651712741752931
 21
258.1421181914528802
 31
0.0
  0
ARC
  5
25C0
  8
0
 10
128.0
 20
249.9999999999998863
 30
0.0
 40
8.9999999999999947
 50
124.7801918471990064
 51
175.2198081528019031
  0
LINE
  5
25C1
  8
0
 10
122.8661331684986067
 20
257.3921181914528802
 30
0.0
 11
120.0323698044666969
 21
262.300340314583309
 31
0.0
  0
ARC
  5
25C2
  8
0
 10
128.0
 20
250.0000000000001137
 30
0.0
 40
14.6554257115695794
 50
122.933426459333802
 51
177.0665735406657006
  0
LINE
  5
25C3
  8
0
 10
113.3637777146105066
 20
250.750000000000199
 30
0.0
 11
119.0313044426738998
 21
250.7499999999998863
 31
0.0
  0
LINE
  5
25F3
  8
2
 10
151.0
 20
134.9999999999998863
 30
0.0
 11
151.0
 21
150.0
 31
0.0
  0
POLYLINE
  5
260A
  8
0
 66
     1
 10
0.0
 20
0.0
 30
0.0
  0
VERTEX
  5
26C6
  8
0
 10
156.9606422164841888
 20
58.0000004872641171
 30
0.0
  0
VERTEX
  5
26C7
  8
0
 10
157.0753735221325087
 20
58.7282433041702419
 30
0.0
  0
VERTEX
  5
26C8
  8
0
 10
157.1954773112086059
 20
59.4480908354466635
 30
0.0
  0
VERTEX
  5
26C9
  8
0
 10
157.3257299073669913
 20
60.1519343781893596
 30
0.0
  0
VERTEX
  5
26CA
  8
0
 10
157.4664228906937069
 20
60.838082471783828
 30
0.0
  0
VERTEX
  5
26CB
  8
0
 10
157.6158688443890981
 20
61.5074577790799708
 30
0.0
  0
VERTEX
  5
26CC
  8
0
 10
157.773362606249492
 20
62.1597348008998409
 30
0.0
  0
VERTEX
  5
26CD
  8
0
 10
157.9389908862393099
 20
62.7935822192711584
 30
0.0
  0
VERTEX
  5
26CE
  8
0
 10
158.1126590933106968
 20
63.4079389580266621
 30
0.0
  0
VERTEX
  5
26CF
  8
0
 10
158.2939823859072987
 20
64.0021696153126953
 30
0.0
  0
VERTEX
  5
26D0
  8
0
 10
158.4825826156699975
 20
64.5756549189716083
 30
0.0
  0
VERTEX
  5
26D1
  8
0
 10
158.6781599742278104
 20
65.127731023984694
 30
0.0
  0
VERTEX
  5
26D2
  8
0
 10
158.8804230348546014
 20
65.6577430596585856
 30
0.0
  0
VERTEX
  5
26D3
  8
0
 10
159.0890532750653108
 20
66.1651298062390225
 30
0.0
  0
VERTEX
  5
26D4
  8
0
 10
159.3037230791998979
 20
66.6493653926289085
 30
0.0
  0
VERTEX
  5
26D5
  8
0
 10
159.5241112949516094
 20
67.1099543542305526
 30
0.0
  0
VERTEX
  5
26D6
  8
0
 10
159.7499013469372073
 20
67.5464236224881773
 30
0.0
  0
VERTEX
  5
26D7
  8
0
 10
159.9807737873751989
 20
67.9583323559953385
 30
0.0
  0
VERTEX
  5
26D8
  8
0
 10
160.2164048973880028
 20
68.3452853399812028
 30
0.0
  0
VERTEX
  5
26D9
  8
0
 10
160.4564694430478085
 20
68.706928920339152
 30
0.0
  0
VERTEX
  5
26DA
  8
0
 10
160.7006385075704884
 20
69.0430276845663258
 30
0.0
  0
VERTEX
  5
26DB
  8
0
 10
160.9485842253326098
 20
69.3533495355965499
 30
0.0
  0
VERTEX
  5
26DC
  8
0
 10
161.1999919552316953
 20
69.6375155254427369
 30
0.0
  0
VERTEX
  5
26DD
  8
0
 10
161.4545528163590973
 20
69.8950951861316412
 30
0.0
  0
VERTEX
  5
26DE
  8
0
 10
161.7119524786984073
 20
70.1260040646549783
 30
0.0
  0
VERTEX
  5
26DF
  8
0
 10
161.9718711273021086
 20
70.3305012787387653
 30
0.0
  0
VERTEX
  5
26E0
  8
0
 10
162.233985618977897
 20
70.5083299263431087
 30
0.0
  0
VERTEX
  5
26E1
  8
0
 10
162.3657631899988019
 20
70.5867966836540575
 30
0.0
  0
VERTEX
  5
26E2
  8
0
 10
162.4979657886482016
 20
70.6580267494077248
 30
0.0
  0
VERTEX
  5
26E3
  8
0
 10
162.7634877737937984
 20
70.7787688211662243
 30
0.0
  0
VERTEX
  5
26E4
  8
0
 10
163.030271029311308
 20
70.8745397539430257
 30
0.0
  0
VERTEX
  5
26E5
  8
0
 10
163.2980458660971976
 20
70.9504131873524813
 30
0.0
  0
VERTEX
  5
26E6
  8
0
 10
163.4321941758554999
 20
70.9789166983029958
 30
0.0
  0
VERTEX
  5
26E7
  8
0
 10
163.5664385844486048
 20
70.9975922548629086
 30
0.0
  0
VERTEX
  5
26E8
  8
0
 10
163.7007197947314125
 20
71.0036620657647006
 30
0.0
  0
VERTEX
  5
26E9
  8
0
 10
163.834980499458311
 20
70.9947901794284633
 30
0.0
  0
SEQEND
  5
26EA
  8
0
  0
POLYLINE
  5
260B
  8
0
 66
     1
 10
0.0
 20
0.0
 30
0.0
  0
VERTEX
  5
26EB
  8
0
 10
156.399999930326203
 20
50.0000000000422915
 30
0.0
  0
VERTEX
  5
26EC
  8
0
 10
156.4032565902961096
 20
50.622598207142893
 30
0.0
  0
VERTEX
  5
26ED
  8
0
 10
156.4130327413730015
 20
51.2442308766738392
 30
0.0
  0
VERTEX
  5
26EE
  8
0
 10
156.4293241183789007
 20
51.8642619234251185
 30
0.0
  0
VERTEX
  5
26EF
  8
0
 10
156.4521192967945922
 20
52.4825655348864117
 30
0.0
  0
VERTEX
  5
26F0
  8
0
 10
156.480726630226286
 20
53.0866339957201703
 30
0.0
  0
VERTEX
  5
26F1
  8
0
 10
156.5145577595673956
 20
53.6723483015705227
 30
0.0
  0
VERTEX
  5
26F2
  8
0
 10
156.5533255752249886
 20
54.2433658473222309
 30
0.0
  0
VERTEX
  5
26F3
  8
0
 10
156.5966465763364113
 20
54.7986793314240188
 30
0.0
  0
VERTEX
  5
26F4
  8
0
 10
156.6444667640855073
 20
55.3411663730040004
 30
0.0
  0
VERTEX
  5
26F5
  8
0
 10
156.6968077247493909
 20
55.8743501819176487
 30
0.0
  0
VERTEX
  5
26F6
  8
0
 10
156.7540497883923933
 20
56.4031242387709995
 30
0.0
  0
SEQEND
  5
26F7
  8
0
  0
POLYLINE
  5
260C
  8
0
 66
     1
 10
0.0
 20
0.0
 30
0.0
  0
VERTEX
  5
26F8
  8
0
 10
156.7540501840144032
 20
43.596872271592872
 30
0.0
  0
VERTEX
  5
26F9
  8
0
 10
156.682978970384795
 20
44.2615154374980975
 30
0.0
  0
VERTEX
  5
26FA
  8
0
 10
156.6197282587123993
 20
44.9323995656540518
 30
0.0
  0
VERTEX
  5
26FB
  8
0
 10
156.5641911459593132
 20
45.6108575317302893
 30
0.0
  0
VERTEX
  5
26FC
  8
0
 10
156.5159031163387056
 20
46.3062067419705272
 30
0.0
  0
VERTEX
  5
26FD
  8
0
 10
156.4750272349714066
 20
47.0241583943164727
 30
0.0
  0
VERTEX
  5
26FE
  8
0
 10
156.4427965657235973
 20
47.7494387990983995
 30
0.0
  0
VERTEX
  5
26FF
  8
0
 10
156.4193374661253984
 20
48.4849579421073074
 30
0.0
  0
VERTEX
  5
2700
  8
0
 10
156.4048523230530918
 20
49.2402858785017727
 30
0.0
  0
VERTEX
  5
2701
  8
0
 10
156.399999930326203
 20
50.0000000000422915
 30
0.0
  0
SEQEND
  5
2702
  8
0
  0
POLYLINE
  5
260D
  8
0
 66
     1
 10
0.0
 20
0.0
 30
0.0
  0
VERTEX
  5
2703
  8
0
 10
163.8350167000197928
 20
29.0021387358799601
 30
0.0
  0
VERTEX
  5
2704
  8
0
 10
163.7007571139808135
 20
28.9943679112799799
 30
0.0
  0
VERTEX
  5
2705
  8
0
 10
163.5664699370483959
 20
29.001922479291121
 30
0.0
  0
VERTEX
  5
2706
  8
0
 10
163.4322178450657077
 20
29.0218137020786813
 30
0.0
  0
VERTEX
  5
2707
  8
0
 10
163.2980639858593861
 20
29.0509570815062403
 30
0.0
  0
VERTEX
  5
2708
  8
0
 10
163.030293527451704
 20
29.1259402921337092
 30
0.0
  0
VERTEX
  5
2709
  8
0
 10
162.7635181971031955
 20
29.2207417501862601
 30
0.0
  0
VERTEX
  5
270A
  8
0
 10
162.6305858038633119
 20
29.2775177644388691
 30
0.0
  0
VERTEX
  5
270B
  8
0
 10
162.4980007482681117
 20
29.3415777140958802
 30
0.0
  0
VERTEX
  5
270C
  8
0
 10
162.3658010112160071
 20
29.4130668373398194
 30
0.0
  0
VERTEX
  5
270D
  8
0
 10
162.2340276224016975
 20
29.4917547181644686
 30
0.0
  0
VERTEX
  5
270E
  8
0
 10
161.9719241815865871
 20
29.6697837511001694
 30
0.0
  0
VERTEX
  5
270F
  8
0
 10
161.7120161632549866
 20
29.8742185183304301
 30
0.0
  0
VERTEX
  5
2710
  8
0
 10
161.4546198609901069
 20
30.105071410790881
 30
0.0
  0
VERTEX
  5
2711
  8
0
 10
161.2000502268516016
 20
30.3626041491056107
 30
0.0
  0
VERTEX
  5
2712
  8
0
 10
160.9486270370595946
 20
30.64666434711026
 30
0.0
  0
VERTEX
  5
2713
  8
0
 10
160.7006723453698953
 20
30.9569056267619906
 30
0.0
  0
VERTEX
  5
2714
  8
0
 10
160.4565081587261943
 20
31.293021014997219
 30
0.0
  0
VERTEX
  5
2715
  8
0
 10
160.2164564162673912
 20
31.6547442904877592
 30
0.0
  0
VERTEX
  5
2716
  8
0
 10
159.9808377010377001
 20
32.0417706424781912
 30
0.0
  0
VERTEX
  5
2717
  8
0
 10
159.7499696260047983
 20
32.4537065990607871
 30
0.0
  0
VERTEX
  5
2718
  8
0
 10
159.5241705428003058
 20
32.8901449457673891
 30
0.0
  0
VERTEX
  5
2719
  8
0
 10
159.3037648167868952
 20
33.3506680008168104
 30
0.0
  0
VERTEX
  5
271A
  8
0
 10
159.0890788467474977
 20
33.8348507506287035
 30
0.0
  0
VERTEX
  5
271B
  8
0
 10
158.8804397143325957
 20
34.3422105553093786
 30
0.0
  0
VERTEX
  5
271C
  8
0
 10
158.6781748079924057
 20
34.8722198578031026
 30
0.0
  0
VERTEX
  5
271D
  8
0
 10
158.4825963999406895
 20
35.4242996197293394
 30
0.0
  0
VERTEX
  5
271E
  8
0
 10
158.293991972003198
 20
35.9977882934251667
 30
0.0
  0
VERTEX
  5
271F
  8
0
 10
158.1126693830584031
 20
36.5920299130610616
 30
0.0
  0
VERTEX
  5
2720
  8
0
 10
157.9390175890804926
 20
37.2064158233333302
 30
0.0
  0
VERTEX
  5
2721
  8
0
 10
157.7734037300170087
 20
37.8402892109158273
 30
0.0
  0
VERTEX
  5
2722
  8
0
 10
157.6158711312943126
 20
38.4925170937464785
 30
0.0
  0
VERTEX
  5
2723
  8
0
 10
157.4663474828051051
 20
39.161788365123833
 30
0.0
  0
VERTEX
  5
2724
  8
0
 10
157.3256694689432891
 20
39.8479514136475004
 30
0.0
  0
VERTEX
  5
2725
  8
0
 10
157.1955399970065059
 20
40.5519588544039493
 30
0.0
  0
VERTEX
  5
2726
  8
0
 10
157.0754585360378996
 20
41.2718489113139029
 30
0.0
  0
VERTEX
  5
2727
  8
0
 10
156.9606423691523105
 20
41.9999992330868324
 30
0.0
  0
SEQEND
  5
2728
  8
0
  0
POLYLINE
  5
260E
  8
0
 66
     1
 10
0.0
 20
0.0
 30
0.0
  0
VERTEX
  5
2729
  8
0
 10
169.3768012538720882
 20
264.0000001867427954
 30
0.0
  0
VERTEX
  5
272A
  8
0
 10
168.9984335037260053
 20
265.1074337188425716
 30
0.0
  0
VERTEX
  5
272B
  8
0
 10
168.8006171734865859
 20
265.6329504739596246
 30
0.0
  0
VERTEX
  5
272C
  8
0
 10
168.5954149745581958
 20
266.1331302642818173
 30
0.0
  0
VERTEX
  5
272D
  8
0
 10
168.3841292617223928
 20
266.6102941399170163
 30
0.0
  0
VERTEX
  5
272E
  8
0
 10
168.167626064081503
 20
267.0655627942069259
 30
0.0
  0
VERTEX
  5
272F
  8
0
 10
167.9460179066824139
 20
267.4979783204128125
 30
0.0
  0
VERTEX
  5
2730
  8
0
 10
167.7193978764431961
 20
267.9065327406490269
 30
0.0
  0
VERTEX
  5
2731
  8
0
 10
167.4880705859146985
 20
268.2908170249259001
 30
0.0
  0
VERTEX
  5
2732
  8
0
 10
167.2523957597032052
 20
268.6505850957153143
 30
0.0
  0
VERTEX
  5
2733
  8
0
 10
167.0127008027967861
 20
268.9855936347781267
 30
0.0
  0
VERTEX
  5
2734
  8
0
 10
166.7692897281781086
 20
269.2956014014857828
 30
0.0
  0
VERTEX
  5
2735
  8
0
 10
166.5224665934524069
 20
269.5803755034348796
 30
0.0
  0
VERTEX
  5
2736
  8
0
 10
166.272536500323497
 20
269.8396983463123888
 30
0.0
  0
VERTEX
  5
2737
  8
0
 10
166.0198036770410965
 20
270.0733540372231118
 30
0.0
  0
VERTEX
  5
2738
  8
0
 10
165.7645670734638941
 20
270.2811269733599033
 30
0.0
  0
VERTEX
  5
2739
  8
0
 10
165.5071239910373038
 20
270.4628049738889786
 30
0.0
  0
VERTEX
  5
273A
  8
0
 10
165.2477737990292042
 20
270.6182379926858061
 30
0.0
  0
VERTEX
  5
273B
  8
0
 10
164.9868177030662935
 20
270.7473310587366768
 30
0.0
  0
VERTEX
  5
273C
  8
0
 10
164.7245574623179891
 20
270.8499908889921244
 30
0.0
  0
VERTEX
  5
273D
  8
0
 10
164.4612959233377865
 20
270.9261237140058824
 30
0.0
  0
VERTEX
  5
273E
  8
0
 10
164.1973339969009942
 20
270.9756607146180158
 30
0.0
  0
VERTEX
  5
273F
  8
0
 10
163.9329601504553864
 20
270.998682581661285
 30
0.0
  0
VERTEX
  5
2740
  8
0
 10
163.6684599692391089
 20
270.9953084914649821
 30
0.0
  0
VERTEX
  5
2741
  8
0
 10
163.4041520169072044
 20
270.9653352760581129
 30
0.0
  0
VERTEX
  5
2742
  8
0
 10
163.1403841220250968
 20
270.9082739726767954
 30
0.0
  0
VERTEX
  5
2743
  8
0
 10
162.8774323166697968
 20
270.8243827907476771
 30
0.0
  0
VERTEX
  5
2744
  8
0
 10
162.615418150053614
 20
270.7155261928464824
 30
0.0
  0
VERTEX
  5
2745
  8
0
 10
162.3545562551001069
 20
270.5826287950296773
 30
0.0
  0
VERTEX
  5
2746
  8
0
 10
162.0956723859731028
 20
270.4204127312484047
 30
0.0
  0
VERTEX
  5
2747
  8
0
 10
161.8396929316027126
 20
270.2225773872247032
 30
0.0
  0
VERTEX
  5
2748
  8
0
 10
161.5858496005371023
 20
269.9999999999998863
 30
0.0
  0
SEQEND
  5
2749
  8
0
  0
POLYLINE
  5
260F
  8
0
 66
     1
 10
0.0
 20
0.0
 30
0.0
  0
VERTEX
  5
274A
  8
0
 10
161.5885820602811123
 20
229.9999999999998863
 30
0.0
  0
VERTEX
  5
274B
  8
0
 10
161.8418545975544873
 20
229.7727714597718887
 30
0.0
  0
VERTEX
  5
274C
  8
0
 10
162.0978499495874132
 20
229.5761445459897914
 30
0.0
  0
VERTEX
  5
274D
  8
0
 10
162.3568618339157865
 20
229.4161828422668066
 30
0.0
  0
VERTEX
  5
274E
  8
0
 10
162.6177099165153095
 20
229.284059680899901
 30
0.0
  0
VERTEX
  5
274F
  8
0
 10
162.8796142360477006
 20
229.175005231000398
 30
0.0
  0
VERTEX
  5
2750
  8
0
 10
163.1424626106631024
 20
229.09101500559089
 30
0.0
  0
VERTEX
  5
2751
  8
0
 10
163.4061582475856085
 20
229.034227022665192
 30
0.0
  0
VERTEX
  5
2752
  8
0
 10
163.6703979664160897
 20
229.0046251923560021
 30
0.0
  0
VERTEX
  5
2753
  8
0
 10
163.9348204599156134
 20
229.0015843646636995
 30
0.0
  0
VERTEX
  5
2754
  8
0
 10
164.1991084350696042
 20
229.024898834225894
 30
0.0
  0
VERTEX
  5
2755
  8
0
 10
164.4629810845902114
 20
229.0747105297577946
 30
0.0
  0
VERTEX
  5
2756
  8
0
 10
164.7261522181057956
 20
229.151095407917893
 30
0.0
  0
VERTEX
  5
2757
  8
0
 10
164.9883213050486859
 20
229.2539603347968864
 30
0.0
  0
VERTEX
  5
2758
  8
0
 10
165.2491862803294111
 20
229.3831914187020118
 30
0.0
  0
VERTEX
  5
2759
  8
0
 10
165.508447597056005
 20
229.5386870419480942
 30
0.0
  0
VERTEX
  5
275A
  8
0
 10
165.7658066754765116
 20
229.7203492850090925
 30
0.0
  0
VERTEX
  5
275B
  8
0
 10
166.0209637737011974
 20
229.9280482221531088
 30
0.0
  0
VERTEX
  5
275C
  8
0
 10
166.2736179051638032
 20
230.1616197470663963
 30
0.0
  0
VERTEX
  5
275D
  8
0
 10
166.5234664570552923
 20
230.4208876389475051
 30
0.0
  0
VERTEX
  5
275E
  8
0
 10
166.7702023058130862
 20
230.7056455725922035
 30
0.0
  0
VERTEX
  5
275F
  8
0
 10
167.0135188412710079
 20
231.0156742311584992
 30
0.0
  0
VERTEX
  5
2760
  8
0
 10
167.2531212435144141
 20
231.350686433709086
 30
0.0
  0
VERTEX
  5
2761
  8
0
 10
167.4887200381051002
 20
231.7103610284061119
 30
0.0
  0
VERTEX
  5
2762
  8
0
 10
167.7199883658703072
 20
232.0944513386432106
 30
0.0
  0
VERTEX
  5
2763
  8
0
 10
167.946548079867398
 20
232.5028131425899005
 30
0.0
  0
VERTEX
  5
2764
  8
0
 10
168.1680799355058866
 20
232.9351177431381927
 30
0.0
  0
VERTEX
  5
2765
  8
0
 10
168.3844949731594909
 20
233.3903306873818906
 30
0.0
  0
VERTEX
  5
2766
  8
0
 10
168.5956883429252002
 20
233.8674466562029863
 30
0.0
  0
VERTEX
  5
2767
  8
0
 10
168.8008013153977913
 20
234.3675564303684098
 30
0.0
  0
VERTEX
  5
2768
  8
0
 10
168.9985420667557889
 20
234.8929524289291919
 30
0.0
  0
VERTEX
  5
2769
  8
0
 10
169.1894403230068065
 20
235.4407179563858108
 30
0.0
  0
VERTEX
  5
276A
  8
0
 10
169.3768013117118869
 20
235.999999997952699
 30
0.0
  0
SEQEND
  5
276B
  8
0
  0
LINE
  5
2610
  8
0
 10
181.2472232502672966
 20
177.5
 30
0.0
 11
177.4944465005347922
 21
171.0
 31
0.0
  0
LINE
  5
2611
  8
0
 10
177.4944465005347922
 20
171.0
 30
0.0
 11
181.2472232502672966
 21
164.5
 31
0.0
  0
LINE
  5
2612
  8
0
 10
181.2472232502672966
 20
164.5
 30
0.0
 11
188.7527767497323907
 21
164.5
 31
0.0
  0
LINE
  5
2613
  8
0
 10
188.7527767497323907
 20
164.5
 30
0.0
 11
192.5055534994650941
 21
171.0
 31
0.0
  0
LINE
  5
2614
  8
0
 10
192.5055534994650941
 20
171.0
 30
0.0
 11
188.7527767497323907
 21
177.5
 31
0.0
  0
LINE
  5
2615
  8
0
 10
188.7527767497323907
 20
177.5
 30
0.0
 11
181.2472232502672966
 21
177.5
 31
0.0
  0
LINE
  5
2616
  8
0
 10
124.2472232502672966
 20
56.5
 30
0.0
 11
131.7527767390112956
 21
56.5000000021600499
 31
0.0
  0
LINE
  5
2617
  8
0
 10
131.7527767390112956
 20
56.5000000021600499
 30
0.0
 11
135.5055534994656909
 21
49.9999999999999787
 31
0.0
  0
LINE
  5
2618
  8
0
 10
135.5055534994656909
 20
49.9999999999999787
 30
0.0
 11
131.7527767497323907
 21
43.5000000000001066
 31
0.0
  0
LINE
  5
2619
  8
0
 10
131.7527767497323907
 20
43.5000000000001066
 30
0.0
 11
124.247223260988406
 21
43.4999999978401135
 31
0.0
  0
LINE
  5
261A
  8
0
 10
124.247223260988406
 20
43.4999999978401135
 30
0.0
 11
120.4944465005341954
 21
49.9999999999999929
 31
0.0
  0
LINE
  5
261B
  8
0
 10
120.4944465005341954
 20
49.9999999999999929
 30
0.0
 11
124.2472232502672966
 21
56.5
 31
0.0
  0
LINE
  5
2648
  8
0
 10
183.2679491924311037
 20
174.0
 30
0.0
 11
181.5358983848622074
 21
171.0
 31
0.0
  0
LINE
  5
2649
  8
0
 10
181.5358983848622074
 20
171.0
 30
0.0
 11
183.2679491924311037
 21
168.0
 31
0.0
  0
LINE
  5
264A
  8
0
 10
183.2679491924311037
 20
168.0
 30
0.0
 11
186.7320508075688963
 21
168.0
 31
0.0
  0
LINE
  5
264B
  8
0
 10
186.7320508075688963
 20
168.0
 30
0.0
 11
188.4641016151377073
 21
171.0
 31
0.0
  0
LINE
  5
264C
  8
0
 10
188.4641016151377073
 20
171.0
 30
0.0
 11
186.7320508075688963
 21
174.0
 31
0.0
  0
LINE
  5
264D
  8
0
 10
186.7320508075688963
 20
174.0
 30
0.0
 11
183.2679491924311037
 21
174.0
 31
0.0
  0
LINE
  5
264F
  8
0
 10
126.2679491924311037
 20
253.0
 30
0.0
 11
124.5358983848621932
 21
250.0
 31
0.0
  0
LINE
  5
2650
  8
0
 10
124.5358983848621932
 20
250.0
 30
0.0
 11
126.2679491924311037
 21
247.0
 31
0.0
  0
LINE
  5
2651
  8
0
 10
126.2679491924311037
 20
247.0
 30
0.0
 11
129.732050807568811
 21
247.0
 31
0.0
  0
LINE
  5
2652
  8
0
 10
129.732050807568811
 20
247.0
 30
0.0
 11
131.4641016151377073
 21
250.0
 31
0.0
  0
LINE
  5
2653
  8
0
 10
131.4641016151377073
 20
250.0
 30
0.0
 11
129.732050807568811
 21
253.0
 31
0.0
  0
LINE
  5
2654
  8
0
 10
129.732050807568811
 20
253.0
 30
0.0
 11
126.2679491924311037
 21
253.0
 31
0.0
  0
LINE
  5
2662
  8
3
 10
253.2330000000000041
 20
153.899999999999892
 30
0.0
 11
254.0
 21
155.2284829694052917
 31
0.0
  0
LINE
  5
2663
  8
3
 10
246.7669999999999959
 20
153.899999999999892
 30
0.0
 11
246.0
 21
155.2284829694052917
 31
0.0
  0
LINE
  5
2665
  8
3
 10
131.2329999999998904
 20
153.899999999999892
 30
0.0
 11
132.0
 21
155.2284829694052917
 31
0.0
  0
LINE
  5
2666
  8
3
 10
124.7669999999999959
 20
153.899999999999892
 30
0.0
 11
124.0
 21
155.2284829694052917
 31
0.0
  0
LINE
  5
2667
  8
3
 10
53.2329999999999686
 20
153.899999999999892
 30
0.0
 11
53.9999999999999716
 21
155.2284829694052917
 31
0.0
  0
LINE
  5
2668
  8
3
 10
46.7670000000000172
 20
153.899999999999892
 30
0.0
 11
46.0000000000000284
 21
155.2284829694052917
 31
0.0
  0
ENDSEC
  0
EOF
