  0
SECTION
  2
HEADER
  9
$ACADVER
  1
AC1009
  9
$INSBASE
 10
0.0
 20
0.0
 30
0.0
  9
$EXTMIN
 10
0.0
 20
-2.960436562073669
 30
0.0
  9
$EXTMAX
 10
142.2779077823107912
 20
106.4871697605097012
 30
0.0
  9
$LIMMIN
 10
0.0
 20
0.0
  9
$LIMMAX
 10
375.0
 20
270.0
  9
$ORTHOMODE
 70
     1
  9
$REGENMODE
 70
     1
  9
$FILLMODE
 70
     1
  9
$QTEXTMODE
 70
     0
  9
$MIRRTEXT
 70
     0
  9
$DRAGMODE
 70
     2
  9
$LTSCALE
 40
10.0
  9
$OSMODE
 70
    37
  9
$ATTMODE
 70
     1
  9
$TEXTSIZE
 40
0.2
  9
$TRACEWID
 40
0.05
  9
$TEXTSTYLE
  7
STANDARD
  9
$CLAYER
  8
0
  9
$CELTYPE
  6
BYLAYER
  9
$CECOLOR
 62
   256
  9
$DIMSCALE
 40
1.0
  9
$DIMASZ
 40
3.0
  9
$DIMEXO
 40
2.0
  9
$DIMDLI
 40
0.38
  9
$DIMRND
 40
0.0
  9
$DIMDLE
 40
0.0
  9
$DIMEXE
 40
2.0
  9
$DIMTP
 40
0.0
  9
$DIMTM
 40
0.0
  9
$DIMTXT
 40
3.2000000000000002
  9
$DIMCEN
 40
0.0
  9
$DIMTSZ
 40
0.0
  9
$DIMTOL
 70
     0
  9
$DIMLIM
 70
     0
  9
$DIMTIH
 70
     0
  9
$DIMTOH
 70
     0
  9
$DIMSE1
 70
     0
  9
$DIMSE2
 70
     0
  9
$DIMTAD
 70
     1
  9
$DIMZIN
 70
     0
  9
$DIMBLK
  1

  9
$DIMASO
 70
     0
  9
$DIMSHO
 70
     0
  9
$DIMPOST
  1

  9
$DIMAPOST
  1

  9
$DIMALT
 70
     0
  9
$DIMALTD
 70
     2
  9
$DIMALTF
 40
25.3999999999999986
  9
$DIMLFAC
 40
1.0
  9
$DIMTOFL
 70
     1
  9
$DIMTVP
 40
1.6000000000000001
  9
$DIMTIX
 70
     1
  9
$DIMSOXD
 70
     0
  9
$DIMSAH
 70
     0
  9
$DIMBLK1
  1

  9
$DIMBLK2
  1

  9
$DIMSTYLE
  2
STANDARD
  9
$DIMCLRD
 70
     0
  9
$DIMCLRE
 70
     0
  9
$DIMCLRT
 70
     0
  9
$DIMTFAC
 40
1.0
  9
$DIMGAP
 40
0.09
  9
$LUNITS
 70
     2
  9
$LUPREC
 70
     1
  9
$SKETCHINC
 40
0.1
  9
$FILLETRAD
 40
0.0
  9
$AUNITS
 70
     0
  9
$AUPREC
 70
     1
  9
$MENU
  1
E:\r13\win\SUPPORT\ACAD
  9
$ELEVATION
 40
0.0
  9
$PELEVATION
 40
0.0
  9
$THICKNESS
 40
0.0
  9
$LIMCHECK
 70
     0
  9
$BLIPMODE
 70
     0
  9
$CHAMFERA
 40
0.0
  9
$CHAMFERB
 40
0.0
  9
$SKPOLY
 70
     0
  9
$TDCREATE
 40
2449840.6474999999627471
  9
$TDUPDATE
 40
2460203.4107754630967975
  9
$TDINDWG
 40
0.6466731829
  9
$TDUSRTIMER
 40
0.6466731829
  9
$USRTIMER
 70
     1
  9
$ANGBASE
 50
0.0
  9
$ANGDIR
 70
     0
  9
$PDMODE
 70
     0
  9
$PDSIZE
 40
0.0
  9
$PLINEWID
 40
0.0
  9
$COORDS
 70
     1
  9
$SPLFRAME
 70
     0
  9
$SPLINETYPE
 70
     6
  9
$SPLINESEGS
 70
     8
  9
$ATTDIA
 70
     1
  9
$ATTREQ
 70
     1
  9
$HANDLING
 70
     1
  9
$HANDSEED
  5
F54
  9
$SURFTAB1
 70
     6
  9
$SURFTAB2
 70
     6
  9
$SURFTYPE
 70
     6
  9
$SURFU
 70
     6
  9
$SURFV
 70
     6
  9
$UCSNAME
  2

  9
$UCSORG
 10
0.0
 20
0.0
 30
0.0
  9
$UCSXDIR
 10
1.0
 20
0.0
 30
0.0
  9
$UCSYDIR
 10
0.0
 20
1.0
 30
0.0
  9
$PUCSNAME
  2

  9
$PUCSORG
 10
0.0
 20
0.0
 30
0.0
  9
$PUCSXDIR
 10
1.0
 20
0.0
 30
0.0
  9
$PUCSYDIR
 10
0.0
 20
1.0
 30
0.0
  9
$USERI1
 70
     0
  9
$USERI2
 70
     1
  9
$USERI3
 70
     0
  9
$USERI4
 70
     0
  9
$USERI5
 70
     0
  9
$USERR1
 40
0.0
  9
$USERR2
 40
0.0
  9
$USERR3
 40
0.0
  9
$USERR4
 40
0.0
  9
$USERR5
 40
0.0
  9
$WORLDVIEW
 70
     1
  9
$SHADEDGE
 70
     3
  9
$SHADEDIF
 70
    70
  9
$TILEMODE
 70
     1
  9
$MAXACTVP
 70
    16
  9
$PLIMCHECK
 70
     0
  9
$PEXTMIN
 10
1.0000000000000000E+20
 20
1.0000000000000000E+20
 30
1.0000000000000000E+20
  9
$PEXTMAX
 10
-1.0000000000000000E+20
 20
-1.0000000000000000E+20
 30
-1.0000000000000000E+20
  9
$PLIMMIN
 10
0.0
 20
0.0
  9
$PLIMMAX
 10
12.0
 20
9.0
  9
$UNITMODE
 70
     0
  9
$VISRETAIN
 70
     0
  9
$PLINEGEN
 70
     0
  9
$PSLTSCALE
 70
     0
  0
ENDSEC
  0
SECTION
  2
TABLES
  0
TABLE
  2
VPORT
 70
     1
  0
VPORT
  2
*ACTIVE
 70
     0
 10
0.0
 20
0.0
 11
1.0
 21
1.0
 12
234.8522167487685124
 22
100.0
 13
0.0
 23
0.0
 14
10.0
 24
10.0
 15
10.0
 25
10.0
 16
0.0
 26
0.0
 36
1.0
 17
0.0
 27
0.0
 37
0.0
 40
200.0
 41
2.3485221674876842
 42
50.0
 43
0.0
 44
0.0
 50
0.0
 51
0.0
 71
     0
 72
   500
 73
     1
 74
     0
 75
     0
 76
     0
 77
     0
 78
     2
  0
ENDTAB
  0
TABLE
  2
LTYPE
 70
    11
  0
LTYPE
  2
CONTINUOUS
 70
     0
  3
Solid Line
 72
    65
 73
     0
 40
0.0
  0
LTYPE
  2
CENTER
 70
     0
  3
____ _ ____ _ ____ _ ____ _ ____ _ ____ _ ____
 72
    65
 73
     4
 40
2.0
 49
1.25
 49
-0.25
 49
0.25
 49
-0.25
  0
LTYPE
  2
HIDDEN
 70
     0
  3
_ _ _ _ _ _ _ _ _ _ _ _ _ _ _ _ _ _ _ _ _ _ _
 72
    65
 73
     2
 40
0.375
 49
0.25
 49
-0.125
  0
LTYPE
  2
PHANTOM2
 70
     0
  3
Phantom (.5x) ___ _ _ ___ _ _ ___ _ _ ___ _ _
 72
    65
 73
     6
 40
1.25
 49
0.625
 49
-0.125
 49
0.125
 49
-0.125
 49
0.125
 49
-0.125
  0
LTYPE
  2
CENTER2
 70
     0
  3
Center (.5x) ___ _ ___ _ ___ _ ___ _ ___ _ ___
 72
    65
 73
     4
 40
1.125
 49
0.75
 49
-0.125
 49
0.125
 49
-0.125
  0
LTYPE
  2
HIDDEN2
 70
     0
  3
Hidden (.5x) _ _ _ _ _ _ _ _ _ _ _ _ _ _ _ _ _
 72
    65
 73
     2
 40
0.1875
 49
0.125
 49
-0.0625
  0
LTYPE
  2
ACANSTGB
 70
     0
  3
__ . . __ . .
 72
    65
 73
     6
 40
0.35433070866
 49
0.15748031496
 49
-0.03937007874
 49
0.03937007874
 49
-0.03937007874
 49
0.03937007874
 49
-0.03937007874
  0
LTYPE
  2
ACANSTGL
 70
     0
  3
_ _ _ _ _
 72
    65
 73
     2
 40
0.11811023622
 49
0.07874015748
 49
-0.03937007874
  0
LTYPE
  2
ACISOWELD
 70
     0
  3
_ _ _ _ _
 72
    65
 73
     2
 40
2.0
 49
2.0
 49
-1.0
  0
LTYPE
  2
ACISOTGL
 70
     0
  3
_ _ _ _ _
 72
    65
 73
     2
 40
3.0
 49
2.0
 49
-1.0
  0
LTYPE
  2
ACISOTGB
 70
     0
  3
__ . . __ . .
 72
    65
 73
     6
 40
9.0
 49
4.0
 49
-1.0
 49
1.0
 49
-1.0
 49
1.0
 49
-1.0
  0
ENDTAB
  0
TABLE
  2
LAYER
 70
     4
  0
LAYER
  2
0
 70
     0
 62
     7
  6
CONTINUOUS
  0
LAYER
  2
1
 70
     0
 62
     1
  6
CENTER
  0
LAYER
  2
DEFPOINTS
 70
     0
 62
     7
  6
CONTINUOUS
  0
LAYER
  2
3
 70
     0
 62
     3
  6
CONTINUOUS
  0
ENDTAB
  0
TABLE
  2
STYLE
 70
     4
  0
STYLE
  2
STANDARD
 70
     0
 40
0.0
 41
1.0
 50
0.0
 71
     0
 42
0.2
  3
TXT
  4
BIGFONT
  0
STYLE
  2
STANDARD1
 70
     0
 40
0.0
 41
1.0
 50
0.0
 71
     0
 42
3.0
  3
txt
  4

  0
STYLE
  2
ACANSGDT
 70
     0
 40
0.0
 41
1.0
 50
0.0
 71
     0
 42
0.2
  3
amgdt.shx
  4

  0
STYLE
  2
ACISOGDT
 70
     0
 40
0.0
 41
1.0
 50
0.0
 71
     0
 42
2.5
  3
amgdt.shx
  4

  0
ENDTAB
  0
TABLE
  2
VIEW
 70
     1
  0
VIEW
  2
ALL
 70
     0
 40
270.0
 10
220.9915966386554942
 20
135.0
 41
0.0
 11
0.0
 21
0.0
 31
1.0
 12
0.0
 22
0.0
 32
0.0
 42
0.0
 43
0.0
 44
0.0
 50
0.0
 71
     0
  0
ENDTAB
  0
TABLE
  2
UCS
 70
     0
  0
ENDTAB
  0
TABLE
  2
APPID
 70
    11
  0
APPID
  2
ACAD
 70
     0
  0
APPID
  2
ACAD_EXEMPT_FROM_CAD_STANDARDS
 70
     0
  0
APPID
  2
ACAD_MLEADERVER
 70
     0
  0
APPID
  2
MCAD_NO_VIS
 70
     0
  0
APPID
  2
ACAD_TEMP_GRAPHIC
 70
     0
  0
APPID
  2
ACATTRIBSERVICES
 70
     0
  0
APPID
  2
DESIGNERASSEMBLIES
 70
     0
  0
APPID
  2
ACAD_DSTYLE_DIMJAG
 70
     0
  0
APPID
  2
ACAD_DSTYLE_DIMBREAK
 70
     0
  0
APPID
  2
ACAD_NAV_VCDISPLAY
 70
     0
  0
APPID
  2
ACAD_DSTYLE_DIMTALN
 70
     0
  0
ENDTAB
  0
TABLE
  2
DIMSTYLE
 70
    14
  0
DIMSTYLE
  2
STANDARD
 70
     0
  3

  4

  5

  6

  7

 40
1.0
 41
0.18
 42
0.0625
 43
0.38
 44
0.18
 45
0.0
 46
0.0
 47
0.0
 48
0.0
140
0.18
141
0.09
142
0.0
143
25.3999999999999986
144
1.0
145
0.0
146
1.0
147
0.09
 71
     0
 72
     0
 73
     1
 74
     1
 75
     0
 76
     0
 77
     0
 78
     0
170
     0
171
     2
172
     0
173
     0
174
     0
175
     0
176
     0
177
     0
178
     0
  0
DIMSTYLE
  2
AM_ANSI
 70
     0
  3

  4
mm
  5

  6

  7

 40
1.0
 41
0.12
 42
0.05
 43
0.5
 44
0.1
 45
0.0
 46
0.0
 47
0.1
 48
0.1
140
0.12
141
0.0
142
0.0
143
25.3999999999999986
144
1.0
145
0.0
146
0.71
147
0.06
 71
     0
 72
     0
 73
     1
 74
     1
 75
     0
 76
     0
 77
     0
 78
     7
170
     0
171
     2
172
     0
173
     0
174
     0
175
     0
176
   256
177
   256
178
     2
  0
DIMSTYLE
  2
AM_ANSI$3
 70
     0
  3

  4
mm
  5

  6

  7

 40
1.0
 41
0.12
 42
0.05
 43
0.5
 44
0.1
 45
0.0
 46
0.0
 47
0.1
 48
0.1
140
0.12
141
0.0
142
0.0
143
25.3999999999999986
144
1.0
145
0.0
146
0.71
147
0.06
 71
     0
 72
     0
 73
     1
 74
     1
 75
     0
 76
     0
 77
     0
 78
     7
170
     0
171
     2
172
     0
173
     0
174
     0
175
     0
176
   256
177
   256
178
     2
  0
DIMSTYLE
  2
AM_ANSI$4
 70
     0
  3

  4
mm
  5

  6

  7

 40
1.0
 41
0.12
 42
0.05
 43
0.5
 44
0.1
 45
0.0
 46
0.0
 47
0.1
 48
0.1
140
0.12
141
0.0
142
0.0
143
25.3999999999999986
144
1.0
145
0.0
146
0.71
147
0.06
 71
     0
 72
     0
 73
     1
 74
     1
 75
     0
 76
     0
 77
     0
 78
     7
170
     0
171
     2
172
     0
173
     0
174
     0
175
     0
176
   256
177
   256
178
     2
  0
DIMSTYLE
  2
AM_ANSI$7
 70
     0
  3

  4
mm
  5

  6

  7

 40
1.0
 41
0.12
 42
0.05
 43
0.5
 44
0.1
 45
0.0
 46
0.0
 47
0.1
 48
0.1
140
0.12
141
0.0
142
0.0
143
25.3999999999999986
144
1.0
145
0.0
146
0.71
147
0.06
 71
     0
 72
     0
 73
     1
 74
     1
 75
     0
 76
     0
 77
     0
 78
     7
170
     0
171
     2
172
     0
173
     0
174
     0
175
     0
176
   256
177
   256
178
     2
  0
DIMSTYLE
  2
AM_ANSI$SF
 70
     0
  3

  4
mm
  5

  6

  7

 40
1.0
 41
0.12
 42
0.05
 43
0.5
 44
0.1
 45
0.0
 46
0.0
 47
0.1
 48
0.1
140
0.12
141
0.0
142
0.0
143
25.3999999999999986
144
1.0
145
0.0
146
0.71
147
0.06
 71
     0
 72
     0
 73
     1
 74
     1
 75
     1
 76
     1
 77
     0
 78
     7
170
     0
171
     2
172
     0
173
     0
174
     0
175
     0
176
   256
177
   256
178
     2
  0
DIMSTYLE
  2
AM_ANSI$SH
 70
     0
  3

  4
mm
  5

  6
GENAXEH
  7

 40
1.0
 41
0.12
 42
0.05
 43
0.5
 44
0.1
 45
0.0
 46
0.0
 47
0.1
 48
0.1
140
0.12
141
0.0
142
0.0
143
25.3999999999999986
144
1.0
145
0.0
146
0.71
147
0.06
 71
     0
 72
     0
 73
     1
 74
     1
 75
     1
 76
     1
 77
     0
 78
     7
170
     0
171
     2
172
     0
173
     1
174
     0
175
     0
176
   256
177
   256
178
     2
  0
DIMSTYLE
  2
AM_ISO
 70
     0
  3

  4
"
  5

  6

  7

 40
1.0
 41
3.5
 42
1.0
 43
10.0
 44
1.0
 45
0.0
 46
0.0
 47
0.1
 48
0.1
140
3.5
141
0.0
142
0.0
143
0.0393701
144
1.0
145
0.0
146
0.71
147
1.5
 71
     0
 72
     0
 73
     0
 74
     0
 75
     0
 76
     0
 77
     1
 78
     8
170
     0
171
     2
172
     1
173
     0
174
     0
175
     0
176
   256
177
   256
178
     2
  0
DIMSTYLE
  2
AM_ISO$3
 70
     0
  3

  4
"
  5

  6

  7

 40
1.0
 41
3.5
 42
1.0
 43
10.0
 44
1.0
 45
0.0
 46
0.0
 47
0.1
 48
0.1
140
3.5
141
0.0
142
0.0
143
0.0393701
144
1.0
145
0.0
146
0.71
147
1.5
 71
     0
 72
     0
 73
     0
 74
     1
 75
     0
 76
     0
 77
     1
 78
     8
170
     0
171
     2
172
     0
173
     0
174
     0
175
     0
176
   256
177
   256
178
     2
  0
DIMSTYLE
  2
AM_ISO$4
 70
     0
  3

  4
"
  5

  6

  7

 40
1.0
 41
3.5
 42
1.0
 43
10.0
 44
1.0
 45
0.0
 46
0.0
 47
0.1
 48
0.1
140
3.5
141
0.0
142
0.0
143
0.0393701
144
1.0
145
0.0
146
0.71
147
1.5
 71
     0
 72
     0
 73
     0
 74
     1
 75
     0
 76
     0
 77
     1
 78
     8
170
     0
171
     2
172
     0
173
     0
174
     0
175
     0
176
   256
177
   256
178
     2
  0
DIMSTYLE
  2
AM_ISO$6
 70
     0
  3

  4
"
  5

  6

  7

 40
1.0
 41
3.5
 42
1.0
 43
10.0
 44
1.0
 45
0.0
 46
0.0
 47
0.1
 48
0.1
140
3.5
141
0.0
142
0.0
143
0.0393701
144
1.0
145
0.0
146
0.71
147
1.5
 71
     0
 72
     0
 73
     0
 74
     0
 75
     0
 76
     0
 77
     0
 78
     8
170
     0
171
     2
172
     1
173
     0
174
     0
175
     0
176
   256
177
   256
178
     2
  0
DIMSTYLE
  2
AM_ISO$7
 70
     0
  3

  4
"
  5

  6

  7

 40
1.0
 41
3.5
 42
1.0
 43
10.0
 44
1.0
 45
0.0
 46
0.0
 47
0.1
 48
0.1
140
3.5
141
0.0
142
0.0
143
0.0393701
144
1.0
145
0.0
146
0.71
147
1.5
 71
     0
 72
     0
 73
     0
 74
     0
 75
     0
 76
     0
 77
     1
 78
     8
170
     0
171
     2
172
     1
173
     0
174
     0
175
     0
176
   256
177
   256
178
     2
  0
DIMSTYLE
  2
AM_ISO$SF
 70
     0
  3

  4
"
  5

  6

  7

 40
1.0
 41
3.5
 42
1.0
 43
10.0
 44
1.0
 45
0.0
 46
0.0
 47
0.1
 48
0.1
140
3.5
141
0.0
142
0.0
143
0.0393701
144
1.0
145
0.0
146
0.71
147
1.5
 71
     0
 72
     0
 73
     0
 74
     0
 75
     1
 76
     1
 77
     1
 78
     8
170
     0
171
     2
172
     1
173
     0
174
     0
175
     0
176
   256
177
   256
178
     2
  0
DIMSTYLE
  2
AM_ISO$SH
 70
     0
  3

  4
"
  5

  6
GENAXEH
  7

 40
1.0
 41
3.5
 42
1.0
 43
10.0
 44
1.0
 45
0.0
 46
0.0
 47
0.1
 48
0.1
140
3.5
141
0.0
142
0.0
143
0.0393701
144
2.0
145
0.0
146
0.71
147
1.5
 71
     0
 72
     0
 73
     0
 74
     0
 75
     1
 76
     1
 77
     1
 78
     8
170
     0
171
     2
172
     1
173
     1
174
     0
175
     0
176
   256
177
   256
178
     2
  0
ENDTAB
  0
ENDSEC
  0
SECTION
  2
BLOCKS
  0
BLOCK
  8
0
  2
$MODEL_SPACE
 70
     0
 10
0.0
 20
0.0
 30
0.0
  3
$MODEL_SPACE
  1

  0
ENDBLK
  5
AA
  8
0
  0
BLOCK
 67
     1
  8
0
  2
$PAPER_SPACE
 70
     0
 10
0.0
 20
0.0
 30
0.0
  3
$PAPER_SPACE
  1

  0
ENDBLK
  5
A8
 67
     1
  8
0
  0
BLOCK
  8
0
  2
*U0
 70
     1
 10
0.0
 20
0.0
 30
0.0
  3
*U0
  1

  0
ENDBLK
  5
20F
  8
0
  0
BLOCK
  8
0
  2
GENAXEH
 70
     0
 10
0.0
 20
0.0
 30
0.0
  3
GENAXEH
  1

  0
LINE
  5
239
  8
0
 10
-1.0
 20
0.0
 30
0.0
 11
1.0
 21
0.0
 31
0.0
  0
ENDBLK
  5
23B
  8
0
  0
ENDSEC
  0
SECTION
  2
ENTITIES
  0
LINE
  5
39
  8
1
 10
95.7779077823108764
 20
33.3686038165771635
 30
0.0
 11
52.7779077823108693
 21
33.3686038165771492
 31
0.0
  0
LINE
  5
60
  8
1
 10
130.7779077823109048
 20
56.8686038165771492
 30
0.0
 11
130.7779077823109048
 21
79.868603816577064
 31
0.0
  0
TEXT
  5
1CC
  8
0
 62
     3
 10
0.0
 20
0.0
 30
0.0
 40
10.0
  1
TCC30-BK-M8
  7
STANDARD1
  0
LINE
  5
404
  8
1
 10
93.7779077823108764
 20
68.368603816577135
 30
0.0
 11
75.7779077823108764
 21
68.368603816577135
 31
0.0
  0
LINE
  5
93D
  8
1
 10
29.3961321820299908
 20
44.8686038165771492
 30
0.0
 11
29.3961321820299908
 21
21.8686038165771492
 31
0.0
  0
LINE
  5
93E
  8
1
 10
17.8961321820299908
 20
33.3686038165771492
 30
0.0
 11
40.8961321820299801
 21
33.3686038165771492
 31
0.0
  0
CIRCLE
  5
D54
  8
0
 10
29.3961321820299908
 20
33.3686038165771492
 30
0.0
 40
6.5
  0
LINE
  5
D74
  8
0
 10
90.0109077823108805
 20
37.3686038165771492
 30
0.0
 11
65.7779077823108764
 21
37.3686038165771492
 31
0.0
  0
LINE
  5
D75
  8
0
 10
65.7779077823108764
 20
29.3686038165771386
 30
0.0
 11
90.0109077823108805
 21
29.3686038165771492
 31
0.0
  0
LINE
  5
D76
  8
0
 10
90.0109077823108805
 20
29.3686038165771492
 30
0.0
 11
90.0109077823108805
 21
37.3686038165771492
 31
0.0
  0
LINE
  5
D77
  8
0
 10
90.7779077823108764
 20
30.1356038165771487
 30
0.0
 11
90.7779077823108764
 21
36.6016038165771533
 31
0.0
  0
LINE
  5
D78
  8
0
 10
90.7779077823108764
 20
36.6016038165771533
 30
0.0
 11
90.0109077823108805
 21
37.3686038165771492
 31
0.0
  0
LINE
  5
D79
  8
0
 10
90.0109077823108805
 20
29.3686038165771492
 30
0.0
 11
90.7779077823108764
 21
30.1356038165771487
 31
0.0
  0
LINE
  5
D7A
  8
3
 10
69.7779077823108764
 20
29.3686038165771492
 30
0.0
 11
69.7779077823108764
 21
37.3686038165771492
 31
0.0
  0
LINE
  5
D7D
  8
0
 10
65.7779077823108764
 20
26.8686038165771492
 30
0.0
 11
65.7779077823108764
 21
39.8686038165771492
 31
0.0
  0
LINE
  5
D7E
  8
0
 10
65.7779077823108764
 20
39.8686038165771492
 30
0.0
 11
58.4279077823108679
 21
39.8686038165771492
 31
0.0
  0
LINE
  5
D7F
  8
0
 10
58.4279077823108679
 20
26.8686038165771492
 30
0.0
 11
65.7779077823108764
 21
26.8686038165771492
 31
0.0
  0
LINE
  5
D81
  8
0
 10
57.7779077823108693
 20
27.5186038165771514
 30
0.0
 11
57.7779077823108693
 21
39.2186038165771507
 31
0.0
  0
ARC
  5
D82
  8
0
 10
58.4279077823108821
 20
39.2186038165771507
 30
0.0
 40
0.6500000000000022
 50
90.0
 51
180.0
  0
ARC
  5
D83
  8
0
 10
58.4279077823108679
 20
27.5186038165771514
 30
0.0
 40
0.6500000000000014
 50
180.0
 51
270.0
  0
LINE
  5
D85
  8
3
 10
90.7779077823108764
 20
36.6016038165771533
 30
0.0
 11
69.7779077823108764
 21
36.6016038165771533
 31
0.0
  0
LINE
  5
D86
  8
3
 10
90.7779077823108764
 20
30.1356038165771487
 30
0.0
 11
69.7779077823108764
 21
30.1356038165771487
 31
0.0
  0
LINE
  5
DA6
  8
0
 10
85.9779077823108793
 20
74.868603816577135
 30
0.0
 11
85.3973511987101119
 21
75.8741573160422718
 31
0.0
  0
LINE
  5
DA7
  8
0
 10
80.7779077823108764
 20
74.868603816577135
 30
0.0
 11
80.7779077823108764
 21
61.8686038165771279
 31
0.0
  0
LINE
  5
DA8
  8
0
 10
80.7779077823108622
 20
61.8686038165771279
 30
0.0
 11
81.2468050797960188
 21
60.8630503171119983
 31
0.0
  0
LINE
  5
DA9
  8
0
 10
81.2468050797960188
 20
75.8741573160422718
 30
0.0
 11
80.7779077823108764
 21
74.868603816577135
 31
0.0
  0
LINE
  5
DAA
  8
0
 10
85.3973511987101119
 20
60.8630503171119983
 30
0.0
 11
85.9779077823108651
 21
61.8686038165771279
 31
0.0
  0
LINE
  5
DAC
  8
0
 10
85.3973511987101119
 20
75.8741573160422718
 30
0.0
 11
81.2468050797960188
 21
75.8741573160422718
 31
0.0
  0
LINE
  5
DB0
  8
0
 10
85.3973511987101119
 20
60.8630503171119983
 30
0.0
 11
81.2468050797960188
 21
60.8630503171119983
 31
0.0
  0
LINE
  5
DB5
  8
0
 10
85.3973511987101119
 20
64.6158270668445596
 30
0.0
 11
81.2468050797960188
 21
64.6158270668445596
 31
0.0
  0
LINE
  5
DB8
  8
0
 10
85.3973511987101119
 20
72.1213805663096963
 30
0.0
 11
81.2468050797960188
 21
72.1213805663096963
 31
0.0
  0
LINE
  5
DBB
  8
0
 10
88.7779077823108764
 20
74.118346077769985
 30
0.0
 11
88.7779077823108764
 21
62.6188615553842709
 31
0.0
  0
LINE
  5
DBC
  8
0
 10
85.9779077823108793
 20
74.868603816577135
 30
0.0
 11
85.9779077823108651
 21
61.8686038165771279
 31
0.0
  0
LINE
  5
DBD
  8
0
 10
88.7779077823108764
 20
74.118346077769985
 30
0.0
 11
85.9779077823108651
 21
74.868603816577135
 31
0.0
  0
LINE
  5
DBE
  8
0
 10
85.9779077823108651
 20
61.8686038165771279
 30
0.0
 11
88.7779077823108764
 21
62.6188615553842709
 31
0.0
  0
LINE
  5
DD4
  8
1
 10
142.2779077823107912
 20
68.3686038165771066
 30
0.0
 11
119.2779077823109048
 21
68.3686038165771066
 31
0.0
  0
LINE
  5
DD5
  8
0
 10
130.7779077823107912
 20
75.8741573160422575
 30
0.0
 11
124.2779077823108054
 21
72.1213805663096821
 31
0.0
  0
LINE
  5
DD6
  8
0
 10
137.2779077823107912
 20
72.1213805663096821
 30
0.0
 11
130.7779077823107912
 21
75.8741573160422575
 31
0.0
  0
LINE
  5
DD7
  8
0
 10
124.2779077823108054
 20
72.1213805663096821
 30
0.0
 11
124.2779077823108054
 21
64.6158270668445596
 31
0.0
  0
CIRCLE
  5
DD8
  8
0
 10
130.7779077823107912
 20
68.3686038165771208
 30
0.0
 40
3.3235000000000001
  0
LINE
  5
DD9
  8
0
 10
124.2779077823108054
 20
64.6158270668445596
 30
0.0
 11
130.7779077823107912
 21
60.863050317111977
 31
0.0
  0
LINE
  5
DDA
  8
0
 10
130.7779077823107912
 20
60.863050317111977
 30
0.0
 11
137.2779077823107912
 21
64.6158270668445596
 31
0.0
  0
LINE
  5
DDB
  8
0
 10
137.2779077823107912
 20
64.6158270668445596
 30
0.0
 11
137.2779077823107912
 21
72.1213805663096821
 31
0.0
  0
CIRCLE
  5
DDD
  8
0
 10
130.7779077823109048
 20
68.3686038165771066
 30
0.0
 40
6.4999999999999583
  0
CIRCLE
  5
DDE
  8
3
 10
130.7779077823109048
 20
68.368603816577135
 30
0.0
 40
4.0
  0
LINE
  5
E02
  8
1
 10
93.7779077823108764
 20
99.987169760509687
 30
0.0
 11
75.7779077823108764
 21
99.987169760509687
 31
0.0
  0
LINE
  5
E03
  8
0
 10
80.7779077823108764
 20
93.487169760509687
 30
0.0
 11
85.9779077823108793
 21
93.487169760509687
 31
0.0
  0
LINE
  5
E04
  8
0
 10
80.7779077823108764
 20
106.4871697605097012
 30
0.0
 11
80.7779077823108764
 21
93.487169760509687
 31
0.0
  0
LINE
  5
E05
  8
0
 10
85.9779077823108793
 20
106.4871697605097012
 30
0.0
 11
80.7779077823108764
 21
106.4871697605097012
 31
0.0
  0
LINE
  5
E06
  8
0
 10
88.7779077823108764
 20
105.7369120217024943
 30
0.0
 11
88.7779077823108764
 21
94.2374274993168086
 31
0.0
  0
LINE
  5
E07
  8
0
 10
85.9779077823108793
 20
106.4871697605097012
 30
0.0
 11
85.9779077823108793
 21
93.487169760509687
 31
0.0
  0
LINE
  5
E08
  8
0
 10
88.7779077823108764
 20
105.7369120217024943
 30
0.0
 11
85.9779077823108793
 21
106.4871697605097012
 31
0.0
  0
LINE
  5
E09
  8
0
 10
85.9779077823108793
 20
93.487169760509687
 30
0.0
 11
88.7779077823108764
 21
94.2374274993168086
 31
0.0
  0
LINE
  5
E0E
  8
0
 10
85.3973511987101119
 20
99.987169760509687
 30
0.0
 11
81.2468050797960188
 21
99.987169760509687
 31
0.0
  0
ARC
  5
E3B
  8
0
 10
82.6553382093590727
 20
62.7394386919782789
 30
0.0
 40
3.3225695729515041
 50
334.3842474680272971
 51
34.3842474680252721
  0
ARC
  5
E3C
  8
0
 10
73.5581572203466862
 20
68.3686038165771208
 30
0.0
 40
12.4197362045516098
 50
342.4124743850342156
 51
17.5875256149659087
  0
ARC
  5
E3D
  8
0
 10
82.6553382093590727
 20
73.9977689411759911
 30
0.0
 40
3.3225695729515041
 50
325.615752531975204
 51
25.6157525319733104
  0
ARC
  5
E41
  8
0
 10
96.029859633638651
 20
68.368603816577135
 30
0.0
 40
15.2519518513277692
 50
165.7559742886664935
 51
194.2440257113335065
  0
ARC
  5
E44
  8
0
 10
84.7667322316997058
 20
73.9977689411759911
 30
0.0
 40
3.9888244493888321
 50
158.0610027786867136
 51
208.0610027786852925
  0
ARC
  5
E45
  8
0
 10
84.7667322316997058
 20
62.7394386919782789
 30
0.0
 40
3.9888244493888321
 50
151.9389972213145086
 51
201.9389972213132012
  0
ARC
  5
E46
  8
0
 10
76.5766650413931274
 20
103.2371697605097012
 30
0.0
 40
9.4003725610149864
 50
339.7735762333492175
 51
20.2264237666507505
  0
ARC
  5
E47
  8
0
 10
92.3215849397444259
 20
103.2371697605096017
 30
0.0
 40
11.5418044059981604
 50
163.6451695351204023
 51
196.3548304648795124
  0
ARC
  5
E48
  8
0
 10
76.5766650413931274
 20
96.737169760509687
 30
0.0
 40
9.4003725610149864
 50
339.7735762333492175
 51
20.2264237666507896
  0
ARC
  5
E49
  8
0
 10
92.3215849397444259
 20
96.7371697605097012
 30
0.0
 40
11.5418044059981604
 50
163.6451695351200044
 51
196.3548304648799103
  0
LINE
  5
EA4
  8
0
 10
26.3961321820305486
 20
31.6365530090083986
 30
0.0
 11
29.3961321820305486
 21
29.9045022014394384
 31
0.0
  0
LINE
  5
EA5
  8
0
 10
29.3961321820305486
 20
29.9045022014394384
 30
0.0
 11
32.3961321820302075
 21
31.6365530090083986
 31
0.0
  0
LINE
  5
EA6
  8
0
 10
32.3961321820302075
 20
31.6365530090083986
 30
0.0
 11
32.3961321820302075
 21
35.1006546241466424
 31
0.0
  0
LINE
  5
EA7
  8
0
 10
32.3961321820302075
 20
35.1006546241466424
 30
0.0
 11
29.3961321820302111
 21
36.8327054317149205
 31
0.0
  0
LINE
  5
EA8
  8
0
 10
29.3961321820302111
 20
36.8327054317149205
 30
0.0
 11
26.39613218202987
 21
35.1006546241456192
 31
0.0
  0
LINE
  5
EA9
  8
0
 10
26.39613218202987
 20
35.1006546241456192
 30
0.0
 11
26.3961321820305486
 21
31.6365530090083986
 31
0.0
  0
LINE
  5
EDC
  8
3
 10
69.777907782310848
 20
36.6016038165771533
 30
0.0
 11
68.4494248129055052
 21
37.3686038165771635
 31
0.0
  0
LINE
  5
EDD
  8
3
 10
69.7779077823108764
 20
30.1356038165771487
 30
0.0
 11
68.449424812905562
 21
29.3686038165771492
 31
0.0
  0
ENDSEC
  0
EOF
