  0
SECTION
  2
HEADER
  9
$ACADVER
  1
AC1009
  9
$INSBASE
 10
0.0
 20
0.0
 30
0.0
  9
$EXTMIN
 10
0.0
 20
-2.960436562073669
 30
0.0
  9
$EXTMAX
 10
195.0
 20
160.0
 30
0.0
  9
$LIMMIN
 10
0.0
 20
0.0
  9
$LIMMAX
 10
375.0
 20
270.0
  9
$ORTHOMODE
 70
     1
  9
$REGENMODE
 70
     1
  9
$FILLMODE
 70
     1
  9
$QTEXTMODE
 70
     0
  9
$MIRRTEXT
 70
     0
  9
$DRAGMODE
 70
     2
  9
$LTSCALE
 40
10.0
  9
$OSMODE
 70
    37
  9
$ATTMODE
 70
     1
  9
$TEXTSIZE
 40
0.2
  9
$TRACEWID
 40
0.05
  9
$TEXTSTYLE
  7
STANDARD
  9
$CLAYER
  8
0
  9
$CELTYPE
  6
BYLAYER
  9
$CECOLOR
 62
   256
  9
$DIMSCALE
 40
1.0
  9
$DIMASZ
 40
3.0
  9
$DIMEXO
 40
2.0
  9
$DIMDLI
 40
0.38
  9
$DIMRND
 40
0.0
  9
$DIMDLE
 40
0.0
  9
$DIMEXE
 40
2.0
  9
$DIMTP
 40
0.0
  9
$DIMTM
 40
0.0
  9
$DIMTXT
 40
3.2000000000000002
  9
$DIMCEN
 40
0.0
  9
$DIMTSZ
 40
0.0
  9
$DIMTOL
 70
     0
  9
$DIMLIM
 70
     0
  9
$DIMTIH
 70
     0
  9
$DIMTOH
 70
     0
  9
$DIMSE1
 70
     0
  9
$DIMSE2
 70
     0
  9
$DIMTAD
 70
     1
  9
$DIMZIN
 70
     0
  9
$DIMBLK
  1

  9
$DIMASO
 70
     0
  9
$DIMSHO
 70
     0
  9
$DIMPOST
  1

  9
$DIMAPOST
  1

  9
$DIMALT
 70
     0
  9
$DIMALTD
 70
     2
  9
$DIMALTF
 40
25.3999999999999986
  9
$DIMLFAC
 40
1.0
  9
$DIMTOFL
 70
     1
  9
$DIMTVP
 40
1.6000000000000001
  9
$DIMTIX
 70
     1
  9
$DIMSOXD
 70
     0
  9
$DIMSAH
 70
     0
  9
$DIMBLK1
  1

  9
$DIMBLK2
  1

  9
$DIMSTYLE
  2
STANDARD
  9
$DIMCLRD
 70
     0
  9
$DIMCLRE
 70
     0
  9
$DIMCLRT
 70
     0
  9
$DIMTFAC
 40
1.0
  9
$DIMGAP
 40
0.09
  9
$LUNITS
 70
     2
  9
$LUPREC
 70
     1
  9
$SKETCHINC
 40
0.1
  9
$FILLETRAD
 40
0.0
  9
$AUNITS
 70
     0
  9
$AUPREC
 70
     1
  9
$MENU
  1
E:\r13\win\SUPPORT\ACAD
  9
$ELEVATION
 40
0.0
  9
$PELEVATION
 40
0.0
  9
$THICKNESS
 40
0.0
  9
$LIMCHECK
 70
     0
  9
$BLIPMODE
 70
     0
  9
$CHAMFERA
 40
0.0
  9
$CHAMFERB
 40
0.0
  9
$SKPOLY
 70
     0
  9
$TDCREATE
 40
2449840.6474999999627471
  9
$TDUPDATE
 40
2460203.4734027781523764
  9
$TDINDWG
 40
1.1396172106
  9
$TDUSRTIMER
 40
1.1396172106
  9
$USRTIMER
 70
     1
  9
$ANGBASE
 50
0.0
  9
$ANGDIR
 70
     0
  9
$PDMODE
 70
     0
  9
$PDSIZE
 40
0.0
  9
$PLINEWID
 40
0.0
  9
$COORDS
 70
     1
  9
$SPLFRAME
 70
     0
  9
$SPLINETYPE
 70
     6
  9
$SPLINESEGS
 70
     8
  9
$ATTDIA
 70
     1
  9
$ATTREQ
 70
     1
  9
$HANDLING
 70
     1
  9
$HANDSEED
  5
2B7C
  9
$SURFTAB1
 70
     6
  9
$SURFTAB2
 70
     6
  9
$SURFTYPE
 70
     6
  9
$SURFU
 70
     6
  9
$SURFV
 70
     6
  9
$UCSNAME
  2

  9
$UCSORG
 10
0.0
 20
0.0
 30
0.0
  9
$UCSXDIR
 10
1.0
 20
0.0
 30
0.0
  9
$UCSYDIR
 10
0.0
 20
1.0
 30
0.0
  9
$PUCSNAME
  2

  9
$PUCSORG
 10
0.0
 20
0.0
 30
0.0
  9
$PUCSXDIR
 10
1.0
 20
0.0
 30
0.0
  9
$PUCSYDIR
 10
0.0
 20
1.0
 30
0.0
  9
$USERI1
 70
     0
  9
$USERI2
 70
     1
  9
$USERI3
 70
     0
  9
$USERI4
 70
     0
  9
$USERI5
 70
     0
  9
$USERR1
 40
0.0
  9
$USERR2
 40
0.0
  9
$USERR3
 40
0.0
  9
$USERR4
 40
0.0
  9
$USERR5
 40
0.0
  9
$WORLDVIEW
 70
     1
  9
$SHADEDGE
 70
     3
  9
$SHADEDIF
 70
    70
  9
$TILEMODE
 70
     1
  9
$MAXACTVP
 70
    16
  9
$PLIMCHECK
 70
     0
  9
$PEXTMIN
 10
1.0000000000000000E+20
 20
1.0000000000000000E+20
 30
1.0000000000000000E+20
  9
$PEXTMAX
 10
-1.0000000000000000E+20
 20
-1.0000000000000000E+20
 30
-1.0000000000000000E+20
  9
$PLIMMIN
 10
0.0
 20
0.0
  9
$PLIMMAX
 10
12.0
 20
9.0
  9
$UNITMODE
 70
     0
  9
$VISRETAIN
 70
     0
  9
$PLINEGEN
 70
     0
  9
$PSLTSCALE
 70
     0
  0
ENDSEC
  0
SECTION
  2
TABLES
  0
TABLE
  2
VPORT
 70
     1
  0
VPORT
  2
*ACTIVE
 70
     0
 10
0.0
 20
0.0
 11
1.0
 21
1.0
 12
352.2783251231526833
 22
150.0
 13
0.0
 23
0.0
 14
10.0
 24
10.0
 15
10.0
 25
10.0
 16
0.0
 26
0.0
 36
1.0
 17
0.0
 27
0.0
 37
0.0
 40
300.0
 41
2.3485221674876842
 42
50.0
 43
0.0
 44
0.0
 50
0.0
 51
0.0
 71
     0
 72
   500
 73
     1
 74
     0
 75
     0
 76
     0
 77
     0
 78
     2
  0
ENDTAB
  0
TABLE
  2
LTYPE
 70
    11
  0
LTYPE
  2
CONTINUOUS
 70
     0
  3
Solid Line
 72
    65
 73
     0
 40
0.0
  0
LTYPE
  2
CENTER
 70
     0
  3
____ _ ____ _ ____ _ ____ _ ____ _ ____ _ ____
 72
    65
 73
     4
 40
2.0
 49
1.25
 49
-0.25
 49
0.25
 49
-0.25
  0
LTYPE
  2
HIDDEN
 70
     0
  3
_ _ _ _ _ _ _ _ _ _ _ _ _ _ _ _ _ _ _ _ _ _ _
 72
    65
 73
     2
 40
0.375
 49
0.25
 49
-0.125
  0
LTYPE
  2
PHANTOM2
 70
     0
  3
Phantom (.5x) ___ _ _ ___ _ _ ___ _ _ ___ _ _
 72
    65
 73
     6
 40
1.25
 49
0.625
 49
-0.125
 49
0.125
 49
-0.125
 49
0.125
 49
-0.125
  0
LTYPE
  2
CENTER2
 70
     0
  3
Center (.5x) ___ _ ___ _ ___ _ ___ _ ___ _ ___
 72
    65
 73
     4
 40
1.125
 49
0.75
 49
-0.125
 49
0.125
 49
-0.125
  0
LTYPE
  2
HIDDEN2
 70
     0
  3
Hidden (.5x) _ _ _ _ _ _ _ _ _ _ _ _ _ _ _ _ _
 72
    65
 73
     2
 40
0.1875
 49
0.125
 49
-0.0625
  0
LTYPE
  2
ACANSTGB
 70
     0
  3
__ . . __ . .
 72
    65
 73
     6
 40
0.35433070866
 49
0.15748031496
 49
-0.03937007874
 49
0.03937007874
 49
-0.03937007874
 49
0.03937007874
 49
-0.03937007874
  0
LTYPE
  2
ACANSTGL
 70
     0
  3
_ _ _ _ _
 72
    65
 73
     2
 40
0.11811023622
 49
0.07874015748
 49
-0.03937007874
  0
LTYPE
  2
ACISOWELD
 70
     0
  3
_ _ _ _ _
 72
    65
 73
     2
 40
2.0
 49
2.0
 49
-1.0
  0
LTYPE
  2
ACISOTGL
 70
     0
  3
_ _ _ _ _
 72
    65
 73
     2
 40
3.0
 49
2.0
 49
-1.0
  0
LTYPE
  2
ACISOTGB
 70
     0
  3
__ . . __ . .
 72
    65
 73
     6
 40
9.0
 49
4.0
 49
-1.0
 49
1.0
 49
-1.0
 49
1.0
 49
-1.0
  0
ENDTAB
  0
TABLE
  2
LAYER
 70
     4
  0
LAYER
  2
0
 70
     0
 62
     7
  6
CONTINUOUS
  0
LAYER
  2
1
 70
     0
 62
     1
  6
CENTER
  0
LAYER
  2
DEFPOINTS
 70
     0
 62
     7
  6
CONTINUOUS
  0
LAYER
  2
3
 70
     0
 62
     3
  6
CONTINUOUS
  0
ENDTAB
  0
TABLE
  2
STYLE
 70
     4
  0
STYLE
  2
STANDARD
 70
     0
 40
0.0
 41
1.0
 50
0.0
 71
     0
 42
0.2
  3
TXT
  4
BIGFONT
  0
STYLE
  2
STANDARD1
 70
     0
 40
0.0
 41
1.0
 50
0.0
 71
     0
 42
3.0
  3
txt
  4

  0
STYLE
  2
ACANSGDT
 70
     0
 40
0.0
 41
1.0
 50
0.0
 71
     0
 42
0.2
  3
amgdt.shx
  4

  0
STYLE
  2
ACISOGDT
 70
     0
 40
0.0
 41
1.0
 50
0.0
 71
     0
 42
2.5
  3
amgdt.shx
  4

  0
ENDTAB
  0
TABLE
  2
VIEW
 70
     1
  0
VIEW
  2
ALL
 70
     0
 40
270.0
 10
220.9915966386554942
 20
135.0
 41
0.0
 11
0.0
 21
0.0
 31
1.0
 12
0.0
 22
0.0
 32
0.0
 42
0.0
 43
0.0
 44
0.0
 50
0.0
 71
     0
  0
ENDTAB
  0
TABLE
  2
UCS
 70
     0
  0
ENDTAB
  0
TABLE
  2
APPID
 70
    15
  0
APPID
  2
ACAD
 70
     0
  0
APPID
  2
ACAD_EXEMPT_FROM_CAD_STANDARDS
 70
     0
  0
APPID
  2
ACAD_MLEADERVER
 70
     0
  0
APPID
  2
MCAD_NO_VIS
 70
     0
  0
APPID
  2
ACAD_TEMP_GRAPHIC
 70
     0
  0
APPID
  2
ACATTRIBSERVICES
 70
     0
  0
APPID
  2
DESIGNERASSEMBLIES
 70
     0
  0
APPID
  2
ACAD_DSTYLE_DIMJAG
 70
     0
  0
APPID
  2
ACAD_DSTYLE_DIMBREAK
 70
     0
  0
APPID
  2
ACAD_NAV_VCDISPLAY
 70
     0
  0
APPID
  2
GENIUS_GENREC_14
 70
     0
  0
APPID
  2
GENIUS_GENOBJ-N-REC_13
 70
     0
  0
APPID
  2
GENIUS_GENODEF_13
 70
     0
  0
APPID
  2
GENIUS_GENOBJ-N-FIL_13
 70
     0
  0
APPID
  2
ACAD_DSTYLE_DIMTALN
 70
     0
  0
ENDTAB
  0
TABLE
  2
DIMSTYLE
 70
    14
  0
DIMSTYLE
  2
STANDARD
 70
     0
  3

  4

  5

  6

  7

 40
1.0
 41
0.18
 42
0.0625
 43
0.38
 44
0.18
 45
0.0
 46
0.0
 47
0.0
 48
0.0
140
0.18
141
0.09
142
0.0
143
25.3999999999999986
144
1.0
145
0.0
146
1.0
147
0.09
 71
     0
 72
     0
 73
     1
 74
     1
 75
     0
 76
     0
 77
     0
 78
     0
170
     0
171
     2
172
     0
173
     0
174
     0
175
     0
176
     0
177
     0
178
     0
  0
DIMSTYLE
  2
AM_ANSI
 70
     0
  3

  4
mm
  5

  6

  7

 40
1.0
 41
0.12
 42
0.05
 43
0.5
 44
0.1
 45
0.0
 46
0.0
 47
0.1
 48
0.1
140
0.12
141
0.0
142
0.0
143
25.3999999999999986
144
1.0
145
0.0
146
0.71
147
0.06
 71
     0
 72
     0
 73
     1
 74
     1
 75
     0
 76
     0
 77
     0
 78
     7
170
     0
171
     2
172
     0
173
     0
174
     0
175
     0
176
   256
177
   256
178
     2
  0
DIMSTYLE
  2
AM_ANSI$3
 70
     0
  3

  4
mm
  5

  6

  7

 40
1.0
 41
0.12
 42
0.05
 43
0.5
 44
0.1
 45
0.0
 46
0.0
 47
0.1
 48
0.1
140
0.12
141
0.0
142
0.0
143
25.3999999999999986
144
1.0
145
0.0
146
0.71
147
0.06
 71
     0
 72
     0
 73
     1
 74
     1
 75
     0
 76
     0
 77
     0
 78
     7
170
     0
171
     2
172
     0
173
     0
174
     0
175
     0
176
   256
177
   256
178
     2
  0
DIMSTYLE
  2
AM_ANSI$4
 70
     0
  3

  4
mm
  5

  6

  7

 40
1.0
 41
0.12
 42
0.05
 43
0.5
 44
0.1
 45
0.0
 46
0.0
 47
0.1
 48
0.1
140
0.12
141
0.0
142
0.0
143
25.3999999999999986
144
1.0
145
0.0
146
0.71
147
0.06
 71
     0
 72
     0
 73
     1
 74
     1
 75
     0
 76
     0
 77
     0
 78
     7
170
     0
171
     2
172
     0
173
     0
174
     0
175
     0
176
   256
177
   256
178
     2
  0
DIMSTYLE
  2
AM_ANSI$7
 70
     0
  3

  4
mm
  5

  6

  7

 40
1.0
 41
0.12
 42
0.05
 43
0.5
 44
0.1
 45
0.0
 46
0.0
 47
0.1
 48
0.1
140
0.12
141
0.0
142
0.0
143
25.3999999999999986
144
1.0
145
0.0
146
0.71
147
0.06
 71
     0
 72
     0
 73
     1
 74
     1
 75
     0
 76
     0
 77
     0
 78
     7
170
     0
171
     2
172
     0
173
     0
174
     0
175
     0
176
   256
177
   256
178
     2
  0
DIMSTYLE
  2
AM_ANSI$SF
 70
     0
  3

  4
mm
  5

  6

  7

 40
1.0
 41
0.12
 42
0.05
 43
0.5
 44
0.1
 45
0.0
 46
0.0
 47
0.1
 48
0.1
140
0.12
141
0.0
142
0.0
143
25.3999999999999986
144
1.0
145
0.0
146
0.71
147
0.06
 71
     0
 72
     0
 73
     1
 74
     1
 75
     1
 76
     1
 77
     0
 78
     7
170
     0
171
     2
172
     0
173
     0
174
     0
175
     0
176
   256
177
   256
178
     2
  0
DIMSTYLE
  2
AM_ANSI$SH
 70
     0
  3

  4
mm
  5

  6
GENAXEH
  7

 40
1.0
 41
0.12
 42
0.05
 43
0.5
 44
0.1
 45
0.0
 46
0.0
 47
0.1
 48
0.1
140
0.12
141
0.0
142
0.0
143
25.3999999999999986
144
1.0
145
0.0
146
0.71
147
0.06
 71
     0
 72
     0
 73
     1
 74
     1
 75
     1
 76
     1
 77
     0
 78
     7
170
     0
171
     2
172
     0
173
     1
174
     0
175
     0
176
   256
177
   256
178
     2
  0
DIMSTYLE
  2
AM_ISO
 70
     0
  3

  4
"
  5

  6

  7

 40
1.0
 41
3.5
 42
1.0
 43
10.0
 44
1.0
 45
0.0
 46
0.0
 47
0.1
 48
0.1
140
3.5
141
0.0
142
0.0
143
0.0393701
144
1.0
145
0.0
146
0.71
147
1.5
 71
     0
 72
     0
 73
     0
 74
     0
 75
     0
 76
     0
 77
     1
 78
     8
170
     0
171
     2
172
     1
173
     0
174
     0
175
     0
176
   256
177
   256
178
     2
  0
DIMSTYLE
  2
AM_ISO$3
 70
     0
  3

  4
"
  5

  6

  7

 40
1.0
 41
3.5
 42
1.0
 43
10.0
 44
1.0
 45
0.0
 46
0.0
 47
0.1
 48
0.1
140
3.5
141
0.0
142
0.0
143
0.0393701
144
1.0
145
0.0
146
0.71
147
1.5
 71
     0
 72
     0
 73
     0
 74
     1
 75
     0
 76
     0
 77
     1
 78
     8
170
     0
171
     2
172
     0
173
     0
174
     0
175
     0
176
   256
177
   256
178
     2
  0
DIMSTYLE
  2
AM_ISO$4
 70
     0
  3

  4
"
  5

  6

  7

 40
1.0
 41
3.5
 42
1.0
 43
10.0
 44
1.0
 45
0.0
 46
0.0
 47
0.1
 48
0.1
140
3.5
141
0.0
142
0.0
143
0.0393701
144
1.0
145
0.0
146
0.71
147
1.5
 71
     0
 72
     0
 73
     0
 74
     1
 75
     0
 76
     0
 77
     1
 78
     8
170
     0
171
     2
172
     0
173
     0
174
     0
175
     0
176
   256
177
   256
178
     2
  0
DIMSTYLE
  2
AM_ISO$6
 70
     0
  3

  4
"
  5

  6

  7

 40
1.0
 41
3.5
 42
1.0
 43
10.0
 44
1.0
 45
0.0
 46
0.0
 47
0.1
 48
0.1
140
3.5
141
0.0
142
0.0
143
0.0393701
144
1.0
145
0.0
146
0.71
147
1.5
 71
     0
 72
     0
 73
     0
 74
     0
 75
     0
 76
     0
 77
     0
 78
     8
170
     0
171
     2
172
     1
173
     0
174
     0
175
     0
176
   256
177
   256
178
     2
  0
DIMSTYLE
  2
AM_ISO$7
 70
     0
  3

  4
"
  5

  6

  7

 40
1.0
 41
3.5
 42
1.0
 43
10.0
 44
1.0
 45
0.0
 46
0.0
 47
0.1
 48
0.1
140
3.5
141
0.0
142
0.0
143
0.0393701
144
1.0
145
0.0
146
0.71
147
1.5
 71
     0
 72
     0
 73
     0
 74
     0
 75
     0
 76
     0
 77
     1
 78
     8
170
     0
171
     2
172
     1
173
     0
174
     0
175
     0
176
   256
177
   256
178
     2
  0
DIMSTYLE
  2
AM_ISO$SF
 70
     0
  3

  4
"
  5

  6

  7

 40
1.0
 41
3.5
 42
1.0
 43
10.0
 44
1.0
 45
0.0
 46
0.0
 47
0.1
 48
0.1
140
3.5
141
0.0
142
0.0
143
0.0393701
144
1.0
145
0.0
146
0.71
147
1.5
 71
     0
 72
     0
 73
     0
 74
     0
 75
     1
 76
     1
 77
     1
 78
     8
170
     0
171
     2
172
     1
173
     0
174
     0
175
     0
176
   256
177
   256
178
     2
  0
DIMSTYLE
  2
AM_ISO$SH
 70
     0
  3

  4
"
  5

  6
GENAXEH
  7

 40
1.0
 41
3.5
 42
1.0
 43
10.0
 44
1.0
 45
0.0
 46
0.0
 47
0.1
 48
0.1
140
3.5
141
0.0
142
0.0
143
0.0393701
144
2.0
145
0.0
146
0.71
147
1.5
 71
     0
 72
     0
 73
     0
 74
     0
 75
     1
 76
     1
 77
     1
 78
     8
170
     0
171
     2
172
     1
173
     1
174
     0
175
     0
176
   256
177
   256
178
     2
  0
ENDTAB
  0
ENDSEC
  0
SECTION
  2
BLOCKS
  0
BLOCK
  8
0
  2
$MODEL_SPACE
 70
     0
 10
0.0
 20
0.0
 30
0.0
  3
$MODEL_SPACE
  1

  0
ENDBLK
  5
AA
  8
0
  0
BLOCK
 67
     1
  8
0
  2
$PAPER_SPACE
 70
     0
 10
0.0
 20
0.0
 30
0.0
  3
$PAPER_SPACE
  1

  0
ENDBLK
  5
A8
 67
     1
  8
0
  0
BLOCK
  8
0
  2
*U0
 70
     1
 10
0.0
 20
0.0
 30
0.0
  3
*U0
  1

  0
ENDBLK
  5
20F
  8
0
  0
BLOCK
  8
0
  2
GENAXEH
 70
     0
 10
0.0
 20
0.0
 30
0.0
  3
GENAXEH
  1

  0
LINE
  5
239
  8
0
 10
-1.0
 20
0.0
 30
0.0
 11
1.0
 21
0.0
 31
0.0
  0
ENDBLK
  5
23B
  8
0
  0
ENDSEC
  0
SECTION
  2
ENTITIES
  0
TEXT
  5
1CC
  8
0
 62
     3
 10
0.0
 20
0.0
 30
0.0
 40
10.0
  1
TCC30-LV-M8-S
  7
STANDARD1
  0
LINE
  5
1112
  8
1
 10
50.0
 20
35.0
 30
0.0
 11
50.0
 21
117.9970461017010024
 31
0.0
  0
LINE
  5
1113
  8
1
 10
65.0
 20
50.0
 30
0.0
 11
35.0
 21
50.0
 31
0.0
  0
LINE
  5
119D
  8
1
 10
104.7999999999999972
 20
50.0
 30
0.0
 11
195.0
 21
49.9999999999999929
 31
0.0
  0
LINE
  5
12B2
  8
1
 10
102.0
 20
150.0
 30
0.0
 11
195.0
 21
150.0
 31
0.0
  0
CIRCLE
  5
216F
  8
0
 10
50.0
 20
50.0
 30
0.0
 40
4.75
  0
LINE
  5
2175
  8
0
 10
43.25
 20
106.25
 30
0.0
 11
43.25
 21
60.9108890563508609
 31
0.0
  0
LINE
  5
2179
  8
0
 10
56.75
 20
60.9108890563510101
 30
0.0
 11
56.75
 21
106.25
 31
0.0
  0
POLYLINE
  5
217D
  8
0
 10
50.75
 20
61.422879478264008
 30
0.0
 66
     1
 70
     8
  0
VERTEX
  8
0
  5
28F2
 10
50.7500
 20
61.4229
 30
0.00000
  70
    32
  0
VERTEX
  8
0
  5
28F3
 10
50.7491
 20
61.4589
 30
0.00000
  70
    32
  0
VERTEX
  8
0
  5
28F4
 10
50.7464
 20
61.4948
 30
0.00000
  70
    32
  0
VERTEX
  8
0
  5
28F5
 10
50.7419
 20
61.5305
 30
0.00000
  70
    32
  0
VERTEX
  8
0
  5
28F6
 10
50.7356
 20
61.5660
 30
0.00000
  70
    32
  0
VERTEX
  8
0
  5
28F7
 10
50.7275
 20
61.6011
 30
0.00000
  70
    32
  0
VERTEX
  8
0
  5
28F8
 10
50.7177
 20
61.6358
 30
0.00000
  70
    32
  0
VERTEX
  8
0
  5
28F9
 10
50.7062
 20
61.6700
 30
0.00000
  70
    32
  0
VERTEX
  8
0
  5
28FA
 10
50.6929
 20
61.7036
 30
0.00000
  70
    32
  0
VERTEX
  8
0
  5
28FB
 10
50.6780
 20
61.7365
 30
0.00000
  70
    32
  0
VERTEX
  8
0
  5
28FC
 10
50.6614
 20
61.7687
 30
0.00000
  70
    32
  0
VERTEX
  8
0
  5
28FD
 10
50.6433
 20
61.8000
 30
0.00000
  70
    32
  0
VERTEX
  8
0
  5
28FE
 10
50.6236
 20
61.8305
 30
0.00000
  70
    32
  0
VERTEX
  8
0
  5
28FF
 10
50.6024
 20
61.8599
 30
0.00000
  70
    32
  0
VERTEX
  8
0
  5
2900
 10
50.5798
 20
61.8883
 30
0.00000
  70
    32
  0
VERTEX
  8
0
  5
2901
 10
50.5557
 20
61.9155
 30
0.00000
  70
    32
  0
VERTEX
  8
0
  5
2902
 10
50.5303
 20
61.9416
 30
0.00000
  70
    32
  0
VERTEX
  8
0
  5
2903
 10
50.5037
 20
61.9664
 30
0.00000
  70
    32
  0
VERTEX
  8
0
  5
2904
 10
50.4758
 20
61.9900
 30
0.00000
  70
    32
  0
VERTEX
  8
0
  5
2905
 10
50.4468
 20
62.0121
 30
0.00000
  70
    32
  0
VERTEX
  8
0
  5
2906
 10
50.4167
 20
62.0329
 30
0.00000
  70
    32
  0
VERTEX
  8
0
  5
2907
 10
50.3856
 20
62.0521
 30
0.00000
  70
    32
  0
VERTEX
  8
0
  5
2908
 10
50.3535
 20
62.0699
 30
0.00000
  70
    32
  0
VERTEX
  8
0
  5
2909
 10
50.3207
 20
62.0861
 30
0.00000
  70
    32
  0
VERTEX
  8
0
  5
290A
 10
50.2870
 20
62.1006
 30
0.00000
  70
    32
  0
VERTEX
  8
0
  5
290B
 10
50.2527
 20
62.1136
 30
0.00000
  70
    32
  0
VERTEX
  8
0
  5
290C
 10
50.2177
 20
62.1249
 30
0.00000
  70
    32
  0
VERTEX
  8
0
  5
290D
 10
50.1822
 20
62.1345
 30
0.00000
  70
    32
  0
VERTEX
  8
0
  5
290E
 10
50.1463
 20
62.1424
 30
0.00000
  70
    32
  0
VERTEX
  8
0
  5
290F
 10
50.1100
 20
62.1485
 30
0.00000
  70
    32
  0
VERTEX
  8
0
  5
2910
 10
50.0735
 20
62.1530
 30
0.00000
  70
    32
  0
VERTEX
  8
0
  5
2911
 10
50.0368
 20
62.1556
 30
0.00000
  70
    32
  0
VERTEX
  8
0
  5
2912
 10
50.0000
 20
62.1565
 30
0.00000
  70
    32
  0
VERTEX
  8
0
  5
2913
 10
49.9632
 20
62.1556
 30
0.00000
  70
    32
  0
VERTEX
  8
0
  5
2914
 10
49.9265
 20
62.1530
 30
0.00000
  70
    32
  0
VERTEX
  8
0
  5
2915
 10
49.8900
 20
62.1485
 30
0.00000
  70
    32
  0
VERTEX
  8
0
  5
2916
 10
49.8537
 20
62.1424
 30
0.00000
  70
    32
  0
VERTEX
  8
0
  5
2917
 10
49.8178
 20
62.1345
 30
0.00000
  70
    32
  0
VERTEX
  8
0
  5
2918
 10
49.7823
 20
62.1249
 30
0.00000
  70
    32
  0
VERTEX
  8
0
  5
2919
 10
49.7473
 20
62.1136
 30
0.00000
  70
    32
  0
VERTEX
  8
0
  5
291A
 10
49.7130
 20
62.1006
 30
0.00000
  70
    32
  0
VERTEX
  8
0
  5
291B
 10
49.6793
 20
62.0861
 30
0.00000
  70
    32
  0
VERTEX
  8
0
  5
291C
 10
49.6465
 20
62.0699
 30
0.00000
  70
    32
  0
VERTEX
  8
0
  5
291D
 10
49.6144
 20
62.0521
 30
0.00000
  70
    32
  0
VERTEX
  8
0
  5
291E
 10
49.5833
 20
62.0329
 30
0.00000
  70
    32
  0
VERTEX
  8
0
  5
291F
 10
49.5532
 20
62.0121
 30
0.00000
  70
    32
  0
VERTEX
  8
0
  5
2920
 10
49.5242
 20
61.9900
 30
0.00000
  70
    32
  0
VERTEX
  8
0
  5
2921
 10
49.4963
 20
61.9664
 30
0.00000
  70
    32
  0
VERTEX
  8
0
  5
2922
 10
49.4697
 20
61.9416
 30
0.00000
  70
    32
  0
VERTEX
  8
0
  5
2923
 10
49.4443
 20
61.9155
 30
0.00000
  70
    32
  0
VERTEX
  8
0
  5
2924
 10
49.4202
 20
61.8883
 30
0.00000
  70
    32
  0
VERTEX
  8
0
  5
2925
 10
49.3976
 20
61.8599
 30
0.00000
  70
    32
  0
VERTEX
  8
0
  5
2926
 10
49.3764
 20
61.8305
 30
0.00000
  70
    32
  0
VERTEX
  8
0
  5
2927
 10
49.3567
 20
61.8000
 30
0.00000
  70
    32
  0
VERTEX
  8
0
  5
2928
 10
49.3386
 20
61.7687
 30
0.00000
  70
    32
  0
VERTEX
  8
0
  5
2929
 10
49.3220
 20
61.7365
 30
0.00000
  70
    32
  0
VERTEX
  8
0
  5
292A
 10
49.3071
 20
61.7036
 30
0.00000
  70
    32
  0
VERTEX
  8
0
  5
292B
 10
49.2938
 20
61.6700
 30
0.00000
  70
    32
  0
VERTEX
  8
0
  5
292C
 10
49.2823
 20
61.6358
 30
0.00000
  70
    32
  0
VERTEX
  8
0
  5
292D
 10
49.2725
 20
61.6011
 30
0.00000
  70
    32
  0
VERTEX
  8
0
  5
292E
 10
49.2644
 20
61.5660
 30
0.00000
  70
    32
  0
VERTEX
  8
0
  5
292F
 10
49.2581
 20
61.5305
 30
0.00000
  70
    32
  0
VERTEX
  8
0
  5
2930
 10
49.2536
 20
61.4948
 30
0.00000
  70
    32
  0
VERTEX
  8
0
  5
2931
 10
49.2509
 20
61.4589
 30
0.00000
  70
    32
  0
VERTEX
  8
0
  5
2932
 10
49.2500
 20
61.4229
 30
0.00000
  70
    32
  0
VERTEX
  8
0
  5
2933
 10
49.2509
 20
61.3869
 30
0.00000
  70
    32
  0
VERTEX
  8
0
  5
2934
 10
49.2536
 20
61.3510
 30
0.00000
  70
    32
  0
VERTEX
  8
0
  5
2935
 10
49.2581
 20
61.3152
 30
0.00000
  70
    32
  0
VERTEX
  8
0
  5
2936
 10
49.2644
 20
61.2798
 30
0.00000
  70
    32
  0
VERTEX
  8
0
  5
2937
 10
49.2725
 20
61.2446
 30
0.00000
  70
    32
  0
VERTEX
  8
0
  5
2938
 10
49.2823
 20
61.2099
 30
0.00000
  70
    32
  0
VERTEX
  8
0
  5
2939
 10
49.2938
 20
61.1757
 30
0.00000
  70
    32
  0
VERTEX
  8
0
  5
293A
 10
49.3071
 20
61.1421
 30
0.00000
  70
    32
  0
VERTEX
  8
0
  5
293B
 10
49.3220
 20
61.1092
 30
0.00000
  70
    32
  0
VERTEX
  8
0
  5
293C
 10
49.3386
 20
61.0771
 30
0.00000
  70
    32
  0
VERTEX
  8
0
  5
293D
 10
49.3567
 20
61.0457
 30
0.00000
  70
    32
  0
VERTEX
  8
0
  5
293E
 10
49.3764
 20
61.0153
 30
0.00000
  70
    32
  0
VERTEX
  8
0
  5
293F
 10
49.3976
 20
60.9859
 30
0.00000
  70
    32
  0
VERTEX
  8
0
  5
2940
 10
49.4202
 20
60.9575
 30
0.00000
  70
    32
  0
VERTEX
  8
0
  5
2941
 10
49.4443
 20
60.9302
 30
0.00000
  70
    32
  0
VERTEX
  8
0
  5
2942
 10
49.4697
 20
60.9041
 30
0.00000
  70
    32
  0
VERTEX
  8
0
  5
2943
 10
49.4963
 20
60.8793
 30
0.00000
  70
    32
  0
VERTEX
  8
0
  5
2944
 10
49.5242
 20
60.8558
 30
0.00000
  70
    32
  0
VERTEX
  8
0
  5
2945
 10
49.5532
 20
60.8336
 30
0.00000
  70
    32
  0
VERTEX
  8
0
  5
2946
 10
49.5833
 20
60.8129
 30
0.00000
  70
    32
  0
VERTEX
  8
0
  5
2947
 10
49.6144
 20
60.7936
 30
0.00000
  70
    32
  0
VERTEX
  8
0
  5
2948
 10
49.6465
 20
60.7759
 30
0.00000
  70
    32
  0
VERTEX
  8
0
  5
2949
 10
49.6793
 20
60.7597
 30
0.00000
  70
    32
  0
VERTEX
  8
0
  5
294A
 10
49.7130
 20
60.7451
 30
0.00000
  70
    32
  0
VERTEX
  8
0
  5
294B
 10
49.7473
 20
60.7322
 30
0.00000
  70
    32
  0
VERTEX
  8
0
  5
294C
 10
49.7823
 20
60.7209
 30
0.00000
  70
    32
  0
VERTEX
  8
0
  5
294D
 10
49.8178
 20
60.7113
 30
0.00000
  70
    32
  0
VERTEX
  8
0
  5
294E
 10
49.8537
 20
60.7034
 30
0.00000
  70
    32
  0
VERTEX
  8
0
  5
294F
 10
49.8900
 20
60.6972
 30
0.00000
  70
    32
  0
VERTEX
  8
0
  5
2950
 10
49.9265
 20
60.6928
 30
0.00000
  70
    32
  0
VERTEX
  8
0
  5
2951
 10
49.9632
 20
60.6902
 30
0.00000
  70
    32
  0
VERTEX
  8
0
  5
2952
 10
50.0000
 20
60.6893
 30
0.00000
  70
    32
  0
VERTEX
  8
0
  5
2953
 10
50.0368
 20
60.6902
 30
0.00000
  70
    32
  0
VERTEX
  8
0
  5
2954
 10
50.0735
 20
60.6928
 30
0.00000
  70
    32
  0
VERTEX
  8
0
  5
2955
 10
50.1100
 20
60.6972
 30
0.00000
  70
    32
  0
VERTEX
  8
0
  5
2956
 10
50.1463
 20
60.7034
 30
0.00000
  70
    32
  0
VERTEX
  8
0
  5
2957
 10
50.1822
 20
60.7113
 30
0.00000
  70
    32
  0
VERTEX
  8
0
  5
2958
 10
50.2177
 20
60.7209
 30
0.00000
  70
    32
  0
VERTEX
  8
0
  5
2959
 10
50.2527
 20
60.7322
 30
0.00000
  70
    32
  0
VERTEX
  8
0
  5
295A
 10
50.2870
 20
60.7451
 30
0.00000
  70
    32
  0
VERTEX
  8
0
  5
295B
 10
50.3207
 20
60.7597
 30
0.00000
  70
    32
  0
VERTEX
  8
0
  5
295C
 10
50.3535
 20
60.7759
 30
0.00000
  70
    32
  0
VERTEX
  8
0
  5
295D
 10
50.3856
 20
60.7936
 30
0.00000
  70
    32
  0
VERTEX
  8
0
  5
295E
 10
50.4167
 20
60.8129
 30
0.00000
  70
    32
  0
VERTEX
  8
0
  5
295F
 10
50.4468
 20
60.8336
 30
0.00000
  70
    32
  0
VERTEX
  8
0
  5
2960
 10
50.4758
 20
60.8558
 30
0.00000
  70
    32
  0
VERTEX
  8
0
  5
2961
 10
50.5037
 20
60.8793
 30
0.00000
  70
    32
  0
VERTEX
  8
0
  5
2962
 10
50.5303
 20
60.9041
 30
0.00000
  70
    32
  0
VERTEX
  8
0
  5
2963
 10
50.5557
 20
60.9302
 30
0.00000
  70
    32
  0
VERTEX
  8
0
  5
2964
 10
50.5798
 20
60.9575
 30
0.00000
  70
    32
  0
VERTEX
  8
0
  5
2965
 10
50.6024
 20
60.9859
 30
0.00000
  70
    32
  0
VERTEX
  8
0
  5
2966
 10
50.6236
 20
61.0153
 30
0.00000
  70
    32
  0
VERTEX
  8
0
  5
2967
 10
50.6433
 20
61.0457
 30
0.00000
  70
    32
  0
VERTEX
  8
0
  5
2968
 10
50.6614
 20
61.0771
 30
0.00000
  70
    32
  0
VERTEX
  8
0
  5
2969
 10
50.6780
 20
61.1092
 30
0.00000
  70
    32
  0
VERTEX
  8
0
  5
296A
 10
50.6929
 20
61.1421
 30
0.00000
  70
    32
  0
VERTEX
  8
0
  5
296B
 10
50.7062
 20
61.1757
 30
0.00000
  70
    32
  0
VERTEX
  8
0
  5
296C
 10
50.7177
 20
61.2099
 30
0.00000
  70
    32
  0
VERTEX
  8
0
  5
296D
 10
50.7275
 20
61.2446
 30
0.00000
  70
    32
  0
VERTEX
  8
0
  5
296E
 10
50.7356
 20
61.2798
 30
0.00000
  70
    32
  0
VERTEX
  8
0
  5
296F
 10
50.7419
 20
61.3152
 30
0.00000
  70
    32
  0
VERTEX
  8
0
  5
2970
 10
50.7464
 20
61.3510
 30
0.00000
  70
    32
  0
VERTEX
  8
0
  5
2971
 10
50.7491
 20
61.3869
 30
0.00000
  70
    32
  0
VERTEX
  8
0
  5
2972
 10
50.7500
 20
61.4229
 30
0.00000
  70
    32
  0
SEQEND
  8
0
  5
2973
  0
POLYLINE
  5
217E
  8
0
 10
50.75
 20
64.0028794782640489
 30
0.0
 66
     1
 70
     8
  0
VERTEX
  8
0
  5
2974
 10
50.7500
 20
64.0029
 30
0.00000
  70
    32
  0
VERTEX
  8
0
  5
2975
 10
50.7491
 20
64.0389
 30
0.00000
  70
    32
  0
VERTEX
  8
0
  5
2976
 10
50.7464
 20
64.0748
 30
0.00000
  70
    32
  0
VERTEX
  8
0
  5
2977
 10
50.7419
 20
64.1105
 30
0.00000
  70
    32
  0
VERTEX
  8
0
  5
2978
 10
50.7356
 20
64.1460
 30
0.00000
  70
    32
  0
VERTEX
  8
0
  5
2979
 10
50.7275
 20
64.1811
 30
0.00000
  70
    32
  0
VERTEX
  8
0
  5
297A
 10
50.7177
 20
64.2158
 30
0.00000
  70
    32
  0
VERTEX
  8
0
  5
297B
 10
50.7062
 20
64.2500
 30
0.00000
  70
    32
  0
VERTEX
  8
0
  5
297C
 10
50.6929
 20
64.2836
 30
0.00000
  70
    32
  0
VERTEX
  8
0
  5
297D
 10
50.6780
 20
64.3165
 30
0.00000
  70
    32
  0
VERTEX
  8
0
  5
297E
 10
50.6614
 20
64.3487
 30
0.00000
  70
    32
  0
VERTEX
  8
0
  5
297F
 10
50.6433
 20
64.3800
 30
0.00000
  70
    32
  0
VERTEX
  8
0
  5
2980
 10
50.6236
 20
64.4105
 30
0.00000
  70
    32
  0
VERTEX
  8
0
  5
2981
 10
50.6024
 20
64.4399
 30
0.00000
  70
    32
  0
VERTEX
  8
0
  5
2982
 10
50.5798
 20
64.4683
 30
0.00000
  70
    32
  0
VERTEX
  8
0
  5
2983
 10
50.5557
 20
64.4955
 30
0.00000
  70
    32
  0
VERTEX
  8
0
  5
2984
 10
50.5303
 20
64.5216
 30
0.00000
  70
    32
  0
VERTEX
  8
0
  5
2985
 10
50.5037
 20
64.5464
 30
0.00000
  70
    32
  0
VERTEX
  8
0
  5
2986
 10
50.4758
 20
64.5700
 30
0.00000
  70
    32
  0
VERTEX
  8
0
  5
2987
 10
50.4468
 20
64.5921
 30
0.00000
  70
    32
  0
VERTEX
  8
0
  5
2988
 10
50.4167
 20
64.6129
 30
0.00000
  70
    32
  0
VERTEX
  8
0
  5
2989
 10
50.3856
 20
64.6321
 30
0.00000
  70
    32
  0
VERTEX
  8
0
  5
298A
 10
50.3535
 20
64.6499
 30
0.00000
  70
    32
  0
VERTEX
  8
0
  5
298B
 10
50.3207
 20
64.6661
 30
0.00000
  70
    32
  0
VERTEX
  8
0
  5
298C
 10
50.2870
 20
64.6806
 30
0.00000
  70
    32
  0
VERTEX
  8
0
  5
298D
 10
50.2527
 20
64.6936
 30
0.00000
  70
    32
  0
VERTEX
  8
0
  5
298E
 10
50.2177
 20
64.7049
 30
0.00000
  70
    32
  0
VERTEX
  8
0
  5
298F
 10
50.1822
 20
64.7145
 30
0.00000
  70
    32
  0
VERTEX
  8
0
  5
2990
 10
50.1463
 20
64.7224
 30
0.00000
  70
    32
  0
VERTEX
  8
0
  5
2991
 10
50.1100
 20
64.7285
 30
0.00000
  70
    32
  0
VERTEX
  8
0
  5
2992
 10
50.0735
 20
64.7330
 30
0.00000
  70
    32
  0
VERTEX
  8
0
  5
2993
 10
50.0368
 20
64.7356
 30
0.00000
  70
    32
  0
VERTEX
  8
0
  5
2994
 10
50.0000
 20
64.7365
 30
0.00000
  70
    32
  0
VERTEX
  8
0
  5
2995
 10
49.9632
 20
64.7356
 30
0.00000
  70
    32
  0
VERTEX
  8
0
  5
2996
 10
49.9265
 20
64.7330
 30
0.00000
  70
    32
  0
VERTEX
  8
0
  5
2997
 10
49.8900
 20
64.7285
 30
0.00000
  70
    32
  0
VERTEX
  8
0
  5
2998
 10
49.8537
 20
64.7224
 30
0.00000
  70
    32
  0
VERTEX
  8
0
  5
2999
 10
49.8178
 20
64.7145
 30
0.00000
  70
    32
  0
VERTEX
  8
0
  5
299A
 10
49.7823
 20
64.7049
 30
0.00000
  70
    32
  0
VERTEX
  8
0
  5
299B
 10
49.7473
 20
64.6936
 30
0.00000
  70
    32
  0
VERTEX
  8
0
  5
299C
 10
49.7130
 20
64.6806
 30
0.00000
  70
    32
  0
VERTEX
  8
0
  5
299D
 10
49.6793
 20
64.6661
 30
0.00000
  70
    32
  0
VERTEX
  8
0
  5
299E
 10
49.6465
 20
64.6499
 30
0.00000
  70
    32
  0
VERTEX
  8
0
  5
299F
 10
49.6144
 20
64.6321
 30
0.00000
  70
    32
  0
VERTEX
  8
0
  5
29A0
 10
49.5833
 20
64.6129
 30
0.00000
  70
    32
  0
VERTEX
  8
0
  5
29A1
 10
49.5532
 20
64.5921
 30
0.00000
  70
    32
  0
VERTEX
  8
0
  5
29A2
 10
49.5242
 20
64.5700
 30
0.00000
  70
    32
  0
VERTEX
  8
0
  5
29A3
 10
49.4963
 20
64.5464
 30
0.00000
  70
    32
  0
VERTEX
  8
0
  5
29A4
 10
49.4697
 20
64.5216
 30
0.00000
  70
    32
  0
VERTEX
  8
0
  5
29A5
 10
49.4443
 20
64.4955
 30
0.00000
  70
    32
  0
VERTEX
  8
0
  5
29A6
 10
49.4202
 20
64.4683
 30
0.00000
  70
    32
  0
VERTEX
  8
0
  5
29A7
 10
49.3976
 20
64.4399
 30
0.00000
  70
    32
  0
VERTEX
  8
0
  5
29A8
 10
49.3764
 20
64.4105
 30
0.00000
  70
    32
  0
VERTEX
  8
0
  5
29A9
 10
49.3567
 20
64.3800
 30
0.00000
  70
    32
  0
VERTEX
  8
0
  5
29AA
 10
49.3386
 20
64.3487
 30
0.00000
  70
    32
  0
VERTEX
  8
0
  5
29AB
 10
49.3220
 20
64.3165
 30
0.00000
  70
    32
  0
VERTEX
  8
0
  5
29AC
 10
49.3071
 20
64.2836
 30
0.00000
  70
    32
  0
VERTEX
  8
0
  5
29AD
 10
49.2938
 20
64.2500
 30
0.00000
  70
    32
  0
VERTEX
  8
0
  5
29AE
 10
49.2823
 20
64.2158
 30
0.00000
  70
    32
  0
VERTEX
  8
0
  5
29AF
 10
49.2725
 20
64.1811
 30
0.00000
  70
    32
  0
VERTEX
  8
0
  5
29B0
 10
49.2644
 20
64.1460
 30
0.00000
  70
    32
  0
VERTEX
  8
0
  5
29B1
 10
49.2581
 20
64.1105
 30
0.00000
  70
    32
  0
VERTEX
  8
0
  5
29B2
 10
49.2536
 20
64.0748
 30
0.00000
  70
    32
  0
VERTEX
  8
0
  5
29B3
 10
49.2509
 20
64.0389
 30
0.00000
  70
    32
  0
VERTEX
  8
0
  5
29B4
 10
49.2500
 20
64.0029
 30
0.00000
  70
    32
  0
VERTEX
  8
0
  5
29B5
 10
49.2509
 20
63.9669
 30
0.00000
  70
    32
  0
VERTEX
  8
0
  5
29B6
 10
49.2536
 20
63.9310
 30
0.00000
  70
    32
  0
VERTEX
  8
0
  5
29B7
 10
49.2581
 20
63.8952
 30
0.00000
  70
    32
  0
VERTEX
  8
0
  5
29B8
 10
49.2644
 20
63.8598
 30
0.00000
  70
    32
  0
VERTEX
  8
0
  5
29B9
 10
49.2725
 20
63.8246
 30
0.00000
  70
    32
  0
VERTEX
  8
0
  5
29BA
 10
49.2823
 20
63.7899
 30
0.00000
  70
    32
  0
VERTEX
  8
0
  5
29BB
 10
49.2938
 20
63.7557
 30
0.00000
  70
    32
  0
VERTEX
  8
0
  5
29BC
 10
49.3071
 20
63.7221
 30
0.00000
  70
    32
  0
VERTEX
  8
0
  5
29BD
 10
49.3220
 20
63.6892
 30
0.00000
  70
    32
  0
VERTEX
  8
0
  5
29BE
 10
49.3386
 20
63.6571
 30
0.00000
  70
    32
  0
VERTEX
  8
0
  5
29BF
 10
49.3567
 20
63.6257
 30
0.00000
  70
    32
  0
VERTEX
  8
0
  5
29C0
 10
49.3764
 20
63.5953
 30
0.00000
  70
    32
  0
VERTEX
  8
0
  5
29C1
 10
49.3976
 20
63.5659
 30
0.00000
  70
    32
  0
VERTEX
  8
0
  5
29C2
 10
49.4202
 20
63.5375
 30
0.00000
  70
    32
  0
VERTEX
  8
0
  5
29C3
 10
49.4443
 20
63.5102
 30
0.00000
  70
    32
  0
VERTEX
  8
0
  5
29C4
 10
49.4697
 20
63.4841
 30
0.00000
  70
    32
  0
VERTEX
  8
0
  5
29C5
 10
49.4963
 20
63.4593
 30
0.00000
  70
    32
  0
VERTEX
  8
0
  5
29C6
 10
49.5242
 20
63.4358
 30
0.00000
  70
    32
  0
VERTEX
  8
0
  5
29C7
 10
49.5532
 20
63.4136
 30
0.00000
  70
    32
  0
VERTEX
  8
0
  5
29C8
 10
49.5833
 20
63.3929
 30
0.00000
  70
    32
  0
VERTEX
  8
0
  5
29C9
 10
49.6144
 20
63.3736
 30
0.00000
  70
    32
  0
VERTEX
  8
0
  5
29CA
 10
49.6465
 20
63.3559
 30
0.00000
  70
    32
  0
VERTEX
  8
0
  5
29CB
 10
49.6793
 20
63.3397
 30
0.00000
  70
    32
  0
VERTEX
  8
0
  5
29CC
 10
49.7130
 20
63.3251
 30
0.00000
  70
    32
  0
VERTEX
  8
0
  5
29CD
 10
49.7473
 20
63.3122
 30
0.00000
  70
    32
  0
VERTEX
  8
0
  5
29CE
 10
49.7823
 20
63.3009
 30
0.00000
  70
    32
  0
VERTEX
  8
0
  5
29CF
 10
49.8178
 20
63.2913
 30
0.00000
  70
    32
  0
VERTEX
  8
0
  5
29D0
 10
49.8537
 20
63.2834
 30
0.00000
  70
    32
  0
VERTEX
  8
0
  5
29D1
 10
49.8900
 20
63.2772
 30
0.00000
  70
    32
  0
VERTEX
  8
0
  5
29D2
 10
49.9265
 20
63.2728
 30
0.00000
  70
    32
  0
VERTEX
  8
0
  5
29D3
 10
49.9632
 20
63.2702
 30
0.00000
  70
    32
  0
VERTEX
  8
0
  5
29D4
 10
50.0000
 20
63.2693
 30
0.00000
  70
    32
  0
VERTEX
  8
0
  5
29D5
 10
50.0368
 20
63.2702
 30
0.00000
  70
    32
  0
VERTEX
  8
0
  5
29D6
 10
50.0735
 20
63.2728
 30
0.00000
  70
    32
  0
VERTEX
  8
0
  5
29D7
 10
50.1100
 20
63.2772
 30
0.00000
  70
    32
  0
VERTEX
  8
0
  5
29D8
 10
50.1463
 20
63.2834
 30
0.00000
  70
    32
  0
VERTEX
  8
0
  5
29D9
 10
50.1822
 20
63.2913
 30
0.00000
  70
    32
  0
VERTEX
  8
0
  5
29DA
 10
50.2177
 20
63.3009
 30
0.00000
  70
    32
  0
VERTEX
  8
0
  5
29DB
 10
50.2527
 20
63.3122
 30
0.00000
  70
    32
  0
VERTEX
  8
0
  5
29DC
 10
50.2870
 20
63.3251
 30
0.00000
  70
    32
  0
VERTEX
  8
0
  5
29DD
 10
50.3207
 20
63.3397
 30
0.00000
  70
    32
  0
VERTEX
  8
0
  5
29DE
 10
50.3535
 20
63.3559
 30
0.00000
  70
    32
  0
VERTEX
  8
0
  5
29DF
 10
50.3856
 20
63.3736
 30
0.00000
  70
    32
  0
VERTEX
  8
0
  5
29E0
 10
50.4167
 20
63.3929
 30
0.00000
  70
    32
  0
VERTEX
  8
0
  5
29E1
 10
50.4468
 20
63.4136
 30
0.00000
  70
    32
  0
VERTEX
  8
0
  5
29E2
 10
50.4758
 20
63.4358
 30
0.00000
  70
    32
  0
VERTEX
  8
0
  5
29E3
 10
50.5037
 20
63.4593
 30
0.00000
  70
    32
  0
VERTEX
  8
0
  5
29E4
 10
50.5303
 20
63.4841
 30
0.00000
  70
    32
  0
VERTEX
  8
0
  5
29E5
 10
50.5557
 20
63.5102
 30
0.00000
  70
    32
  0
VERTEX
  8
0
  5
29E6
 10
50.5798
 20
63.5375
 30
0.00000
  70
    32
  0
VERTEX
  8
0
  5
29E7
 10
50.6024
 20
63.5659
 30
0.00000
  70
    32
  0
VERTEX
  8
0
  5
29E8
 10
50.6236
 20
63.5953
 30
0.00000
  70
    32
  0
VERTEX
  8
0
  5
29E9
 10
50.6433
 20
63.6257
 30
0.00000
  70
    32
  0
VERTEX
  8
0
  5
29EA
 10
50.6614
 20
63.6571
 30
0.00000
  70
    32
  0
VERTEX
  8
0
  5
29EB
 10
50.6780
 20
63.6892
 30
0.00000
  70
    32
  0
VERTEX
  8
0
  5
29EC
 10
50.6929
 20
63.7221
 30
0.00000
  70
    32
  0
VERTEX
  8
0
  5
29ED
 10
50.7062
 20
63.7557
 30
0.00000
  70
    32
  0
VERTEX
  8
0
  5
29EE
 10
50.7177
 20
63.7899
 30
0.00000
  70
    32
  0
VERTEX
  8
0
  5
29EF
 10
50.7275
 20
63.8246
 30
0.00000
  70
    32
  0
VERTEX
  8
0
  5
29F0
 10
50.7356
 20
63.8598
 30
0.00000
  70
    32
  0
VERTEX
  8
0
  5
29F1
 10
50.7419
 20
63.8952
 30
0.00000
  70
    32
  0
VERTEX
  8
0
  5
29F2
 10
50.7464
 20
63.9310
 30
0.00000
  70
    32
  0
VERTEX
  8
0
  5
29F3
 10
50.7491
 20
63.9669
 30
0.00000
  70
    32
  0
VERTEX
  8
0
  5
29F4
 10
50.7500
 20
64.0029
 30
0.00000
  70
    32
  0
SEQEND
  8
0
  5
29F5
  0
POLYLINE
  5
217F
  8
0
 10
50.75
 20
66.5828794782640045
 30
0.0
 66
     1
 70
     8
  0
VERTEX
  8
0
  5
29F6
 10
50.7500
 20
66.5829
 30
0.00000
  70
    32
  0
VERTEX
  8
0
  5
29F7
 10
50.7491
 20
66.6189
 30
0.00000
  70
    32
  0
VERTEX
  8
0
  5
29F8
 10
50.7464
 20
66.6548
 30
0.00000
  70
    32
  0
VERTEX
  8
0
  5
29F9
 10
50.7419
 20
66.6905
 30
0.00000
  70
    32
  0
VERTEX
  8
0
  5
29FA
 10
50.7356
 20
66.7260
 30
0.00000
  70
    32
  0
VERTEX
  8
0
  5
29FB
 10
50.7275
 20
66.7611
 30
0.00000
  70
    32
  0
VERTEX
  8
0
  5
29FC
 10
50.7177
 20
66.7958
 30
0.00000
  70
    32
  0
VERTEX
  8
0
  5
29FD
 10
50.7062
 20
66.8300
 30
0.00000
  70
    32
  0
VERTEX
  8
0
  5
29FE
 10
50.6929
 20
66.8636
 30
0.00000
  70
    32
  0
VERTEX
  8
0
  5
29FF
 10
50.6780
 20
66.8965
 30
0.00000
  70
    32
  0
VERTEX
  8
0
  5
2A00
 10
50.6614
 20
66.9287
 30
0.00000
  70
    32
  0
VERTEX
  8
0
  5
2A01
 10
50.6433
 20
66.9600
 30
0.00000
  70
    32
  0
VERTEX
  8
0
  5
2A02
 10
50.6236
 20
66.9905
 30
0.00000
  70
    32
  0
VERTEX
  8
0
  5
2A03
 10
50.6024
 20
67.0199
 30
0.00000
  70
    32
  0
VERTEX
  8
0
  5
2A04
 10
50.5798
 20
67.0483
 30
0.00000
  70
    32
  0
VERTEX
  8
0
  5
2A05
 10
50.5557
 20
67.0755
 30
0.00000
  70
    32
  0
VERTEX
  8
0
  5
2A06
 10
50.5303
 20
67.1016
 30
0.00000
  70
    32
  0
VERTEX
  8
0
  5
2A07
 10
50.5037
 20
67.1264
 30
0.00000
  70
    32
  0
VERTEX
  8
0
  5
2A08
 10
50.4758
 20
67.1500
 30
0.00000
  70
    32
  0
VERTEX
  8
0
  5
2A09
 10
50.4468
 20
67.1721
 30
0.00000
  70
    32
  0
VERTEX
  8
0
  5
2A0A
 10
50.4167
 20
67.1929
 30
0.00000
  70
    32
  0
VERTEX
  8
0
  5
2A0B
 10
50.3856
 20
67.2121
 30
0.00000
  70
    32
  0
VERTEX
  8
0
  5
2A0C
 10
50.3535
 20
67.2299
 30
0.00000
  70
    32
  0
VERTEX
  8
0
  5
2A0D
 10
50.3207
 20
67.2461
 30
0.00000
  70
    32
  0
VERTEX
  8
0
  5
2A0E
 10
50.2870
 20
67.2606
 30
0.00000
  70
    32
  0
VERTEX
  8
0
  5
2A0F
 10
50.2527
 20
67.2736
 30
0.00000
  70
    32
  0
VERTEX
  8
0
  5
2A10
 10
50.2177
 20
67.2849
 30
0.00000
  70
    32
  0
VERTEX
  8
0
  5
2A11
 10
50.1822
 20
67.2945
 30
0.00000
  70
    32
  0
VERTEX
  8
0
  5
2A12
 10
50.1463
 20
67.3024
 30
0.00000
  70
    32
  0
VERTEX
  8
0
  5
2A13
 10
50.1100
 20
67.3085
 30
0.00000
  70
    32
  0
VERTEX
  8
0
  5
2A14
 10
50.0735
 20
67.3130
 30
0.00000
  70
    32
  0
VERTEX
  8
0
  5
2A15
 10
50.0368
 20
67.3156
 30
0.00000
  70
    32
  0
VERTEX
  8
0
  5
2A16
 10
50.0000
 20
67.3165
 30
0.00000
  70
    32
  0
VERTEX
  8
0
  5
2A17
 10
49.9632
 20
67.3156
 30
0.00000
  70
    32
  0
VERTEX
  8
0
  5
2A18
 10
49.9265
 20
67.3130
 30
0.00000
  70
    32
  0
VERTEX
  8
0
  5
2A19
 10
49.8900
 20
67.3085
 30
0.00000
  70
    32
  0
VERTEX
  8
0
  5
2A1A
 10
49.8537
 20
67.3024
 30
0.00000
  70
    32
  0
VERTEX
  8
0
  5
2A1B
 10
49.8178
 20
67.2945
 30
0.00000
  70
    32
  0
VERTEX
  8
0
  5
2A1C
 10
49.7823
 20
67.2849
 30
0.00000
  70
    32
  0
VERTEX
  8
0
  5
2A1D
 10
49.7473
 20
67.2736
 30
0.00000
  70
    32
  0
VERTEX
  8
0
  5
2A1E
 10
49.7130
 20
67.2606
 30
0.00000
  70
    32
  0
VERTEX
  8
0
  5
2A1F
 10
49.6793
 20
67.2461
 30
0.00000
  70
    32
  0
VERTEX
  8
0
  5
2A20
 10
49.6465
 20
67.2299
 30
0.00000
  70
    32
  0
VERTEX
  8
0
  5
2A21
 10
49.6144
 20
67.2121
 30
0.00000
  70
    32
  0
VERTEX
  8
0
  5
2A22
 10
49.5833
 20
67.1929
 30
0.00000
  70
    32
  0
VERTEX
  8
0
  5
2A23
 10
49.5532
 20
67.1721
 30
0.00000
  70
    32
  0
VERTEX
  8
0
  5
2A24
 10
49.5242
 20
67.1500
 30
0.00000
  70
    32
  0
VERTEX
  8
0
  5
2A25
 10
49.4963
 20
67.1264
 30
0.00000
  70
    32
  0
VERTEX
  8
0
  5
2A26
 10
49.4697
 20
67.1016
 30
0.00000
  70
    32
  0
VERTEX
  8
0
  5
2A27
 10
49.4443
 20
67.0755
 30
0.00000
  70
    32
  0
VERTEX
  8
0
  5
2A28
 10
49.4202
 20
67.0483
 30
0.00000
  70
    32
  0
VERTEX
  8
0
  5
2A29
 10
49.3976
 20
67.0199
 30
0.00000
  70
    32
  0
VERTEX
  8
0
  5
2A2A
 10
49.3764
 20
66.9905
 30
0.00000
  70
    32
  0
VERTEX
  8
0
  5
2A2B
 10
49.3567
 20
66.9600
 30
0.00000
  70
    32
  0
VERTEX
  8
0
  5
2A2C
 10
49.3386
 20
66.9287
 30
0.00000
  70
    32
  0
VERTEX
  8
0
  5
2A2D
 10
49.3220
 20
66.8965
 30
0.00000
  70
    32
  0
VERTEX
  8
0
  5
2A2E
 10
49.3071
 20
66.8636
 30
0.00000
  70
    32
  0
VERTEX
  8
0
  5
2A2F
 10
49.2938
 20
66.8300
 30
0.00000
  70
    32
  0
VERTEX
  8
0
  5
2A30
 10
49.2823
 20
66.7958
 30
0.00000
  70
    32
  0
VERTEX
  8
0
  5
2A31
 10
49.2725
 20
66.7611
 30
0.00000
  70
    32
  0
VERTEX
  8
0
  5
2A32
 10
49.2644
 20
66.7260
 30
0.00000
  70
    32
  0
VERTEX
  8
0
  5
2A33
 10
49.2581
 20
66.6905
 30
0.00000
  70
    32
  0
VERTEX
  8
0
  5
2A34
 10
49.2536
 20
66.6548
 30
0.00000
  70
    32
  0
VERTEX
  8
0
  5
2A35
 10
49.2509
 20
66.6189
 30
0.00000
  70
    32
  0
VERTEX
  8
0
  5
2A36
 10
49.2500
 20
66.5829
 30
0.00000
  70
    32
  0
VERTEX
  8
0
  5
2A37
 10
49.2509
 20
66.5469
 30
0.00000
  70
    32
  0
VERTEX
  8
0
  5
2A38
 10
49.2536
 20
66.5110
 30
0.00000
  70
    32
  0
VERTEX
  8
0
  5
2A39
 10
49.2581
 20
66.4752
 30
0.00000
  70
    32
  0
VERTEX
  8
0
  5
2A3A
 10
49.2644
 20
66.4398
 30
0.00000
  70
    32
  0
VERTEX
  8
0
  5
2A3B
 10
49.2725
 20
66.4046
 30
0.00000
  70
    32
  0
VERTEX
  8
0
  5
2A3C
 10
49.2823
 20
66.3699
 30
0.00000
  70
    32
  0
VERTEX
  8
0
  5
2A3D
 10
49.2938
 20
66.3357
 30
0.00000
  70
    32
  0
VERTEX
  8
0
  5
2A3E
 10
49.3071
 20
66.3021
 30
0.00000
  70
    32
  0
VERTEX
  8
0
  5
2A3F
 10
49.3220
 20
66.2692
 30
0.00000
  70
    32
  0
VERTEX
  8
0
  5
2A40
 10
49.3386
 20
66.2371
 30
0.00000
  70
    32
  0
VERTEX
  8
0
  5
2A41
 10
49.3567
 20
66.2057
 30
0.00000
  70
    32
  0
VERTEX
  8
0
  5
2A42
 10
49.3764
 20
66.1753
 30
0.00000
  70
    32
  0
VERTEX
  8
0
  5
2A43
 10
49.3976
 20
66.1459
 30
0.00000
  70
    32
  0
VERTEX
  8
0
  5
2A44
 10
49.4202
 20
66.1175
 30
0.00000
  70
    32
  0
VERTEX
  8
0
  5
2A45
 10
49.4443
 20
66.0902
 30
0.00000
  70
    32
  0
VERTEX
  8
0
  5
2A46
 10
49.4697
 20
66.0641
 30
0.00000
  70
    32
  0
VERTEX
  8
0
  5
2A47
 10
49.4963
 20
66.0393
 30
0.00000
  70
    32
  0
VERTEX
  8
0
  5
2A48
 10
49.5242
 20
66.0158
 30
0.00000
  70
    32
  0
VERTEX
  8
0
  5
2A49
 10
49.5532
 20
65.9936
 30
0.00000
  70
    32
  0
VERTEX
  8
0
  5
2A4A
 10
49.5833
 20
65.9729
 30
0.00000
  70
    32
  0
VERTEX
  8
0
  5
2A4B
 10
49.6144
 20
65.9536
 30
0.00000
  70
    32
  0
VERTEX
  8
0
  5
2A4C
 10
49.6465
 20
65.9359
 30
0.00000
  70
    32
  0
VERTEX
  8
0
  5
2A4D
 10
49.6793
 20
65.9197
 30
0.00000
  70
    32
  0
VERTEX
  8
0
  5
2A4E
 10
49.7130
 20
65.9051
 30
0.00000
  70
    32
  0
VERTEX
  8
0
  5
2A4F
 10
49.7473
 20
65.8922
 30
0.00000
  70
    32
  0
VERTEX
  8
0
  5
2A50
 10
49.7823
 20
65.8809
 30
0.00000
  70
    32
  0
VERTEX
  8
0
  5
2A51
 10
49.8178
 20
65.8713
 30
0.00000
  70
    32
  0
VERTEX
  8
0
  5
2A52
 10
49.8537
 20
65.8634
 30
0.00000
  70
    32
  0
VERTEX
  8
0
  5
2A53
 10
49.8900
 20
65.8572
 30
0.00000
  70
    32
  0
VERTEX
  8
0
  5
2A54
 10
49.9265
 20
65.8528
 30
0.00000
  70
    32
  0
VERTEX
  8
0
  5
2A55
 10
49.9632
 20
65.8502
 30
0.00000
  70
    32
  0
VERTEX
  8
0
  5
2A56
 10
50.0000
 20
65.8493
 30
0.00000
  70
    32
  0
VERTEX
  8
0
  5
2A57
 10
50.0368
 20
65.8502
 30
0.00000
  70
    32
  0
VERTEX
  8
0
  5
2A58
 10
50.0735
 20
65.8528
 30
0.00000
  70
    32
  0
VERTEX
  8
0
  5
2A59
 10
50.1100
 20
65.8572
 30
0.00000
  70
    32
  0
VERTEX
  8
0
  5
2A5A
 10
50.1463
 20
65.8634
 30
0.00000
  70
    32
  0
VERTEX
  8
0
  5
2A5B
 10
50.1822
 20
65.8713
 30
0.00000
  70
    32
  0
VERTEX
  8
0
  5
2A5C
 10
50.2177
 20
65.8809
 30
0.00000
  70
    32
  0
VERTEX
  8
0
  5
2A5D
 10
50.2527
 20
65.8922
 30
0.00000
  70
    32
  0
VERTEX
  8
0
  5
2A5E
 10
50.2870
 20
65.9051
 30
0.00000
  70
    32
  0
VERTEX
  8
0
  5
2A5F
 10
50.3207
 20
65.9197
 30
0.00000
  70
    32
  0
VERTEX
  8
0
  5
2A60
 10
50.3535
 20
65.9359
 30
0.00000
  70
    32
  0
VERTEX
  8
0
  5
2A61
 10
50.3856
 20
65.9536
 30
0.00000
  70
    32
  0
VERTEX
  8
0
  5
2A62
 10
50.4167
 20
65.9729
 30
0.00000
  70
    32
  0
VERTEX
  8
0
  5
2A63
 10
50.4468
 20
65.9936
 30
0.00000
  70
    32
  0
VERTEX
  8
0
  5
2A64
 10
50.4758
 20
66.0158
 30
0.00000
  70
    32
  0
VERTEX
  8
0
  5
2A65
 10
50.5037
 20
66.0393
 30
0.00000
  70
    32
  0
VERTEX
  8
0
  5
2A66
 10
50.5303
 20
66.0641
 30
0.00000
  70
    32
  0
VERTEX
  8
0
  5
2A67
 10
50.5557
 20
66.0902
 30
0.00000
  70
    32
  0
VERTEX
  8
0
  5
2A68
 10
50.5798
 20
66.1175
 30
0.00000
  70
    32
  0
VERTEX
  8
0
  5
2A69
 10
50.6024
 20
66.1459
 30
0.00000
  70
    32
  0
VERTEX
  8
0
  5
2A6A
 10
50.6236
 20
66.1753
 30
0.00000
  70
    32
  0
VERTEX
  8
0
  5
2A6B
 10
50.6433
 20
66.2057
 30
0.00000
  70
    32
  0
VERTEX
  8
0
  5
2A6C
 10
50.6614
 20
66.2371
 30
0.00000
  70
    32
  0
VERTEX
  8
0
  5
2A6D
 10
50.6780
 20
66.2692
 30
0.00000
  70
    32
  0
VERTEX
  8
0
  5
2A6E
 10
50.6929
 20
66.3021
 30
0.00000
  70
    32
  0
VERTEX
  8
0
  5
2A6F
 10
50.7062
 20
66.3357
 30
0.00000
  70
    32
  0
VERTEX
  8
0
  5
2A70
 10
50.7177
 20
66.3699
 30
0.00000
  70
    32
  0
VERTEX
  8
0
  5
2A71
 10
50.7275
 20
66.4046
 30
0.00000
  70
    32
  0
VERTEX
  8
0
  5
2A72
 10
50.7356
 20
66.4398
 30
0.00000
  70
    32
  0
VERTEX
  8
0
  5
2A73
 10
50.7419
 20
66.4752
 30
0.00000
  70
    32
  0
VERTEX
  8
0
  5
2A74
 10
50.7464
 20
66.5110
 30
0.00000
  70
    32
  0
VERTEX
  8
0
  5
2A75
 10
50.7491
 20
66.5469
 30
0.00000
  70
    32
  0
VERTEX
  8
0
  5
2A76
 10
50.7500
 20
66.5829
 30
0.00000
  70
    32
  0
SEQEND
  8
0
  5
2A77
  0
POLYLINE
  5
2180
  8
0
 10
50.7500000000000071
 20
69.1628794782640313
 30
0.0
 66
     1
 70
     8
  0
VERTEX
  8
0
  5
2A78
 10
50.7500
 20
69.1629
 30
0.00000
  70
    32
  0
VERTEX
  8
0
  5
2A79
 10
50.7491
 20
69.1989
 30
0.00000
  70
    32
  0
VERTEX
  8
0
  5
2A7A
 10
50.7464
 20
69.2348
 30
0.00000
  70
    32
  0
VERTEX
  8
0
  5
2A7B
 10
50.7419
 20
69.2705
 30
0.00000
  70
    32
  0
VERTEX
  8
0
  5
2A7C
 10
50.7356
 20
69.3060
 30
0.00000
  70
    32
  0
VERTEX
  8
0
  5
2A7D
 10
50.7275
 20
69.3411
 30
0.00000
  70
    32
  0
VERTEX
  8
0
  5
2A7E
 10
50.7177
 20
69.3758
 30
0.00000
  70
    32
  0
VERTEX
  8
0
  5
2A7F
 10
50.7062
 20
69.4100
 30
0.00000
  70
    32
  0
VERTEX
  8
0
  5
2A80
 10
50.6929
 20
69.4436
 30
0.00000
  70
    32
  0
VERTEX
  8
0
  5
2A81
 10
50.6780
 20
69.4765
 30
0.00000
  70
    32
  0
VERTEX
  8
0
  5
2A82
 10
50.6614
 20
69.5087
 30
0.00000
  70
    32
  0
VERTEX
  8
0
  5
2A83
 10
50.6433
 20
69.5400
 30
0.00000
  70
    32
  0
VERTEX
  8
0
  5
2A84
 10
50.6236
 20
69.5705
 30
0.00000
  70
    32
  0
VERTEX
  8
0
  5
2A85
 10
50.6024
 20
69.5999
 30
0.00000
  70
    32
  0
VERTEX
  8
0
  5
2A86
 10
50.5798
 20
69.6283
 30
0.00000
  70
    32
  0
VERTEX
  8
0
  5
2A87
 10
50.5557
 20
69.6555
 30
0.00000
  70
    32
  0
VERTEX
  8
0
  5
2A88
 10
50.5303
 20
69.6816
 30
0.00000
  70
    32
  0
VERTEX
  8
0
  5
2A89
 10
50.5037
 20
69.7064
 30
0.00000
  70
    32
  0
VERTEX
  8
0
  5
2A8A
 10
50.4758
 20
69.7300
 30
0.00000
  70
    32
  0
VERTEX
  8
0
  5
2A8B
 10
50.4468
 20
69.7521
 30
0.00000
  70
    32
  0
VERTEX
  8
0
  5
2A8C
 10
50.4167
 20
69.7729
 30
0.00000
  70
    32
  0
VERTEX
  8
0
  5
2A8D
 10
50.3856
 20
69.7921
 30
0.00000
  70
    32
  0
VERTEX
  8
0
  5
2A8E
 10
50.3535
 20
69.8099
 30
0.00000
  70
    32
  0
VERTEX
  8
0
  5
2A8F
 10
50.3207
 20
69.8261
 30
0.00000
  70
    32
  0
VERTEX
  8
0
  5
2A90
 10
50.2870
 20
69.8406
 30
0.00000
  70
    32
  0
VERTEX
  8
0
  5
2A91
 10
50.2527
 20
69.8536
 30
0.00000
  70
    32
  0
VERTEX
  8
0
  5
2A92
 10
50.2177
 20
69.8649
 30
0.00000
  70
    32
  0
VERTEX
  8
0
  5
2A93
 10
50.1822
 20
69.8745
 30
0.00000
  70
    32
  0
VERTEX
  8
0
  5
2A94
 10
50.1463
 20
69.8824
 30
0.00000
  70
    32
  0
VERTEX
  8
0
  5
2A95
 10
50.1100
 20
69.8885
 30
0.00000
  70
    32
  0
VERTEX
  8
0
  5
2A96
 10
50.0735
 20
69.8930
 30
0.00000
  70
    32
  0
VERTEX
  8
0
  5
2A97
 10
50.0368
 20
69.8956
 30
0.00000
  70
    32
  0
VERTEX
  8
0
  5
2A98
 10
50.0000
 20
69.8965
 30
0.00000
  70
    32
  0
VERTEX
  8
0
  5
2A99
 10
49.9632
 20
69.8956
 30
0.00000
  70
    32
  0
VERTEX
  8
0
  5
2A9A
 10
49.9265
 20
69.8930
 30
0.00000
  70
    32
  0
VERTEX
  8
0
  5
2A9B
 10
49.8900
 20
69.8885
 30
0.00000
  70
    32
  0
VERTEX
  8
0
  5
2A9C
 10
49.8537
 20
69.8824
 30
0.00000
  70
    32
  0
VERTEX
  8
0
  5
2A9D
 10
49.8178
 20
69.8745
 30
0.00000
  70
    32
  0
VERTEX
  8
0
  5
2A9E
 10
49.7823
 20
69.8649
 30
0.00000
  70
    32
  0
VERTEX
  8
0
  5
2A9F
 10
49.7473
 20
69.8536
 30
0.00000
  70
    32
  0
VERTEX
  8
0
  5
2AA0
 10
49.7130
 20
69.8406
 30
0.00000
  70
    32
  0
VERTEX
  8
0
  5
2AA1
 10
49.6793
 20
69.8261
 30
0.00000
  70
    32
  0
VERTEX
  8
0
  5
2AA2
 10
49.6465
 20
69.8099
 30
0.00000
  70
    32
  0
VERTEX
  8
0
  5
2AA3
 10
49.6144
 20
69.7921
 30
0.00000
  70
    32
  0
VERTEX
  8
0
  5
2AA4
 10
49.5833
 20
69.7729
 30
0.00000
  70
    32
  0
VERTEX
  8
0
  5
2AA5
 10
49.5532
 20
69.7521
 30
0.00000
  70
    32
  0
VERTEX
  8
0
  5
2AA6
 10
49.5242
 20
69.7300
 30
0.00000
  70
    32
  0
VERTEX
  8
0
  5
2AA7
 10
49.4963
 20
69.7064
 30
0.00000
  70
    32
  0
VERTEX
  8
0
  5
2AA8
 10
49.4697
 20
69.6816
 30
0.00000
  70
    32
  0
VERTEX
  8
0
  5
2AA9
 10
49.4443
 20
69.6555
 30
0.00000
  70
    32
  0
VERTEX
  8
0
  5
2AAA
 10
49.4202
 20
69.6283
 30
0.00000
  70
    32
  0
VERTEX
  8
0
  5
2AAB
 10
49.3976
 20
69.5999
 30
0.00000
  70
    32
  0
VERTEX
  8
0
  5
2AAC
 10
49.3764
 20
69.5705
 30
0.00000
  70
    32
  0
VERTEX
  8
0
  5
2AAD
 10
49.3567
 20
69.5400
 30
0.00000
  70
    32
  0
VERTEX
  8
0
  5
2AAE
 10
49.3386
 20
69.5087
 30
0.00000
  70
    32
  0
VERTEX
  8
0
  5
2AAF
 10
49.3220
 20
69.4765
 30
0.00000
  70
    32
  0
VERTEX
  8
0
  5
2AB0
 10
49.3071
 20
69.4436
 30
0.00000
  70
    32
  0
VERTEX
  8
0
  5
2AB1
 10
49.2938
 20
69.4100
 30
0.00000
  70
    32
  0
VERTEX
  8
0
  5
2AB2
 10
49.2823
 20
69.3758
 30
0.00000
  70
    32
  0
VERTEX
  8
0
  5
2AB3
 10
49.2725
 20
69.3411
 30
0.00000
  70
    32
  0
VERTEX
  8
0
  5
2AB4
 10
49.2644
 20
69.3060
 30
0.00000
  70
    32
  0
VERTEX
  8
0
  5
2AB5
 10
49.2581
 20
69.2705
 30
0.00000
  70
    32
  0
VERTEX
  8
0
  5
2AB6
 10
49.2536
 20
69.2348
 30
0.00000
  70
    32
  0
VERTEX
  8
0
  5
2AB7
 10
49.2509
 20
69.1989
 30
0.00000
  70
    32
  0
VERTEX
  8
0
  5
2AB8
 10
49.2500
 20
69.1629
 30
0.00000
  70
    32
  0
VERTEX
  8
0
  5
2AB9
 10
49.2509
 20
69.1269
 30
0.00000
  70
    32
  0
VERTEX
  8
0
  5
2ABA
 10
49.2536
 20
69.0910
 30
0.00000
  70
    32
  0
VERTEX
  8
0
  5
2ABB
 10
49.2581
 20
69.0552
 30
0.00000
  70
    32
  0
VERTEX
  8
0
  5
2ABC
 10
49.2644
 20
69.0198
 30
0.00000
  70
    32
  0
VERTEX
  8
0
  5
2ABD
 10
49.2725
 20
68.9846
 30
0.00000
  70
    32
  0
VERTEX
  8
0
  5
2ABE
 10
49.2823
 20
68.9499
 30
0.00000
  70
    32
  0
VERTEX
  8
0
  5
2ABF
 10
49.2938
 20
68.9157
 30
0.00000
  70
    32
  0
VERTEX
  8
0
  5
2AC0
 10
49.3071
 20
68.8821
 30
0.00000
  70
    32
  0
VERTEX
  8
0
  5
2AC1
 10
49.3220
 20
68.8492
 30
0.00000
  70
    32
  0
VERTEX
  8
0
  5
2AC2
 10
49.3386
 20
68.8171
 30
0.00000
  70
    32
  0
VERTEX
  8
0
  5
2AC3
 10
49.3567
 20
68.7857
 30
0.00000
  70
    32
  0
VERTEX
  8
0
  5
2AC4
 10
49.3764
 20
68.7553
 30
0.00000
  70
    32
  0
VERTEX
  8
0
  5
2AC5
 10
49.3976
 20
68.7259
 30
0.00000
  70
    32
  0
VERTEX
  8
0
  5
2AC6
 10
49.4202
 20
68.6975
 30
0.00000
  70
    32
  0
VERTEX
  8
0
  5
2AC7
 10
49.4443
 20
68.6702
 30
0.00000
  70
    32
  0
VERTEX
  8
0
  5
2AC8
 10
49.4697
 20
68.6441
 30
0.00000
  70
    32
  0
VERTEX
  8
0
  5
2AC9
 10
49.4963
 20
68.6193
 30
0.00000
  70
    32
  0
VERTEX
  8
0
  5
2ACA
 10
49.5242
 20
68.5958
 30
0.00000
  70
    32
  0
VERTEX
  8
0
  5
2ACB
 10
49.5532
 20
68.5736
 30
0.00000
  70
    32
  0
VERTEX
  8
0
  5
2ACC
 10
49.5833
 20
68.5529
 30
0.00000
  70
    32
  0
VERTEX
  8
0
  5
2ACD
 10
49.6144
 20
68.5336
 30
0.00000
  70
    32
  0
VERTEX
  8
0
  5
2ACE
 10
49.6465
 20
68.5159
 30
0.00000
  70
    32
  0
VERTEX
  8
0
  5
2ACF
 10
49.6793
 20
68.4997
 30
0.00000
  70
    32
  0
VERTEX
  8
0
  5
2AD0
 10
49.7130
 20
68.4851
 30
0.00000
  70
    32
  0
VERTEX
  8
0
  5
2AD1
 10
49.7473
 20
68.4722
 30
0.00000
  70
    32
  0
VERTEX
  8
0
  5
2AD2
 10
49.7823
 20
68.4609
 30
0.00000
  70
    32
  0
VERTEX
  8
0
  5
2AD3
 10
49.8178
 20
68.4513
 30
0.00000
  70
    32
  0
VERTEX
  8
0
  5
2AD4
 10
49.8537
 20
68.4434
 30
0.00000
  70
    32
  0
VERTEX
  8
0
  5
2AD5
 10
49.8900
 20
68.4372
 30
0.00000
  70
    32
  0
VERTEX
  8
0
  5
2AD6
 10
49.9265
 20
68.4328
 30
0.00000
  70
    32
  0
VERTEX
  8
0
  5
2AD7
 10
49.9632
 20
68.4302
 30
0.00000
  70
    32
  0
VERTEX
  8
0
  5
2AD8
 10
50.0000
 20
68.4293
 30
0.00000
  70
    32
  0
VERTEX
  8
0
  5
2AD9
 10
50.0368
 20
68.4302
 30
0.00000
  70
    32
  0
VERTEX
  8
0
  5
2ADA
 10
50.0735
 20
68.4328
 30
0.00000
  70
    32
  0
VERTEX
  8
0
  5
2ADB
 10
50.1100
 20
68.4372
 30
0.00000
  70
    32
  0
VERTEX
  8
0
  5
2ADC
 10
50.1463
 20
68.4434
 30
0.00000
  70
    32
  0
VERTEX
  8
0
  5
2ADD
 10
50.1822
 20
68.4513
 30
0.00000
  70
    32
  0
VERTEX
  8
0
  5
2ADE
 10
50.2177
 20
68.4609
 30
0.00000
  70
    32
  0
VERTEX
  8
0
  5
2ADF
 10
50.2527
 20
68.4722
 30
0.00000
  70
    32
  0
VERTEX
  8
0
  5
2AE0
 10
50.2870
 20
68.4851
 30
0.00000
  70
    32
  0
VERTEX
  8
0
  5
2AE1
 10
50.3207
 20
68.4997
 30
0.00000
  70
    32
  0
VERTEX
  8
0
  5
2AE2
 10
50.3535
 20
68.5159
 30
0.00000
  70
    32
  0
VERTEX
  8
0
  5
2AE3
 10
50.3856
 20
68.5336
 30
0.00000
  70
    32
  0
VERTEX
  8
0
  5
2AE4
 10
50.4167
 20
68.5529
 30
0.00000
  70
    32
  0
VERTEX
  8
0
  5
2AE5
 10
50.4468
 20
68.5736
 30
0.00000
  70
    32
  0
VERTEX
  8
0
  5
2AE6
 10
50.4758
 20
68.5958
 30
0.00000
  70
    32
  0
VERTEX
  8
0
  5
2AE7
 10
50.5037
 20
68.6193
 30
0.00000
  70
    32
  0
VERTEX
  8
0
  5
2AE8
 10
50.5303
 20
68.6441
 30
0.00000
  70
    32
  0
VERTEX
  8
0
  5
2AE9
 10
50.5557
 20
68.6702
 30
0.00000
  70
    32
  0
VERTEX
  8
0
  5
2AEA
 10
50.5798
 20
68.6975
 30
0.00000
  70
    32
  0
VERTEX
  8
0
  5
2AEB
 10
50.6024
 20
68.7259
 30
0.00000
  70
    32
  0
VERTEX
  8
0
  5
2AEC
 10
50.6236
 20
68.7553
 30
0.00000
  70
    32
  0
VERTEX
  8
0
  5
2AED
 10
50.6433
 20
68.7857
 30
0.00000
  70
    32
  0
VERTEX
  8
0
  5
2AEE
 10
50.6614
 20
68.8171
 30
0.00000
  70
    32
  0
VERTEX
  8
0
  5
2AEF
 10
50.6780
 20
68.8492
 30
0.00000
  70
    32
  0
VERTEX
  8
0
  5
2AF0
 10
50.6929
 20
68.8821
 30
0.00000
  70
    32
  0
VERTEX
  8
0
  5
2AF1
 10
50.7062
 20
68.9157
 30
0.00000
  70
    32
  0
VERTEX
  8
0
  5
2AF2
 10
50.7177
 20
68.9499
 30
0.00000
  70
    32
  0
VERTEX
  8
0
  5
2AF3
 10
50.7275
 20
68.9846
 30
0.00000
  70
    32
  0
VERTEX
  8
0
  5
2AF4
 10
50.7356
 20
69.0198
 30
0.00000
  70
    32
  0
VERTEX
  8
0
  5
2AF5
 10
50.7419
 20
69.0552
 30
0.00000
  70
    32
  0
VERTEX
  8
0
  5
2AF6
 10
50.7464
 20
69.0910
 30
0.00000
  70
    32
  0
VERTEX
  8
0
  5
2AF7
 10
50.7491
 20
69.1269
 30
0.00000
  70
    32
  0
VERTEX
  8
0
  5
2AF8
 10
50.7500
 20
69.1629
 30
0.00000
  70
    32
  0
SEQEND
  8
0
  5
2AF9
  0
POLYLINE
  5
2181
  8
0
 10
50.7499999999999929
 20
71.7428794782640153
 30
0.0
 66
     1
 70
     8
  0
VERTEX
  8
0
  5
2AFA
 10
50.7500
 20
71.7429
 30
0.00000
  70
    32
  0
VERTEX
  8
0
  5
2AFB
 10
50.7491
 20
71.7789
 30
0.00000
  70
    32
  0
VERTEX
  8
0
  5
2AFC
 10
50.7464
 20
71.8148
 30
0.00000
  70
    32
  0
VERTEX
  8
0
  5
2AFD
 10
50.7419
 20
71.8505
 30
0.00000
  70
    32
  0
VERTEX
  8
0
  5
2AFE
 10
50.7356
 20
71.8860
 30
0.00000
  70
    32
  0
VERTEX
  8
0
  5
2AFF
 10
50.7275
 20
71.9211
 30
0.00000
  70
    32
  0
VERTEX
  8
0
  5
2B00
 10
50.7177
 20
71.9558
 30
0.00000
  70
    32
  0
VERTEX
  8
0
  5
2B01
 10
50.7062
 20
71.9900
 30
0.00000
  70
    32
  0
VERTEX
  8
0
  5
2B02
 10
50.6929
 20
72.0236
 30
0.00000
  70
    32
  0
VERTEX
  8
0
  5
2B03
 10
50.6780
 20
72.0565
 30
0.00000
  70
    32
  0
VERTEX
  8
0
  5
2B04
 10
50.6614
 20
72.0887
 30
0.00000
  70
    32
  0
VERTEX
  8
0
  5
2B05
 10
50.6433
 20
72.1200
 30
0.00000
  70
    32
  0
VERTEX
  8
0
  5
2B06
 10
50.6236
 20
72.1505
 30
0.00000
  70
    32
  0
VERTEX
  8
0
  5
2B07
 10
50.6024
 20
72.1799
 30
0.00000
  70
    32
  0
VERTEX
  8
0
  5
2B08
 10
50.5798
 20
72.2083
 30
0.00000
  70
    32
  0
VERTEX
  8
0
  5
2B09
 10
50.5557
 20
72.2355
 30
0.00000
  70
    32
  0
VERTEX
  8
0
  5
2B0A
 10
50.5303
 20
72.2616
 30
0.00000
  70
    32
  0
VERTEX
  8
0
  5
2B0B
 10
50.5037
 20
72.2864
 30
0.00000
  70
    32
  0
VERTEX
  8
0
  5
2B0C
 10
50.4758
 20
72.3100
 30
0.00000
  70
    32
  0
VERTEX
  8
0
  5
2B0D
 10
50.4468
 20
72.3321
 30
0.00000
  70
    32
  0
VERTEX
  8
0
  5
2B0E
 10
50.4167
 20
72.3529
 30
0.00000
  70
    32
  0
VERTEX
  8
0
  5
2B0F
 10
50.3856
 20
72.3721
 30
0.00000
  70
    32
  0
VERTEX
  8
0
  5
2B10
 10
50.3535
 20
72.3899
 30
0.00000
  70
    32
  0
VERTEX
  8
0
  5
2B11
 10
50.3207
 20
72.4061
 30
0.00000
  70
    32
  0
VERTEX
  8
0
  5
2B12
 10
50.2870
 20
72.4206
 30
0.00000
  70
    32
  0
VERTEX
  8
0
  5
2B13
 10
50.2527
 20
72.4336
 30
0.00000
  70
    32
  0
VERTEX
  8
0
  5
2B14
 10
50.2177
 20
72.4449
 30
0.00000
  70
    32
  0
VERTEX
  8
0
  5
2B15
 10
50.1822
 20
72.4545
 30
0.00000
  70
    32
  0
VERTEX
  8
0
  5
2B16
 10
50.1463
 20
72.4624
 30
0.00000
  70
    32
  0
VERTEX
  8
0
  5
2B17
 10
50.1100
 20
72.4685
 30
0.00000
  70
    32
  0
VERTEX
  8
0
  5
2B18
 10
50.0735
 20
72.4730
 30
0.00000
  70
    32
  0
VERTEX
  8
0
  5
2B19
 10
50.0368
 20
72.4756
 30
0.00000
  70
    32
  0
VERTEX
  8
0
  5
2B1A
 10
50.0000
 20
72.4765
 30
0.00000
  70
    32
  0
VERTEX
  8
0
  5
2B1B
 10
49.9632
 20
72.4756
 30
0.00000
  70
    32
  0
VERTEX
  8
0
  5
2B1C
 10
49.9265
 20
72.4730
 30
0.00000
  70
    32
  0
VERTEX
  8
0
  5
2B1D
 10
49.8900
 20
72.4685
 30
0.00000
  70
    32
  0
VERTEX
  8
0
  5
2B1E
 10
49.8537
 20
72.4624
 30
0.00000
  70
    32
  0
VERTEX
  8
0
  5
2B1F
 10
49.8178
 20
72.4545
 30
0.00000
  70
    32
  0
VERTEX
  8
0
  5
2B20
 10
49.7823
 20
72.4449
 30
0.00000
  70
    32
  0
VERTEX
  8
0
  5
2B21
 10
49.7473
 20
72.4336
 30
0.00000
  70
    32
  0
VERTEX
  8
0
  5
2B22
 10
49.7130
 20
72.4206
 30
0.00000
  70
    32
  0
VERTEX
  8
0
  5
2B23
 10
49.6793
 20
72.4061
 30
0.00000
  70
    32
  0
VERTEX
  8
0
  5
2B24
 10
49.6465
 20
72.3899
 30
0.00000
  70
    32
  0
VERTEX
  8
0
  5
2B25
 10
49.6144
 20
72.3721
 30
0.00000
  70
    32
  0
VERTEX
  8
0
  5
2B26
 10
49.5833
 20
72.3529
 30
0.00000
  70
    32
  0
VERTEX
  8
0
  5
2B27
 10
49.5532
 20
72.3321
 30
0.00000
  70
    32
  0
VERTEX
  8
0
  5
2B28
 10
49.5242
 20
72.3100
 30
0.00000
  70
    32
  0
VERTEX
  8
0
  5
2B29
 10
49.4963
 20
72.2864
 30
0.00000
  70
    32
  0
VERTEX
  8
0
  5
2B2A
 10
49.4697
 20
72.2616
 30
0.00000
  70
    32
  0
VERTEX
  8
0
  5
2B2B
 10
49.4443
 20
72.2355
 30
0.00000
  70
    32
  0
VERTEX
  8
0
  5
2B2C
 10
49.4202
 20
72.2083
 30
0.00000
  70
    32
  0
VERTEX
  8
0
  5
2B2D
 10
49.3976
 20
72.1799
 30
0.00000
  70
    32
  0
VERTEX
  8
0
  5
2B2E
 10
49.3764
 20
72.1505
 30
0.00000
  70
    32
  0
VERTEX
  8
0
  5
2B2F
 10
49.3567
 20
72.1200
 30
0.00000
  70
    32
  0
VERTEX
  8
0
  5
2B30
 10
49.3386
 20
72.0887
 30
0.00000
  70
    32
  0
VERTEX
  8
0
  5
2B31
 10
49.3220
 20
72.0565
 30
0.00000
  70
    32
  0
VERTEX
  8
0
  5
2B32
 10
49.3071
 20
72.0236
 30
0.00000
  70
    32
  0
VERTEX
  8
0
  5
2B33
 10
49.2938
 20
71.9900
 30
0.00000
  70
    32
  0
VERTEX
  8
0
  5
2B34
 10
49.2823
 20
71.9558
 30
0.00000
  70
    32
  0
VERTEX
  8
0
  5
2B35
 10
49.2725
 20
71.9211
 30
0.00000
  70
    32
  0
VERTEX
  8
0
  5
2B36
 10
49.2644
 20
71.8860
 30
0.00000
  70
    32
  0
VERTEX
  8
0
  5
2B37
 10
49.2581
 20
71.8505
 30
0.00000
  70
    32
  0
VERTEX
  8
0
  5
2B38
 10
49.2536
 20
71.8148
 30
0.00000
  70
    32
  0
VERTEX
  8
0
  5
2B39
 10
49.2509
 20
71.7789
 30
0.00000
  70
    32
  0
VERTEX
  8
0
  5
2B3A
 10
49.2500
 20
71.7429
 30
0.00000
  70
    32
  0
VERTEX
  8
0
  5
2B3B
 10
49.2509
 20
71.7069
 30
0.00000
  70
    32
  0
VERTEX
  8
0
  5
2B3C
 10
49.2536
 20
71.6710
 30
0.00000
  70
    32
  0
VERTEX
  8
0
  5
2B3D
 10
49.2581
 20
71.6352
 30
0.00000
  70
    32
  0
VERTEX
  8
0
  5
2B3E
 10
49.2644
 20
71.5998
 30
0.00000
  70
    32
  0
VERTEX
  8
0
  5
2B3F
 10
49.2725
 20
71.5646
 30
0.00000
  70
    32
  0
VERTEX
  8
0
  5
2B40
 10
49.2823
 20
71.5299
 30
0.00000
  70
    32
  0
VERTEX
  8
0
  5
2B41
 10
49.2938
 20
71.4957
 30
0.00000
  70
    32
  0
VERTEX
  8
0
  5
2B42
 10
49.3071
 20
71.4621
 30
0.00000
  70
    32
  0
VERTEX
  8
0
  5
2B43
 10
49.3220
 20
71.4292
 30
0.00000
  70
    32
  0
VERTEX
  8
0
  5
2B44
 10
49.3386
 20
71.3971
 30
0.00000
  70
    32
  0
VERTEX
  8
0
  5
2B45
 10
49.3567
 20
71.3657
 30
0.00000
  70
    32
  0
VERTEX
  8
0
  5
2B46
 10
49.3764
 20
71.3353
 30
0.00000
  70
    32
  0
VERTEX
  8
0
  5
2B47
 10
49.3976
 20
71.3059
 30
0.00000
  70
    32
  0
VERTEX
  8
0
  5
2B48
 10
49.4202
 20
71.2775
 30
0.00000
  70
    32
  0
VERTEX
  8
0
  5
2B49
 10
49.4443
 20
71.2502
 30
0.00000
  70
    32
  0
VERTEX
  8
0
  5
2B4A
 10
49.4697
 20
71.2241
 30
0.00000
  70
    32
  0
VERTEX
  8
0
  5
2B4B
 10
49.4963
 20
71.1993
 30
0.00000
  70
    32
  0
VERTEX
  8
0
  5
2B4C
 10
49.5242
 20
71.1758
 30
0.00000
  70
    32
  0
VERTEX
  8
0
  5
2B4D
 10
49.5532
 20
71.1536
 30
0.00000
  70
    32
  0
VERTEX
  8
0
  5
2B4E
 10
49.5833
 20
71.1329
 30
0.00000
  70
    32
  0
VERTEX
  8
0
  5
2B4F
 10
49.6144
 20
71.1136
 30
0.00000
  70
    32
  0
VERTEX
  8
0
  5
2B50
 10
49.6465
 20
71.0959
 30
0.00000
  70
    32
  0
VERTEX
  8
0
  5
2B51
 10
49.6793
 20
71.0797
 30
0.00000
  70
    32
  0
VERTEX
  8
0
  5
2B52
 10
49.7130
 20
71.0651
 30
0.00000
  70
    32
  0
VERTEX
  8
0
  5
2B53
 10
49.7473
 20
71.0522
 30
0.00000
  70
    32
  0
VERTEX
  8
0
  5
2B54
 10
49.7823
 20
71.0409
 30
0.00000
  70
    32
  0
VERTEX
  8
0
  5
2B55
 10
49.8178
 20
71.0313
 30
0.00000
  70
    32
  0
VERTEX
  8
0
  5
2B56
 10
49.8537
 20
71.0234
 30
0.00000
  70
    32
  0
VERTEX
  8
0
  5
2B57
 10
49.8900
 20
71.0172
 30
0.00000
  70
    32
  0
VERTEX
  8
0
  5
2B58
 10
49.9265
 20
71.0128
 30
0.00000
  70
    32
  0
VERTEX
  8
0
  5
2B59
 10
49.9632
 20
71.0102
 30
0.00000
  70
    32
  0
VERTEX
  8
0
  5
2B5A
 10
50.0000
 20
71.0093
 30
0.00000
  70
    32
  0
VERTEX
  8
0
  5
2B5B
 10
50.0368
 20
71.0102
 30
0.00000
  70
    32
  0
VERTEX
  8
0
  5
2B5C
 10
50.0735
 20
71.0128
 30
0.00000
  70
    32
  0
VERTEX
  8
0
  5
2B5D
 10
50.1100
 20
71.0172
 30
0.00000
  70
    32
  0
VERTEX
  8
0
  5
2B5E
 10
50.1463
 20
71.0234
 30
0.00000
  70
    32
  0
VERTEX
  8
0
  5
2B5F
 10
50.1822
 20
71.0313
 30
0.00000
  70
    32
  0
VERTEX
  8
0
  5
2B60
 10
50.2177
 20
71.0409
 30
0.00000
  70
    32
  0
VERTEX
  8
0
  5
2B61
 10
50.2527
 20
71.0522
 30
0.00000
  70
    32
  0
VERTEX
  8
0
  5
2B62
 10
50.2870
 20
71.0651
 30
0.00000
  70
    32
  0
VERTEX
  8
0
  5
2B63
 10
50.3207
 20
71.0797
 30
0.00000
  70
    32
  0
VERTEX
  8
0
  5
2B64
 10
50.3535
 20
71.0959
 30
0.00000
  70
    32
  0
VERTEX
  8
0
  5
2B65
 10
50.3856
 20
71.1136
 30
0.00000
  70
    32
  0
VERTEX
  8
0
  5
2B66
 10
50.4167
 20
71.1329
 30
0.00000
  70
    32
  0
VERTEX
  8
0
  5
2B67
 10
50.4468
 20
71.1536
 30
0.00000
  70
    32
  0
VERTEX
  8
0
  5
2B68
 10
50.4758
 20
71.1758
 30
0.00000
  70
    32
  0
VERTEX
  8
0
  5
2B69
 10
50.5037
 20
71.1993
 30
0.00000
  70
    32
  0
VERTEX
  8
0
  5
2B6A
 10
50.5303
 20
71.2241
 30
0.00000
  70
    32
  0
VERTEX
  8
0
  5
2B6B
 10
50.5557
 20
71.2502
 30
0.00000
  70
    32
  0
VERTEX
  8
0
  5
2B6C
 10
50.5798
 20
71.2775
 30
0.00000
  70
    32
  0
VERTEX
  8
0
  5
2B6D
 10
50.6024
 20
71.3059
 30
0.00000
  70
    32
  0
VERTEX
  8
0
  5
2B6E
 10
50.6236
 20
71.3353
 30
0.00000
  70
    32
  0
VERTEX
  8
0
  5
2B6F
 10
50.6433
 20
71.3657
 30
0.00000
  70
    32
  0
VERTEX
  8
0
  5
2B70
 10
50.6614
 20
71.3971
 30
0.00000
  70
    32
  0
VERTEX
  8
0
  5
2B71
 10
50.6780
 20
71.4292
 30
0.00000
  70
    32
  0
VERTEX
  8
0
  5
2B72
 10
50.6929
 20
71.4621
 30
0.00000
  70
    32
  0
VERTEX
  8
0
  5
2B73
 10
50.7062
 20
71.4957
 30
0.00000
  70
    32
  0
VERTEX
  8
0
  5
2B74
 10
50.7177
 20
71.5299
 30
0.00000
  70
    32
  0
VERTEX
  8
0
  5
2B75
 10
50.7275
 20
71.5646
 30
0.00000
  70
    32
  0
VERTEX
  8
0
  5
2B76
 10
50.7356
 20
71.5998
 30
0.00000
  70
    32
  0
VERTEX
  8
0
  5
2B77
 10
50.7419
 20
71.6352
 30
0.00000
  70
    32
  0
VERTEX
  8
0
  5
2B78
 10
50.7464
 20
71.6710
 30
0.00000
  70
    32
  0
VERTEX
  8
0
  5
2B79
 10
50.7491
 20
71.7069
 30
0.00000
  70
    32
  0
VERTEX
  8
0
  5
2B7A
 10
50.7500
 20
71.7429
 30
0.00000
  70
    32
  0
SEQEND
  8
0
  5
2B7B
  0
LINE
  5
21DF
  8
0
 10
190.0
 20
153.2330000000000041
 30
0.0
 11
189.2330000000000041
 21
154.0
 31
0.0
  0
LINE
  5
21E0
  8
0
 10
189.2330000000000041
 20
146.0
 30
0.0
 11
190.0
 21
146.7669999999999959
 31
0.0
  0
LINE
  5
21E1
  8
0
 10
190.0
 20
146.7669999999999959
 30
0.0
 11
190.0
 21
153.2330000000000041
 31
0.0
  0
LINE
  5
21E2
  8
0
 10
189.2330000000000041
 20
154.0
 30
0.0
 11
185.0
 21
154.0
 31
0.0
  0
LINE
  5
21E3
  8
0
 10
161.9992337105792899
 20
146.0
 30
0.0
 11
177.0
 21
146.0
 31
0.0
  0
LINE
  5
21E4
  8
0
 10
189.2330000000000041
 20
146.0
 30
0.0
 11
189.2330000000000041
 21
154.0
 31
0.0
  0
LINE
  5
21E5
  8
0
 10
150.0
 20
154.4000000000000057
 30
0.0
 11
149.8000000000000114
 21
154.4000000000000057
 31
0.0
  0
LINE
  5
21E6
  8
0
 10
149.8000000000000114
 20
145.5999999999999943
 30
0.0
 11
150.0
 21
145.5999999999999943
 31
0.0
  0
LINE
  5
21F2
  8
0
 10
149.0928932188134013
 20
150.3423344282495009
 30
0.0
 11
139.5900000000000034
 21
150.3423344282495009
 31
0.0
  0
LINE
  5
21F3
  8
0
 10
139.5900000000000034
 20
150.3423344282495009
 30
0.0
 11
139.5900000000000034
 21
151.7576010341967958
 31
0.0
  0
LINE
  5
21F4
  8
0
 10
149.0928932188134013
 20
151.7576010341967958
 30
0.0
 11
139.5900000000000034
 21
151.7576010341967958
 31
0.0
  0
LINE
  5
21F5
  8
0
 10
149.0928932188134013
 20
152.4087598116745141
 30
0.0
 11
139.5900000000000034
 21
152.4087598116745141
 31
0.0
  0
LINE
  5
21F6
  8
0
 10
139.5900000000000034
 20
152.4087598116745141
 30
0.0
 11
139.5900000000000034
 21
153.6854902614894058
 31
0.0
  0
LINE
  5
21F7
  8
0
 10
149.0928932188134013
 20
153.6854902614894058
 30
0.0
 11
139.5900000000000034
 21
153.6854902614894058
 31
0.0
  0
LINE
  5
21F8
  8
0
 10
149.0928932188134013
 20
154.2393990019164107
 30
0.0
 11
139.5900000000000034
 21
154.2393990019164107
 31
0.0
  0
LINE
  5
21F9
  8
0
 10
139.5900000000000034
 20
154.2393990019164107
 30
0.0
 11
139.5900000000000034
 21
155.252618023666912
 31
0.0
  0
LINE
  5
21FA
  8
0
 10
149.0928932188134013
 20
155.252618023666912
 30
0.0
 11
139.5900000000000034
 21
155.252618023666912
 31
0.0
  0
LINE
  5
21FB
  8
0
 10
149.0928932188134013
 20
155.6550562802210038
 30
0.0
 11
139.5900000000000034
 21
155.6550562802210038
 31
0.0
  0
LINE
  5
21FC
  8
0
 10
139.5900000000000034
 20
155.6550562802210038
 30
0.0
 11
139.5900000000000034
 21
156.3055829365461022
 31
0.0
  0
LINE
  5
21FD
  8
0
 10
149.0928932188134013
 20
156.3055829365461022
 30
0.0
 11
139.5900000000000034
 21
156.3055829365461022
 31
0.0
  0
LINE
  5
21FE
  8
0
 10
149.0928932188134013
 20
156.5171572487234926
 30
0.0
 11
139.5900000000000034
 21
156.5171572487234926
 31
0.0
  0
LINE
  5
21FF
  8
0
 10
139.5900000000000034
 20
156.5171572487234926
 30
0.0
 11
139.5900000000000034
 21
156.7413134580164922
 31
0.0
  0
LINE
  5
2202
  8
0
 10
139.5900000000000034
 20
143.2586865419833941
 30
0.0
 11
139.5900000000000034
 21
143.4828427512763938
 31
0.0
  0
LINE
  5
2203
  8
0
 10
149.0928932188134013
 20
143.4828427512763938
 30
0.0
 11
139.5900000000000034
 21
143.4828427512763938
 31
0.0
  0
LINE
  5
2204
  8
0
 10
149.0928932188134013
 20
143.6944170634538125
 30
0.0
 11
139.5900000000000034
 21
143.6944170634538125
 31
0.0
  0
LINE
  5
2205
  8
0
 10
139.5900000000000034
 20
143.6944170634538125
 30
0.0
 11
139.5900000000000034
 21
144.3449437197789962
 31
0.0
  0
LINE
  5
2206
  8
0
 10
149.0928932188134013
 20
144.3449437197789962
 30
0.0
 11
139.5900000000000034
 21
144.3449437197789962
 31
0.0
  0
LINE
  5
2207
  8
0
 10
149.0928932188134013
 20
144.747381976333088
 30
0.0
 11
139.5900000000000034
 21
144.747381976333088
 31
0.0
  0
LINE
  5
2208
  8
0
 10
139.5900000000000034
 20
144.747381976333088
 30
0.0
 11
139.5900000000000034
 21
145.7606009980835893
 31
0.0
  0
LINE
  5
2209
  8
0
 10
149.0928932188134013
 20
145.7606009980835893
 30
0.0
 11
139.5900000000000034
 21
145.7606009980835893
 31
0.0
  0
LINE
  5
220A
  8
0
 10
149.0928932188134013
 20
146.3145097385105089
 30
0.0
 11
139.5900000000000034
 21
146.3145097385105089
 31
0.0
  0
LINE
  5
220B
  8
0
 10
139.5900000000000034
 20
146.3145097385105089
 30
0.0
 11
139.5900000000000034
 21
147.5912401883254006
 31
0.0
  0
LINE
  5
220C
  8
0
 10
149.0928932188134013
 20
147.5912401883254006
 30
0.0
 11
139.5900000000000034
 21
147.5912401883254006
 31
0.0
  0
LINE
  5
220D
  8
0
 10
149.0928932188134013
 20
148.2423989658032042
 30
0.0
 11
139.5900000000000034
 21
148.2423989658032042
 31
0.0
  0
LINE
  5
220E
  8
0
 10
139.5900000000000034
 20
148.2423989658032042
 30
0.0
 11
139.5900000000000034
 21
149.6576655717504991
 31
0.0
  0
LINE
  5
220F
  8
0
 10
149.0928932188134013
 20
149.6576655717504991
 30
0.0
 11
139.5900000000000034
 21
149.6576655717504991
 31
0.0
  0
LINE
  5
2210
  8
0
 10
138.0
 20
143.25
 30
0.0
 11
149.0928932188134013
 21
143.25
 31
0.0
  0
LINE
  5
2211
  8
0
 10
149.0928932188134013
 20
156.75
 30
0.0
 11
138.0
 21
156.75
 31
0.0
  0
LINE
  5
2212
  8
0
 10
149.8000000000000114
 20
156.0428932188133899
 30
0.0
 11
149.8000000000000114
 21
143.9571067811864964
 31
0.0
  0
LINE
  5
2214
  8
0
 10
149.4978932188134024
 20
156.1696871449231878
 30
0.0
 11
149.4978932188134877
 21
156.3254404825366919
 31
0.0
  0
LINE
  5
2215
  8
0
 10
149.0928932188134013
 20
156.5171572487234926
 30
0.0
 11
149.4978932188134024
 21
156.1696871449231878
 31
0.0
  0
LINE
  5
2216
  8
0
 10
149.0928932188134013
 20
156.5171572487234926
 30
0.0
 11
149.0928932188134013
 21
156.3055829365461022
 31
0.0
  0
LINE
  5
2217
  8
0
 10
149.4978932188132035
 20
155.8620156337840967
 30
0.0
 11
149.0928932188134013
 21
156.3055829365461022
 31
0.0
  0
LINE
  5
2218
  8
0
 10
149.4978932188134024
 20
155.4100018428266878
 30
0.0
 11
149.4978932188132035
 21
155.8620156337840967
 31
0.0
  0
LINE
  5
2219
  8
0
 10
149.0928932188134013
 20
155.6550562802210038
 30
0.0
 11
149.4978932188134024
 21
155.4100018428266878
 31
0.0
  0
LINE
  5
221A
  8
0
 10
149.0928932188134013
 20
155.6550562802210038
 30
0.0
 11
149.0928932188134013
 21
155.252618023666912
 31
0.0
  0
LINE
  5
221B
  8
0
 10
149.4978932188132035
 20
154.8247758517321984
 30
0.0
 11
149.0928932188134013
 21
155.252618023666912
 31
0.0
  0
LINE
  5
221C
  8
0
 10
149.4978932188134024
 20
154.1207478666549946
 30
0.0
 11
149.4978932188132035
 21
154.8247758517321984
 31
0.0
  0
LINE
  5
221D
  8
0
 10
149.0928932188134013
 20
154.2393990019164107
 30
0.0
 11
149.4978932188134024
 21
154.1207478666549946
 31
0.0
  0
LINE
  5
221E
  8
0
 10
149.0928932188134013
 20
154.2393990019164107
 30
0.0
 11
149.0928932188134013
 21
153.6854902614894058
 31
0.0
  0
LINE
  5
221F
  8
0
 10
149.4978932188132887
 20
153.3152533931227026
 30
0.0
 11
149.0928932188134013
 21
153.6854902614894058
 31
0.0
  0
LINE
  5
2220
  8
0
 10
149.4978932188134024
 20
152.4281263783564953
 30
0.0
 11
149.4978932188132887
 21
153.3152533931227026
 31
0.0
  0
LINE
  5
2221
  8
0
 10
149.0928932188134013
 20
152.4087598116745141
 30
0.0
 11
149.4978932188134024
 21
152.4281263783564953
 31
0.0
  0
LINE
  5
2222
  8
0
 10
149.0928932188134013
 20
152.4087598116745141
 30
0.0
 11
149.0928932188134013
 21
151.7576010341967958
 31
0.0
  0
LINE
  5
2223
  8
0
 10
149.4978932188132035
 20
151.4812108336656991
 30
0.0
 11
149.0928932188134013
 21
151.7576010341967958
 31
0.0
  0
LINE
  5
2224
  8
0
 10
149.4978932188134024
 20
150.4978229623930872
 30
0.0
 11
149.4978932188132035
 21
151.4812108336656991
 31
0.0
  0
LINE
  5
2225
  8
0
 10
149.0928932188134013
 20
150.3423344282495009
 30
0.0
 11
149.4978932188134024
 21
150.4978229623930872
 31
0.0
  0
LINE
  5
2226
  8
0
 10
149.0928932188134013
 20
150.3423344282495009
 30
0.0
 11
149.0928932188134013
 21
149.6576655717504991
 31
0.0
  0
LINE
  5
2227
  8
0
 10
149.4978932188132887
 20
149.5021770376067991
 30
0.0
 11
149.0928932188134013
 21
149.6576655717504991
 31
0.0
  0
LINE
  5
2228
  8
0
 10
149.4978932188134024
 20
148.5187891663341873
 30
0.0
 11
149.4978932188132887
 21
149.5021770376067991
 31
0.0
  0
LINE
  5
2229
  8
0
 10
149.0928932188134013
 20
148.2423989658032042
 30
0.0
 11
149.4978932188134024
 21
148.5187891663341873
 31
0.0
  0
LINE
  5
222A
  8
0
 10
149.0928932188134013
 20
148.2423989658032042
 30
0.0
 11
149.0928932188134013
 21
147.5912401883254006
 31
0.0
  0
LINE
  5
222B
  8
0
 10
149.4978932188132887
 20
147.5718736216435047
 30
0.0
 11
149.0928932188134013
 21
147.5912401883254006
 31
0.0
  0
LINE
  5
222C
  8
0
 10
149.4978932188134024
 20
146.6847466068772974
 30
0.0
 11
149.4978932188132887
 21
147.5718736216435047
 31
0.0
  0
LINE
  5
222D
  8
0
 10
149.0928932188134013
 20
146.3145097385105089
 30
0.0
 11
149.4978932188134024
 21
146.6847466068772974
 31
0.0
  0
LINE
  5
222E
  8
0
 10
149.0928932188134013
 20
146.3145097385105089
 30
0.0
 11
149.0928932188134013
 21
145.7606009980835893
 31
0.0
  0
LINE
  5
222F
  8
0
 10
149.4978932188132887
 20
145.8792521333450054
 30
0.0
 11
149.0928932188134013
 21
145.7606009980835893
 31
0.0
  0
LINE
  5
2230
  8
0
 10
149.4978932188134024
 20
145.1752241482678016
 30
0.0
 11
149.4978932188132887
 21
145.8792521333450054
 31
0.0
  0
LINE
  5
2231
  8
0
 10
149.0928932188134013
 20
144.747381976333088
 30
0.0
 11
149.4978932188134024
 21
145.1752241482678016
 31
0.0
  0
LINE
  5
2232
  8
0
 10
149.0928932188134013
 20
144.747381976333088
 30
0.0
 11
149.0928932188134013
 21
144.3449437197789962
 31
0.0
  0
LINE
  5
2233
  8
0
 10
149.4978932188134877
 20
144.5899981571733122
 30
0.0
 11
149.0928932188134013
 21
144.3449437197789962
 31
0.0
  0
LINE
  5
2234
  8
0
 10
149.4978932188134024
 20
144.1379843662159033
 30
0.0
 11
149.4978932188134877
 21
144.5899981571733122
 31
0.0
  0
LINE
  5
2235
  8
0
 10
149.0928932188134013
 20
143.6944170634538125
 30
0.0
 11
149.4978932188134024
 21
144.1379843662159033
 31
0.0
  0
LINE
  5
2236
  8
0
 10
149.0928932188134013
 20
143.6944170634538125
 30
0.0
 11
149.0928932188134013
 21
143.4828427512763938
 31
0.0
  0
LINE
  5
2237
  8
0
 10
149.4978932188132887
 20
143.8303128550766985
 30
0.0
 11
149.0928932188134013
 21
143.4828427512763938
 31
0.0
  0
LINE
  5
2238
  8
0
 10
149.4978932188134024
 20
143.6745595174633081
 30
0.0
 11
149.4978932188132887
 21
143.8303128550766985
 31
0.0
  0
LINE
  5
223B
  8
0
 10
149.8000000000000114
 20
156.0428932188133899
 30
0.0
 11
149.0928932188134013
 21
156.75
 31
0.0
  0
LINE
  5
223C
  8
0
 10
149.0928932188134013
 20
143.25
 30
0.0
 11
149.8000000000000114
 21
143.9571067811864964
 31
0.0
  0
LINE
  5
223E
  8
0
 10
138.0
 20
140.0
 30
0.0
 11
138.0
 21
160.0
 31
0.0
  0
LINE
  5
2241
  8
0
 10
117.7473350071409044
 20
140.0
 30
0.0
 11
138.0
 21
140.0
 31
0.0
  0
LINE
  5
2242
  8
0
 10
138.0
 20
160.0
 30
0.0
 11
117.7499523272723962
 21
160.0
 31
0.0
  0
LINE
  5
2247
  8
0
 10
131.0044118562173026
 20
146.335000000000008
 30
0.0
 11
115.4975468232390057
 21
146.335000000000008
 31
0.0
  0
LINE
  5
2248
  8
0
 10
127.7157262247448983
 20
143.25
 30
0.0
 11
114.6332059074644008
 21
143.25
 31
0.0
  0
LINE
  5
224B
  8
0
 10
115.4943231665432961
 20
153.664999999999992
 30
0.0
 11
131.0044118562171889
 21
153.664999999999992
 31
0.0
  0
LINE
  5
224C
  8
0
 10
114.629794453383596
 20
156.75
 30
0.0
 11
127.7157262247457936
 21
156.75
 31
0.0
  0
LINE
  5
2251
  8
0
 10
117.0
 20
146.335000000000008
 30
0.0
 11
117.0
 21
153.664999999999992
 31
0.0
  0
LINE
  5
2252
  8
0
 10
115.5
 20
143.6177625793563948
 30
0.0
 11
115.5
 21
156.3799827378306873
 31
0.0
  0
LINE
  5
2255
  8
0
 10
114.6297944533827007
 20
156.75
 30
0.0
 11
107.6570604053759013
 21
156.75
 31
0.0
  0
LINE
  5
2259
  8
0
 10
107.6570604053759013
 20
143.25
 30
0.0
 11
114.6332059074647987
 21
143.25
 31
0.0
  0
LINE
  5
2266
  8
3
 10
190.0
 20
153.2330000000000041
 30
0.0
 11
185.0
 21
153.2329999999998904
 31
0.0
  0
LINE
  5
2267
  8
3
 10
190.0
 20
146.7669999999999959
 30
0.0
 11
185.0
 21
146.7669999999999959
 31
0.0
  0
ARC
  5
22C5
  8
0
 10
108.8000000000001961
 20
110.9999999999996021
 30
0.0
 40
2.0000000000004281
 50
89.9999999988824868
 51
138.429124935509094
  0
LINE
  5
22C9
  8
0
 10
189.2330000000000041
 20
53.9999999999999929
 30
0.0
 11
185.0
 21
54.0
 31
0.0
  0
LINE
  5
22CA
  8
0
 10
162.0
 20
45.9999999999999787
 30
0.0
 11
177.0
 21
45.9999999999999929
 31
0.0
  0
LINE
  5
22CB
  8
0
 10
189.2330000000000041
 20
45.9999999999999929
 30
0.0
 11
189.2330000000000041
 21
53.9999999999999929
 31
0.0
  0
LINE
  5
22CC
  8
0
 10
190.0
 20
46.7669999999999888
 30
0.0
 11
190.0
 21
53.2329999999999899
 31
0.0
  0
LINE
  5
22CD
  8
0
 10
190.0
 20
53.2329999999999899
 30
0.0
 11
189.2330000000000041
 21
53.9999999999999929
 31
0.0
  0
LINE
  5
22CE
  8
0
 10
189.2330000000000041
 20
45.9999999999999929
 30
0.0
 11
190.0
 21
46.7669999999999888
 31
0.0
  0
LINE
  5
22D0
  8
0
 10
150.0
 20
54.3999999999999915
 30
0.0
 11
149.8000000000000114
 21
54.3999999999999915
 31
0.0
  0
LINE
  5
22D1
  8
0
 10
149.8000000000000114
 20
45.5999999999999872
 30
0.0
 11
150.0
 21
45.5999999999999872
 31
0.0
  0
LINE
  5
22D2
  8
0
 10
109.7999999999999972
 20
45.2499999999999929
 30
0.0
 11
117.75
 21
45.2499999999999929
 31
0.0
  0
LINE
  5
22D3
  8
0
 10
116.3152011868105973
 20
54.75
 30
0.0
 11
109.7999999999999972
 21
54.7499999999999929
 31
0.0
  0
LINE
  5
22D4
  8
0
 10
109.7999999999999972
 20
54.7499999999999929
 30
0.0
 11
109.7999999999999972
 21
45.2499999999999929
 31
0.0
  0
ARC
  5
22D8
  8
0
 10
109.4999999999999005
 20
106.0999999999998948
 30
0.0
 40
6.9000000000000359
 50
34.3399968759390077
 51
90.0
  0
LINE
  5
22E1
  8
0
 10
115.5
 20
108.4526898391846998
 30
0.0
 11
115.5
 21
108.7999999999999972
 31
0.0
  0
ARC
  5
22E2
  8
0
 10
113.0
 20
108.7999999999999972
 30
0.0
 40
2.5000000000000102
 50
0.0
 51
28.4846404051168101
  0
LINE
  5
22E7
  8
0
 10
149.4978932188134024
 20
56.1696871449232518
 30
0.0
 11
149.4978932188132887
 21
56.3254404825366777
 31
0.0
  0
LINE
  5
22E8
  8
0
 10
149.0928932188134013
 20
56.5171572487235707
 30
0.0
 11
149.4978932188134024
 21
56.1696871449232518
 31
0.0
  0
LINE
  5
22E9
  8
0
 10
149.4978932188132887
 20
55.8620156337840967
 30
0.0
 11
149.0928932188134013
 21
56.3055829365461165
 31
0.0
  0
LINE
  5
22EA
  8
0
 10
149.4978932188134024
 20
55.4100018428267092
 30
0.0
 11
149.4978932188132887
 21
55.8620156337840967
 31
0.0
  0
LINE
  5
22EB
  8
0
 10
149.0928932188134013
 20
55.6550562802209612
 30
0.0
 11
149.4978932188134024
 21
55.4100018428267092
 31
0.0
  0
LINE
  5
22EC
  8
0
 10
149.4978932188132887
 20
54.824775851732177
 30
0.0
 11
149.0928932188134013
 21
55.2526180236668907
 31
0.0
  0
LINE
  5
22ED
  8
0
 10
149.4978932188134024
 20
54.1207478666550017
 30
0.0
 11
149.4978932188132887
 21
54.824775851732177
 31
0.0
  0
LINE
  5
22EE
  8
0
 10
149.0928932188134013
 20
54.239399001916361
 30
0.0
 11
149.4978932188134024
 21
54.1207478666550017
 31
0.0
  0
LINE
  5
22EF
  8
0
 10
149.4978932188134877
 20
53.3152533931226813
 30
0.0
 11
149.0928932188134013
 21
53.68549026148942
 31
0.0
  0
LINE
  5
22F0
  8
0
 10
149.4978932188134024
 20
52.428126378356481
 30
0.0
 11
149.4978932188134877
 21
53.3152533931226813
 31
0.0
  0
LINE
  5
22F1
  8
0
 10
149.0928932188134013
 20
52.408759811674507
 30
0.0
 11
149.4978932188134024
 21
52.428126378356481
 31
0.0
  0
LINE
  5
22F2
  8
0
 10
149.4978932188132887
 20
51.4812108336657204
 30
0.0
 11
149.0928932188134013
 21
51.7576010341967887
 31
0.0
  0
LINE
  5
22F3
  8
0
 10
149.4978932188134024
 20
50.4978229623931725
 30
0.0
 11
149.4978932188132887
 21
51.4812108336657204
 31
0.0
  0
LINE
  5
22F4
  8
0
 10
149.0928932188134013
 20
50.3423344282494796
 30
0.0
 11
149.4978932188134024
 21
50.4978229623931725
 31
0.0
  0
LINE
  5
22F5
  8
0
 10
149.4978932188132887
 20
49.5021770376068204
 30
0.0
 11
149.0928932188134013
 21
49.657665571750492
 31
0.0
  0
LINE
  5
22F6
  8
0
 10
149.4978932188134024
 20
48.5187891663342725
 30
0.0
 11
149.4978932188132887
 21
49.5021770376068204
 31
0.0
  0
LINE
  5
22F7
  8
0
 10
149.0928932188134013
 20
48.24239896580319
 30
0.0
 11
149.4978932188134024
 21
48.5187891663342725
 31
0.0
  0
LINE
  5
22F8
  8
0
 10
149.4978932188136866
 20
47.5718736216434976
 30
0.0
 11
149.0928932188134013
 21
47.5912401883254574
 31
0.0
  0
LINE
  5
22F9
  8
0
 10
149.4978932188134024
 20
46.6847466068772974
 30
0.0
 11
149.4978932188136866
 21
47.5718736216434976
 31
0.0
  0
LINE
  5
22FA
  8
0
 10
149.0928932188134013
 20
46.3145097385105515
 30
0.0
 11
149.4978932188134024
 21
46.6847466068772974
 31
0.0
  0
LINE
  5
22FB
  8
0
 10
149.4978932188136014
 20
45.8792521333449699
 30
0.0
 11
149.0928932188134013
 21
45.7606009980836106
 31
0.0
  0
LINE
  5
22FC
  8
0
 10
149.4978932188134024
 20
45.1752241482677874
 30
0.0
 11
149.4978932188136014
 21
45.8792521333449699
 31
0.0
  0
LINE
  5
22FD
  8
0
 10
149.0928932188134013
 20
44.747381976333088
 30
0.0
 11
149.4978932188134024
 21
45.1752241482677874
 31
0.0
  0
LINE
  5
22FE
  8
0
 10
149.4978932188134877
 20
44.5899981571732695
 30
0.0
 11
149.0928932188134013
 21
44.3449437197790175
 31
0.0
  0
LINE
  5
22FF
  8
0
 10
149.4978932188134024
 20
44.1379843662158677
 30
0.0
 11
149.4978932188134877
 21
44.5899981571732695
 31
0.0
  0
LINE
  5
2300
  8
0
 10
149.0928932188134013
 20
43.6944170634538622
 30
0.0
 11
149.4978932188134024
 21
44.1379843662158677
 31
0.0
  0
LINE
  5
2301
  8
0
 10
149.4978932188138003
 20
43.8303128550767269
 30
0.0
 11
149.0928932188134013
 21
43.482842751276408
 31
0.0
  0
LINE
  5
2302
  8
0
 10
149.4978932188134024
 20
43.6745595174632868
 30
0.0
 11
149.4978932188138003
 21
43.8303128550767269
 31
0.0
  0
LINE
  5
2304
  8
0
 10
149.8000000000000114
 20
56.0428932188134468
 30
0.0
 11
149.0928932188134013
 21
56.7499999999999929
 31
0.0
  0
LINE
  5
2305
  8
0
 10
149.0928932188134013
 20
43.2499999999999929
 30
0.0
 11
149.8000000000000114
 21
43.9571067811865319
 31
0.0
  0
LINE
  5
2306
  8
0
 10
149.8000000000000114
 20
56.0428932188134468
 30
0.0
 11
149.8000000000000114
 21
43.9571067811865319
 31
0.0
  0
LINE
  5
2309
  8
0
 10
139.5900000000000034
 20
43.2586865419834368
 30
0.0
 11
139.5900000000000034
 21
43.482842751276408
 31
0.0
  0
LINE
  5
230A
  8
0
 10
149.0928932188134013
 20
43.482842751276408
 30
0.0
 11
139.5900000000000034
 21
43.482842751276408
 31
0.0
  0
LINE
  5
230B
  8
0
 10
149.0928932188134013
 20
43.6944170634538622
 30
0.0
 11
149.0928932188134013
 21
43.482842751276408
 31
0.0
  0
LINE
  5
230C
  8
0
 10
149.0928932188134013
 20
43.6944170634538622
 30
0.0
 11
139.5900000000000034
 21
43.6944170634538622
 31
0.0
  0
LINE
  5
230D
  8
0
 10
139.5900000000000034
 20
43.6944170634538622
 30
0.0
 11
139.5900000000000034
 21
44.3449437197790175
 31
0.0
  0
LINE
  5
230E
  8
0
 10
149.0928932188134013
 20
44.3449437197790175
 30
0.0
 11
139.5900000000000034
 21
44.3449437197790175
 31
0.0
  0
LINE
  5
230F
  8
0
 10
149.0928932188134013
 20
44.747381976333088
 30
0.0
 11
149.0928932188134013
 21
44.3449437197790175
 31
0.0
  0
LINE
  5
2310
  8
0
 10
149.0928932188134013
 20
44.747381976333088
 30
0.0
 11
139.5900000000000034
 21
44.747381976333088
 31
0.0
  0
LINE
  5
2311
  8
0
 10
139.5900000000000034
 20
44.747381976333088
 30
0.0
 11
139.5900000000000034
 21
45.7606009980836106
 31
0.0
  0
LINE
  5
2312
  8
0
 10
149.0928932188134013
 20
45.7606009980836106
 30
0.0
 11
139.5900000000000034
 21
45.7606009980836106
 31
0.0
  0
LINE
  5
2313
  8
0
 10
149.0928932188134013
 20
46.3145097385105515
 30
0.0
 11
149.0928932188134013
 21
45.7606009980836106
 31
0.0
  0
LINE
  5
2314
  8
0
 10
149.0928932188134013
 20
46.3145097385105515
 30
0.0
 11
139.5900000000000034
 21
46.3145097385105515
 31
0.0
  0
LINE
  5
2315
  8
0
 10
139.5900000000000034
 20
46.3145097385105515
 30
0.0
 11
139.5900000000000034
 21
47.5912401883254574
 31
0.0
  0
LINE
  5
2316
  8
0
 10
149.0928932188134013
 20
47.5912401883254574
 30
0.0
 11
139.5900000000000034
 21
47.5912401883254574
 31
0.0
  0
LINE
  5
2317
  8
0
 10
149.0928932188134013
 20
48.24239896580319
 30
0.0
 11
149.0928932188134013
 21
47.5912401883254574
 31
0.0
  0
LINE
  5
2318
  8
0
 10
149.0928932188134013
 20
48.24239896580319
 30
0.0
 11
139.5900000000000034
 21
48.24239896580319
 31
0.0
  0
LINE
  5
2319
  8
0
 10
139.5900000000000034
 20
48.24239896580319
 30
0.0
 11
139.5900000000000034
 21
49.657665571750492
 31
0.0
  0
LINE
  5
231A
  8
0
 10
149.0928932188134013
 20
49.657665571750492
 30
0.0
 11
139.5900000000000034
 21
49.657665571750492
 31
0.0
  0
LINE
  5
231B
  8
0
 10
149.0928932188134013
 20
50.3423344282494796
 30
0.0
 11
149.0928932188134013
 21
49.657665571750492
 31
0.0
  0
LINE
  5
231C
  8
0
 10
149.0928932188134013
 20
50.3423344282494796
 30
0.0
 11
139.5900000000000034
 21
50.3423344282494796
 31
0.0
  0
LINE
  5
231D
  8
0
 10
139.5900000000000034
 20
50.3423344282494796
 30
0.0
 11
139.5900000000000034
 21
51.7576010341967887
 31
0.0
  0
LINE
  5
231E
  8
0
 10
149.0928932188134013
 20
51.7576010341967887
 30
0.0
 11
139.5900000000000034
 21
51.7576010341967887
 31
0.0
  0
LINE
  5
231F
  8
0
 10
149.0928932188134013
 20
52.408759811674507
 30
0.0
 11
149.0928932188134013
 21
51.7576010341967887
 31
0.0
  0
LINE
  5
2320
  8
0
 10
149.0928932188134013
 20
52.408759811674507
 30
0.0
 11
139.5900000000000034
 21
52.408759811674507
 31
0.0
  0
LINE
  5
2321
  8
0
 10
139.5900000000000034
 20
52.408759811674507
 30
0.0
 11
139.5900000000000034
 21
53.68549026148942
 31
0.0
  0
LINE
  5
2322
  8
0
 10
149.0928932188134013
 20
53.68549026148942
 30
0.0
 11
139.5900000000000034
 21
53.68549026148942
 31
0.0
  0
LINE
  5
2323
  8
0
 10
149.0928932188134013
 20
54.239399001916361
 30
0.0
 11
149.0928932188134013
 21
53.68549026148942
 31
0.0
  0
LINE
  5
2324
  8
0
 10
149.0928932188134013
 20
54.239399001916361
 30
0.0
 11
139.5900000000000034
 21
54.2393990019163681
 31
0.0
  0
LINE
  5
2325
  8
0
 10
139.5900000000000034
 20
54.2393990019163681
 30
0.0
 11
139.5900000000000034
 21
55.2526180236668907
 31
0.0
  0
LINE
  5
2326
  8
0
 10
149.0928932188134013
 20
55.2526180236668907
 30
0.0
 11
139.5900000000000034
 21
55.2526180236668907
 31
0.0
  0
LINE
  5
2327
  8
0
 10
149.0928932188134013
 20
55.6550562802209612
 30
0.0
 11
149.0928932188134013
 21
55.2526180236668907
 31
0.0
  0
LINE
  5
2328
  8
0
 10
149.0928932188134013
 20
55.6550562802209612
 30
0.0
 11
139.5900000000000034
 21
55.6550562802209612
 31
0.0
  0
LINE
  5
2329
  8
0
 10
139.5900000000000034
 20
55.6550562802209612
 30
0.0
 11
139.5900000000000034
 21
56.3055829365461165
 31
0.0
  0
LINE
  5
232A
  8
0
 10
149.0928932188134013
 20
56.3055829365461165
 30
0.0
 11
139.5900000000000034
 21
56.3055829365461165
 31
0.0
  0
LINE
  5
232B
  8
0
 10
149.0928932188134013
 20
56.5171572487235707
 30
0.0
 11
149.0928932188134013
 21
56.3055829365461165
 31
0.0
  0
LINE
  5
232C
  8
0
 10
149.0928932188134013
 20
56.5171572487235707
 30
0.0
 11
139.5900000000000034
 21
56.5171572487235707
 31
0.0
  0
LINE
  5
232D
  8
0
 10
139.5900000000000034
 20
56.5171572487235707
 30
0.0
 11
139.5900000000000034
 21
56.7413134580165419
 31
0.0
  0
LINE
  5
232F
  8
0
 10
138.0
 20
43.2499999999999929
 30
0.0
 11
149.0928932188134013
 21
43.2499999999999929
 31
0.0
  0
LINE
  5
2330
  8
0
 10
149.0928932188134013
 20
56.7499999999999929
 30
0.0
 11
138.0
 21
56.7499999999999929
 31
0.0
  0
LINE
  5
2336
  8
0
 10
109.5
 20
113.0
 30
0.0
 11
108.7999999999999972
 21
113.0
 31
0.0
  0
ARC
  5
2340
  8
0
 10
275.6499999999971919
 20
102.2099999999997948
 30
0.0
 40
168.6499999999971919
 50
176.5608366094693054
 51
195.3076795300412982
  0
LINE
  5
2356
  8
0
 10
117.75
 20
40.0
 30
0.0
 11
138.0
 21
40.0
 31
0.0
  0
LINE
  5
2357
  8
0
 10
138.0
 20
60.0
 30
0.0
 11
130.0932341425487948
 21
59.9999999999999929
 31
0.0
  0
LINE
  5
2358
  8
0
 10
117.75
 20
40.0
 30
0.0
 11
117.75
 21
50.0
 31
0.0
  0
LINE
  5
2359
  8
0
 10
138.0
 20
40.0
 30
0.0
 11
138.0
 21
60.0
 31
0.0
  0
LINE
  5
235A
  8
3
 10
190.0
 20
46.7669999999999888
 30
0.0
 11
185.0
 21
46.7670000000000172
 31
0.0
  0
LINE
  5
235B
  8
3
 10
190.0
 20
53.2329999999999899
 30
0.0
 11
185.0
 21
53.2330000000000325
 31
0.0
  0
ARC
  5
2420
  8
0
 10
50.0
 20
106.2470454550835939
 30
0.0
 40
6.7500006466174254
 50
0.0250789545598937
 51
179.9749210454401123
  0
ARC
  5
2422
  8
0
 10
33.3100000000001728
 20
60.9108890563509391
 30
0.0
 40
9.9399999999998183
 50
326.8258250810899881
 51
359.9999999999994884
  0
ARC
  5
2424
  8
0
 10
66.6899999999999267
 20
60.9108890563509817
 30
0.0
 40
9.9399999999999196
 50
180.0000000000007105
 51
213.1741749189098982
  0
ARC
  5
2425
  8
0
 10
50.0000000000010303
 20
9.3543945180928265
 30
0.0
 40
48.3294663348532794
 50
81.0593585793777862
 51
98.9406414206248854
  0
ARC
  5
242A
  8
0
 10
50.0
 20
50.0
 30
0.0
 40
10.0
 50
146.825825081089306
 51
33.1741749189107367
  0
ARC
  5
242C
  8
0
 10
112.8690699612312045
 20
108.4442518371313042
 30
0.0
 40
2.6309435700475632
 50
332.0526238191546895
 51
0.1837602066118959
  0
ARC
  5
242E
  8
0
 10
118.4063400491131972
 20
104.6662510056421951
 30
0.0
 40
4.098935657567301
 50
141.6189585226329086
 51
171.590532263329294
1001
GENIUS_GENOBJ-N-FIL_13
1002
{
1000
OWNER
1000
GEN
1002
}
1001
GENIUS_GENODEF_13
1002
{
1000
HIER
1070
     0
1002
}
1002
{
1000
MANEDIT
1070
     0
1002
}
1002
{
1000
NOSEL
1070
     0
1002
}
1002
{
1000
BEHIND
1070
     0
1002
}
1002
{
1000
OTHER
1070
     0
1002
}
1002
{
1000
REACTOR
1002
}
  0
ARC
  5
242F
  8
0
 10
224.637783664113897
 20
118.4164894203995999
 30
0.0
 40
112.4222754033030043
 50
189.1438073580571881
 51
207.9462113544630029
1001
GENIUS_GENODEF_13
1002
{
1000
HIER
1070
     0
1002
}
1002
{
1000
MANEDIT
1070
     0
1002
}
1002
{
1000
NOSEL
1070
     0
1002
}
1002
{
1000
BEHIND
1070
     0
1002
}
1002
{
1000
OTHER
1070
     0
1002
}
1002
{
1000
REACTOR
1002
}
1001
GENIUS_GENOBJ-N-FIL_13
1002
{
1000
OWNER
1000
GEN
1002
}
  0
ARC
  5
2430
  8
0
 10
135.0469954930364906
 20
99.7502102986867385
 30
0.0
 40
21.4178720754609309
 50
165.0771376910215054
 51
177.8569274701737868
  0
ARC
  5
2432
  8
0
 10
142.2259093989092094
 20
74.9432700395840357
 30
0.0
 40
19.2484578175039687
 50
208.5950898395875868
 51
234.3394701231100896
  0
ARC
  5
2440
  8
0
 10
141.9999999999998863
 20
149.9999999999998863
 30
0.0
 40
34.9999999999999076
 50
168.8804290465465954
 51
191.119570953453092
  0
ARC
  5
2441
  8
0
 10
112.7972471774623955
 20
157.5738166303522121
 30
0.0
 40
0.8239601151807946
 50
271.0692858741156783
 51
293.5384919730601041
  0
ARC
  5
2442
  8
0
 10
111.905911648532097
 20
159.2320304904496879
 30
0.0
 40
2.7046070729940279
 50
296.8225454461955906
 51
320.479359697602888
  0
ARC
  5
2443
  8
0
 10
112.7475132151239023
 20
162.3860022643644925
 30
0.0
 40
5.031459773327251
 50
284.3229670080802975
 51
307.0455856942547825
  0
ARC
  5
2444
  8
0
 10
76.5009025817570034
 20
207.8807931245376039
 30
0.0
 40
63.198532064778
 50
308.4256710109376058
 51
310.7447245486321776
  0
ARC
  5
2445
  8
0
 10
111.905911648532097
 20
140.7657148267373941
 30
0.0
 40
2.7046070729940279
 50
39.5206403023978581
 51
63.1774545538042815
  0
ARC
  5
2446
  8
0
 10
112.7475132151239023
 20
137.6117430528225896
 30
0.0
 40
5.031459773327251
 50
52.9544143057460914
 51
75.6770329919194751
  0
ARC
  5
2447
  8
0
 10
76.5009025817570034
 20
92.1169521926495065
 30
0.0
 40
63.198532064778
 50
49.2584073515854683
 51
51.5743289890614633
  0
ARC
  5
2448
  8
0
 10
112.8031291349647063
 20
142.4763554446697924
 30
0.0
 40
0.7737028116499725
 50
65.3102698692140535
 51
89.2968875457070084
  0
ARC
  5
2475
  8
0
 10
115.2073342575297943
 20
143.6350731827268987
 30
0.0
 40
0.2931772395747601
 50
293.0469722696786903
 51
356.6150110428080779
  0
ARC
  5
2476
  8
0
 10
114.5897460636801952
 20
145.6254478530090068
 30
0.0
 40
2.3758453780469342
 50
271.0481340823791925
 51
287.9540153909168794
  0
ARC
  5
2477
  8
0
 10
115.2073342575297943
 20
156.3626721344602117
 30
0.0
 40
0.2931772395747601
 50
3.3849889571919221
 51
66.9530277303211392
  0
ARC
  5
2478
  8
0
 10
114.5650383331140034
 20
154.2711536266274948
 30
0.0
 40
2.479692057069669
 50
72.2232861248589728
 51
88.5035745780225653
  0
ARC
  5
2479
  8
0
 10
129.8261825299616135
 20
158.4544499529702932
 30
0.0
 40
1.181244061421896
 50
298.527153888364694
 51
355.9056515179995017
  0
ARC
  5
247A
  8
0
 10
127.8321867178884048
 20
161.981499420031497
 30
0.0
 40
5.2327955461926221
 50
268.7247264566191802
 51
299.2659845624697255
  0
ARC
  5
247B
  8
0
 10
129.8261825299616135
 20
141.5455500470295931
 30
0.0
 40
1.181244061421896
 50
4.0943484819991536
 51
61.4728461116355192
  0
ARC
  5
247C
  8
0
 10
127.8321867178884048
 20
138.0185005799683893
 30
0.0
 40
5.2327955461926221
 50
60.734015437529699
 51
91.2752735433807203
  0
LINE
  5
2481
  8
0
 10
185.0
 20
146.0000000000005116
 30
0.0
 11
189.2330000000000041
 21
146.0
 31
0.0
  0
LINE
  5
2493
  8
0
 10
185.0
 20
45.9999999999999929
 30
0.0
 11
189.2330000000000041
 21
45.9999999999999929
 31
0.0
  0
ARC
  5
24DD
  8
0
 10
109.1699999999999022
 20
49.9999999999999787
 30
0.0
 40
8.5800000000000587
 50
0.0
 51
63.6120191115667311
  0
LINE
  5
263C
  8
0
 10
182.1999999999999886
 20
56.4999999999999787
 30
0.0
 11
181.6194434163992923
 21
57.5055534994651083
 31
0.0
  0
LINE
  5
263D
  8
0
 10
177.0
 20
56.4999999999999787
 30
0.0
 11
177.0
 21
43.4999999999999787
 31
0.0
  0
LINE
  5
263E
  8
0
 10
177.0
 20
43.4999999999999787
 30
0.0
 11
177.4688972974851993
 21
42.4944465005348277
 31
0.0
  0
LINE
  5
263F
  8
0
 10
177.4688972974851993
 20
57.5055534994651083
 30
0.0
 11
177.0
 21
56.4999999999999787
 31
0.0
  0
LINE
  5
2640
  8
0
 10
181.6194434163992923
 20
42.4944465005348277
 30
0.0
 11
182.1999999999999886
 21
43.4999999999999787
 31
0.0
  0
LINE
  5
2641
  8
0
 10
181.6194434163992923
 20
57.5055534994651083
 30
0.0
 11
177.4688972974851993
 21
57.5055534994651083
 31
0.0
  0
LINE
  5
2642
  8
0
 10
181.6194434163992923
 20
42.4944465005348277
 30
0.0
 11
177.4688972974851993
 21
42.4944465005348277
 31
0.0
  0
LINE
  5
2643
  8
0
 10
181.6194434163992923
 20
46.247223250267389
 30
0.0
 11
177.4688972974851993
 21
46.247223250267389
 31
0.0
  0
LINE
  5
2644
  8
0
 10
181.6194434163992923
 20
53.7527767497325399
 30
0.0
 11
177.4688972974851993
 21
53.7527767497325399
 31
0.0
  0
LINE
  5
2645
  8
0
 10
185.0
 20
55.7497422611928215
 30
0.0
 11
185.0
 21
44.2502577388071217
 31
0.0
  0
LINE
  5
2646
  8
0
 10
182.1999999999999886
 20
56.4999999999999787
 30
0.0
 11
182.1999999999999886
 21
43.4999999999999787
 31
0.0
  0
LINE
  5
2647
  8
0
 10
185.0
 20
55.7497422611928215
 30
0.0
 11
182.1999999999999886
 21
56.4999999999999787
 31
0.0
  0
LINE
  5
2648
  8
0
 10
182.1999999999999886
 20
43.4999999999999787
 30
0.0
 11
185.0
 21
44.2502577388071217
 31
0.0
  0
ARC
  5
2649
  8
0
 10
178.8774304270482105
 20
44.3708348754011084
 30
0.0
 40
3.3225695729515041
 50
334.3842474680282066
 51
34.3842474680246966
  0
ARC
  5
264A
  8
0
 10
169.7802494380358098
 20
49.9999999999999574
 30
0.0
 40
12.4197362045516098
 50
342.4124743850339883
 51
17.5875256149659798
  0
ARC
  5
264B
  8
0
 10
178.8774304270482105
 20
55.6291651245988206
 30
0.0
 40
3.3225695729515041
 50
325.6157525319753177
 51
25.615752531973591
  0
ARC
  5
264C
  8
0
 10
192.2519518513277887
 20
49.9999999999999929
 30
0.0
 40
15.2519518513277692
 50
165.7559742886654988
 51
194.2440257113343876
  0
ARC
  5
264D
  8
0
 10
180.9888244493888863
 20
55.6291651245988206
 30
0.0
 40
3.9888244493888321
 50
158.0610027786867988
 51
208.0610027786852925
  0
ARC
  5
264E
  8
0
 10
180.9888244493888863
 20
44.3708348754011084
 30
0.0
 40
3.9888244493888321
 50
151.9389972213143096
 51
201.9389972213132012
  0
LINE
  5
264F
  8
0
 10
177.0
 20
143.5
 30
0.0
 11
182.1999999999999886
 21
143.5
 31
0.0
  0
LINE
  5
2650
  8
0
 10
177.0
 20
156.5
 30
0.0
 11
177.0
 21
143.5
 31
0.0
  0
LINE
  5
2651
  8
0
 10
182.1999999999999886
 20
156.5
 30
0.0
 11
177.0
 21
156.5
 31
0.0
  0
LINE
  5
2652
  8
0
 10
185.0
 20
155.7497422611928073
 30
0.0
 11
185.0
 21
144.2502577388071074
 31
0.0
  0
LINE
  5
2653
  8
0
 10
182.1999999999999886
 20
156.5
 30
0.0
 11
182.1999999999999886
 21
143.5
 31
0.0
  0
LINE
  5
2654
  8
0
 10
185.0
 20
155.7497422611928073
 30
0.0
 11
182.1999999999999886
 21
156.5
 31
0.0
  0
LINE
  5
2655
  8
0
 10
182.1999999999999886
 20
143.5
 30
0.0
 11
185.0
 21
144.2502577388071074
 31
0.0
  0
LINE
  5
2656
  8
0
 10
181.6194434163992071
 20
150.0
 30
0.0
 11
177.4688972974851993
 21
150.0
 31
0.0
  0
ARC
  5
2657
  8
0
 10
172.7987572590822936
 20
153.25
 30
0.0
 40
9.4003725610149864
 50
339.7735762333488765
 51
20.2264237666511413
  0
ARC
  5
2658
  8
0
 10
188.5436771574335069
 20
153.25
 30
0.0
 40
11.5418044059981604
 50
163.6451695351200044
 51
196.3548304648799103
  0
ARC
  5
2659
  8
0
 10
172.7987572590822936
 20
146.75
 30
0.0
 40
9.4003725610149864
 50
339.7735762333488765
 51
20.2264237666511413
  0
ARC
  5
265A
  8
0
 10
188.5436771574335069
 20
146.75
 30
0.0
 40
11.5418044059981604
 50
163.6451695351200044
 51
196.3548304648799103
  0
LINE
  5
27A7
  8
0
 10
156.2020725954452018
 20
156.500000002159311
 30
0.0
 11
156.0
 21
156.1500000000405919
 31
0.0
  0
LINE
  5
27A8
  8
0
 10
156.0
 20
143.8499999999594081
 30
0.0
 11
156.2020725954452018
 21
143.499999997840689
 31
0.0
  0
LINE
  5
27A9
  8
0
 10
156.0
 20
156.1500000000000057
 30
0.0
 11
150.0
 21
156.1500000000000057
 31
0.0
  0
LINE
  5
27AA
  8
0
 10
150.0
 20
143.8499999999999943
 30
0.0
 11
156.0
 21
143.8499999999999943
 31
0.0
  0
ARC
  5
27AB
  8
0
 10
165.7615710953296002
 20
146.75
 30
0.0
 40
9.5490260214376281
 50
160.1018708439395937
 51
199.8981291560689897
  0
LINE
  5
27AC
  8
0
 10
156.7826291778156076
 20
149.9999999999994884
 30
0.0
 11
162.0
 21
149.9999999999990905
 31
0.0
  0
LINE
  5
27AD
  8
0
 10
161.9999999999998863
 20
156.5
 30
0.0
 11
162.0
 21
143.4999999999992895
 31
0.0
  0
ARC
  5
27AE
  8
0
 10
165.7615710953297139
 20
153.25
 30
0.0
 40
9.5490260214377312
 50
160.1018708439308966
 51
199.8981291560675118
  0
LINE
  5
27AF
  8
0
 10
156.0
 20
143.8499999999594081
 30
0.0
 11
156.0
 21
156.1500000000000057
 31
0.0
  0
LINE
  5
27B0
  8
0
 10
162.0
 20
143.5
 30
0.0
 11
156.2020725941985972
 21
143.5
 31
0.0
  0
LINE
  5
27B1
  8
0
 10
150.0
 20
143.8499999999999943
 30
0.0
 11
150.0
 21
156.1500000000000057
 31
0.0
  0
LINE
  5
27B2
  8
0
 10
162.0
 20
156.5
 30
0.0
 11
156.2020725941985972
 21
156.5
 31
0.0
  0
LINE
  5
27B5
  8
3
 10
177.0
 20
153.2330000000000041
 30
0.0
 11
162.0
 21
153.2330000000000041
 31
0.0
  0
LINE
  5
27B6
  8
0
 10
177.0
 20
154.0
 30
0.0
 11
161.9992337105792899
 21
154.0
 31
0.0
  0
LINE
  5
27B7
  8
3
 10
177.0
 20
146.7669999999999959
 30
0.0
 11
162.0
 21
146.7669999999999959
 31
0.0
  0
LINE
  5
286B
  8
0
 10
156.7826291778156076
 20
57.5055534994654067
 30
0.0
 11
156.0
 21
56.1500000000405919
 31
0.0
  0
LINE
  5
286C
  8
0
 10
156.0
 20
43.8499999999593797
 30
0.0
 11
156.7826291778173129
 21
42.4944465005317511
 31
0.0
  0
LINE
  5
286D
  8
0
 10
156.0
 20
56.1499999999999915
 30
0.0
 11
150.0
 21
56.1499999999999915
 31
0.0
  0
LINE
  5
286E
  8
0
 10
150.0
 20
43.8499999999999801
 30
0.0
 11
156.0
 21
43.8499999999999801
 31
0.0
  0
LINE
  5
286F
  8
0
 10
162.0
 20
42.494446500528511
 30
0.0
 11
156.7826291778173129
 21
42.4944465005317511
 31
0.0
  0
ARC
  5
2870
  8
0
 10
159.6174440565260966
 20
44.3708348754010871
 30
0.0
 40
3.3995600788767382
 50
146.4990817261052882
 51
206.4990817274905055
  0
LINE
  5
2871
  8
0
 10
162.0
 20
46.2472232587875212
 30
0.0
 11
156.7826291785355011
 21
46.2472232515133399
 31
0.0
  0
LINE
  5
2872
  8
0
 10
162.0
 20
46.2472232843479887
 30
0.0
 11
162.0
 21
42.4944465005277365
 31
0.0
  0
LINE
  5
2873
  8
0
 10
162.0
 20
53.7527767497321918
 30
0.0
 11
162.0
 21
46.2472232715677691
 31
0.0
  0
ARC
  5
2874
  8
0
 10
168.8299045487065086
 20
49.9999999999999218
 30
0.0
 40
12.6182477862582196
 50
162.6979696971687872
 51
197.3020303028384035
  0
LINE
  5
2875
  8
0
 10
162.0
 20
53.7527767497325897
 30
0.0
 11
156.7826291778156929
 21
53.7527767497322486
 31
0.0
  0
ARC
  5
2876
  8
0
 10
159.6174440565264092
 20
55.6291651245988419
 30
0.0
 40
3.3995600788770268
 50
153.5009182725162873
 51
213.5009182739063931
  0
LINE
  5
2877
  8
0
 10
156.7826291778156076
 20
57.5055534994654067
 30
0.0
 11
162.0
 21
57.505553499465627
 31
0.0
  0
LINE
  5
2878
  8
0
 10
162.0
 20
57.5055534994629269
 30
0.0
 11
162.0
 21
53.7527767497321918
 31
0.0
  0
LINE
  5
2879
  8
0
 10
156.0
 20
43.8499999999593797
 30
0.0
 11
156.0
 21
56.1500000000405919
 31
0.0
  0
LINE
  5
287A
  8
0
 10
150.0
 20
43.8499999999999801
 30
0.0
 11
150.0
 21
56.1499999999999915
 31
0.0
  0
LINE
  5
287D
  8
0
 10
177.0
 20
53.9999999999999787
 30
0.0
 11
162.0
 21
53.9999999999999929
 31
0.0
  0
LINE
  5
287E
  8
3
 10
177.0
 20
53.2329999999999899
 30
0.0
 11
162.0
 21
53.2329999999999899
 31
0.0
  0
LINE
  5
2880
  8
3
 10
177.0
 20
46.7669999999999888
 30
0.0
 11
162.0
 21
46.7669999999999817
 31
0.0
  0
ENDSEC
  0
EOF
