  0
SECTION
  2
HEADER
  9
$ACADVER
  1
AC1009
  9
$INSBASE
 10
0.0
 20
0.0
 30
0.0
  9
$EXTMIN
 10
0.0
 20
-2.960436562073669
 30
0.0
  9
$EXTMAX
 10
212.5
 20
305.0
 30
0.0
  9
$LIMMIN
 10
0.0
 20
0.0
  9
$LIMMAX
 10
375.0
 20
270.0
  9
$ORTHOMODE
 70
     1
  9
$REGENMODE
 70
     1
  9
$FILLMODE
 70
     1
  9
$QTEXTMODE
 70
     0
  9
$MIRRTEXT
 70
     0
  9
$DRAGMODE
 70
     2
  9
$LTSCALE
 40
10.0
  9
$OSMODE
 70
    37
  9
$ATTMODE
 70
     1
  9
$TEXTSIZE
 40
0.2
  9
$TRACEWID
 40
0.05
  9
$TEXTSTYLE
  7
STANDARD
  9
$CLAYER
  8
0
  9
$CELTYPE
  6
BYLAYER
  9
$CECOLOR
 62
   256
  9
$DIMSCALE
 40
1.0
  9
$DIMASZ
 40
3.0
  9
$DIMEXO
 40
2.0
  9
$DIMDLI
 40
0.38
  9
$DIMRND
 40
0.0
  9
$DIMDLE
 40
0.0
  9
$DIMEXE
 40
2.0
  9
$DIMTP
 40
0.0
  9
$DIMTM
 40
0.0
  9
$DIMTXT
 40
3.2000000000000002
  9
$DIMCEN
 40
0.0
  9
$DIMTSZ
 40
0.0
  9
$DIMTOL
 70
     0
  9
$DIMLIM
 70
     0
  9
$DIMTIH
 70
     0
  9
$DIMTOH
 70
     0
  9
$DIMSE1
 70
     0
  9
$DIMSE2
 70
     0
  9
$DIMTAD
 70
     1
  9
$DIMZIN
 70
     0
  9
$DIMBLK
  1

  9
$DIMASO
 70
     0
  9
$DIMSHO
 70
     0
  9
$DIMPOST
  1

  9
$DIMAPOST
  1

  9
$DIMALT
 70
     0
  9
$DIMALTD
 70
     2
  9
$DIMALTF
 40
25.3999999999999986
  9
$DIMLFAC
 40
1.0
  9
$DIMTOFL
 70
     1
  9
$DIMTVP
 40
1.6000000000000001
  9
$DIMTIX
 70
     1
  9
$DIMSOXD
 70
     0
  9
$DIMSAH
 70
     0
  9
$DIMBLK1
  1

  9
$DIMBLK2
  1

  9
$DIMSTYLE
  2
STANDARD
  9
$DIMCLRD
 70
     0
  9
$DIMCLRE
 70
     0
  9
$DIMCLRT
 70
     0
  9
$DIMTFAC
 40
1.0
  9
$DIMGAP
 40
0.09
  9
$LUNITS
 70
     2
  9
$LUPREC
 70
     1
  9
$SKETCHINC
 40
0.1
  9
$FILLETRAD
 40
3.0
  9
$AUNITS
 70
     0
  9
$AUPREC
 70
     1
  9
$MENU
  1
E:\r13\win\SUPPORT\ACAD
  9
$ELEVATION
 40
0.0
  9
$PELEVATION
 40
0.0
  9
$THICKNESS
 40
0.0
  9
$LIMCHECK
 70
     0
  9
$BLIPMODE
 70
     0
  9
$CHAMFERA
 40
0.0
  9
$CHAMFERB
 40
0.0
  9
$SKPOLY
 70
     0
  9
$TDCREATE
 40
2449840.6474999999627471
  9
$TDUPDATE
 40
2460203.4984375000931323
  9
$TDINDWG
 40
1.5746378472
  9
$TDUSRTIMER
 40
1.5746378472
  9
$USRTIMER
 70
     1
  9
$ANGBASE
 50
0.0
  9
$ANGDIR
 70
     0
  9
$PDMODE
 70
     0
  9
$PDSIZE
 40
0.0
  9
$PLINEWID
 40
0.0
  9
$COORDS
 70
     1
  9
$SPLFRAME
 70
     0
  9
$SPLINETYPE
 70
     6
  9
$SPLINESEGS
 70
     8
  9
$ATTDIA
 70
     1
  9
$ATTREQ
 70
     1
  9
$HANDLING
 70
     1
  9
$HANDSEED
  5
3D3B
  9
$SURFTAB1
 70
     6
  9
$SURFTAB2
 70
     6
  9
$SURFTYPE
 70
     6
  9
$SURFU
 70
     6
  9
$SURFV
 70
     6
  9
$UCSNAME
  2

  9
$UCSORG
 10
0.0
 20
0.0
 30
0.0
  9
$UCSXDIR
 10
1.0
 20
0.0
 30
0.0
  9
$UCSYDIR
 10
0.0
 20
1.0
 30
0.0
  9
$PUCSNAME
  2

  9
$PUCSORG
 10
0.0
 20
0.0
 30
0.0
  9
$PUCSXDIR
 10
1.0
 20
0.0
 30
0.0
  9
$PUCSYDIR
 10
0.0
 20
1.0
 30
0.0
  9
$USERI1
 70
     0
  9
$USERI2
 70
     1
  9
$USERI3
 70
     0
  9
$USERI4
 70
     0
  9
$USERI5
 70
     0
  9
$USERR1
 40
0.0
  9
$USERR2
 40
0.0
  9
$USERR3
 40
0.0
  9
$USERR4
 40
0.0
  9
$USERR5
 40
0.0
  9
$WORLDVIEW
 70
     1
  9
$SHADEDGE
 70
     3
  9
$SHADEDIF
 70
    70
  9
$TILEMODE
 70
     1
  9
$MAXACTVP
 70
    16
  9
$PLIMCHECK
 70
     0
  9
$PEXTMIN
 10
1.0000000000000000E+20
 20
1.0000000000000000E+20
 30
1.0000000000000000E+20
  9
$PEXTMAX
 10
-1.0000000000000000E+20
 20
-1.0000000000000000E+20
 30
-1.0000000000000000E+20
  9
$PLIMMIN
 10
0.0
 20
0.0
  9
$PLIMMAX
 10
12.0
 20
9.0
  9
$UNITMODE
 70
     0
  9
$VISRETAIN
 70
     0
  9
$PLINEGEN
 70
     0
  9
$PSLTSCALE
 70
     0
  0
ENDSEC
  0
SECTION
  2
TABLES
  0
TABLE
  2
VPORT
 70
     1
  0
VPORT
  2
*ACTIVE
 70
     0
 10
0.0
 20
0.0
 11
1.0
 21
1.0
 12
487.6747141041930149
 22
200.7470637502840134
 13
0.0
 23
0.0
 14
10.0
 24
10.0
 15
10.0
 25
10.0
 16
0.0
 26
0.0
 36
1.0
 17
0.0
 27
0.0
 37
0.0
 40
401.4941275005679131
 41
2.4292993630573241
 42
50.0
 43
0.0
 44
0.0
 50
0.0
 51
0.0
 71
     0
 72
   500
 73
     1
 74
     0
 75
     0
 76
     0
 77
     0
 78
     2
  0
ENDTAB
  0
TABLE
  2
LTYPE
 70
    11
  0
LTYPE
  2
CONTINUOUS
 70
     0
  3
Solid Line
 72
    65
 73
     0
 40
0.0
  0
LTYPE
  2
CENTER
 70
     0
  3
____ _ ____ _ ____ _ ____ _ ____ _ ____ _ ____
 72
    65
 73
     4
 40
2.0
 49
1.25
 49
-0.25
 49
0.25
 49
-0.25
  0
LTYPE
  2
HIDDEN
 70
     0
  3
_ _ _ _ _ _ _ _ _ _ _ _ _ _ _ _ _ _ _ _ _ _ _
 72
    65
 73
     2
 40
0.375
 49
0.25
 49
-0.125
  0
LTYPE
  2
PHANTOM2
 70
     0
  3
Phantom (.5x) ___ _ _ ___ _ _ ___ _ _ ___ _ _
 72
    65
 73
     6
 40
1.25
 49
0.625
 49
-0.125
 49
0.125
 49
-0.125
 49
0.125
 49
-0.125
  0
LTYPE
  2
CENTER2
 70
     0
  3
Center (.5x) ___ _ ___ _ ___ _ ___ _ ___ _ ___
 72
    65
 73
     4
 40
1.125
 49
0.75
 49
-0.125
 49
0.125
 49
-0.125
  0
LTYPE
  2
HIDDEN2
 70
     0
  3
Hidden (.5x) _ _ _ _ _ _ _ _ _ _ _ _ _ _ _ _ _
 72
    65
 73
     2
 40
0.1875
 49
0.125
 49
-0.0625
  0
LTYPE
  2
ACANSTGB
 70
     0
  3
__ . . __ . .
 72
    65
 73
     6
 40
0.35433070866
 49
0.15748031496
 49
-0.03937007874
 49
0.03937007874
 49
-0.03937007874
 49
0.03937007874
 49
-0.03937007874
  0
LTYPE
  2
ACANSTGL
 70
     0
  3
_ _ _ _ _
 72
    65
 73
     2
 40
0.11811023622
 49
0.07874015748
 49
-0.03937007874
  0
LTYPE
  2
ACISOWELD
 70
     0
  3
_ _ _ _ _
 72
    65
 73
     2
 40
2.0
 49
2.0
 49
-1.0
  0
LTYPE
  2
ACISOTGL
 70
     0
  3
_ _ _ _ _
 72
    65
 73
     2
 40
3.0
 49
2.0
 49
-1.0
  0
LTYPE
  2
ACISOTGB
 70
     0
  3
__ . . __ . .
 72
    65
 73
     6
 40
9.0
 49
4.0
 49
-1.0
 49
1.0
 49
-1.0
 49
1.0
 49
-1.0
  0
ENDTAB
  0
TABLE
  2
LAYER
 70
     5
  0
LAYER
  2
0
 70
     0
 62
     7
  6
CONTINUOUS
  0
LAYER
  2
1
 70
     0
 62
     1
  6
CENTER
  0
LAYER
  2
DEFPOINTS
 70
     0
 62
     7
  6
CONTINUOUS
  0
LAYER
  2
3
 70
     0
 62
     3
  6
CONTINUOUS
  0
LAYER
  2
2
 70
     0
 62
     2
  6
HIDDEN
  0
ENDTAB
  0
TABLE
  2
STYLE
 70
     4
  0
STYLE
  2
STANDARD
 70
     0
 40
0.0
 41
1.0
 50
0.0
 71
     0
 42
0.2
  3
TXT
  4
BIGFONT
  0
STYLE
  2
STANDARD1
 70
     0
 40
0.0
 41
1.0
 50
0.0
 71
     0
 42
3.0
  3
txt
  4

  0
STYLE
  2
ACANSGDT
 70
     0
 40
0.0
 41
1.0
 50
0.0
 71
     0
 42
0.2
  3
amgdt.shx
  4

  0
STYLE
  2
ACISOGDT
 70
     0
 40
0.0
 41
1.0
 50
0.0
 71
     0
 42
2.5
  3
amgdt.shx
  4

  0
ENDTAB
  0
TABLE
  2
VIEW
 70
     1
  0
VIEW
  2
ALL
 70
     0
 40
270.0
 10
220.9915966386554942
 20
135.0
 41
0.0
 11
0.0
 21
0.0
 31
1.0
 12
0.0
 22
0.0
 32
0.0
 42
0.0
 43
0.0
 44
0.0
 50
0.0
 71
     0
  0
ENDTAB
  0
TABLE
  2
UCS
 70
     0
  0
ENDTAB
  0
TABLE
  2
APPID
 70
    22
  0
APPID
  2
ACAD
 70
     0
  0
APPID
  2
ACAD_EXEMPT_FROM_CAD_STANDARDS
 70
     0
  0
APPID
  2
ACAD_MLEADERVER
 70
     0
  0
APPID
  2
MCAD_NO_VIS
 70
     0
  0
APPID
  2
ACAD_TEMP_GRAPHIC
 70
     0
  0
APPID
  2
ACATTRIBSERVICES
 70
     0
  0
APPID
  2
DESIGNERASSEMBLIES
 70
     0
  0
APPID
  2
ACAD_DSTYLE_DIMJAG
 70
     0
  0
APPID
  2
ACAD_DSTYLE_DIMBREAK
 70
     0
  0
APPID
  2
ACAD_NAV_VCDISPLAY
 70
     0
  0
APPID
  2
ACAECLAYERSTANDARD
 70
     0
  0
APPID
  2
GENIUS_GENODEF_13
 70
     0
  0
APPID
  2
GENIUS_GENOBJ-N-CEN_13
 70
     0
  0
APPID
  2
GENIUS_GENCEN_19
 70
     0
  0
APPID
  2
GENIUS_GENDTOL_13
 70
     0
  0
APPID
  2
ACAD_DSTYLE_DIMINSPECT
 70
     0
  0
APPID
  2
ACADANNOMONITORALERTICONDI
 70
     0
  0
APPID
  2
ACAD_DSTYLE_DIMRADIAL_EXTENSION
 70
     0
  0
APPID
  2
GENIUS_GENREC_14
 70
     0
  0
APPID
  2
GENIUS_GENOBJ-N-REC_13
 70
     0
  0
APPID
  2
GENIUS_GENOBJ-N-FIL_13
 70
     0
  0
APPID
  2
ACAD_DSTYLE_DIMTALN
 70
     0
  0
ENDTAB
  0
TABLE
  2
DIMSTYLE
 70
    14
  0
DIMSTYLE
  2
STANDARD
 70
     0
  3

  4

  5

  6

  7

 40
1.0
 41
0.18
 42
0.0625
 43
0.38
 44
0.18
 45
0.0
 46
0.0
 47
0.0
 48
0.0
140
0.18
141
0.09
142
0.0
143
25.3999999999999986
144
1.0
145
0.0
146
1.0
147
0.09
 71
     0
 72
     0
 73
     1
 74
     1
 75
     0
 76
     0
 77
     0
 78
     0
170
     0
171
     2
172
     0
173
     0
174
     0
175
     0
176
     0
177
     0
178
     0
  0
DIMSTYLE
  2
AM_ANSI
 70
     0
  3

  4
mm
  5

  6

  7

 40
1.0
 41
0.12
 42
0.05
 43
0.5
 44
0.1
 45
0.0
 46
0.0
 47
0.1
 48
0.1
140
0.12
141
0.0
142
0.0
143
25.3999999999999986
144
1.0
145
0.0
146
0.71
147
0.06
 71
     0
 72
     0
 73
     1
 74
     1
 75
     0
 76
     0
 77
     0
 78
     7
170
     0
171
     2
172
     0
173
     0
174
     0
175
     0
176
   256
177
   256
178
     2
  0
DIMSTYLE
  2
AM_ANSI$3
 70
     0
  3

  4
mm
  5

  6

  7

 40
1.0
 41
0.12
 42
0.05
 43
0.5
 44
0.1
 45
0.0
 46
0.0
 47
0.1
 48
0.1
140
0.12
141
0.0
142
0.0
143
25.3999999999999986
144
1.0
145
0.0
146
0.71
147
0.06
 71
     0
 72
     0
 73
     1
 74
     1
 75
     0
 76
     0
 77
     0
 78
     7
170
     0
171
     2
172
     0
173
     0
174
     0
175
     0
176
   256
177
   256
178
     2
  0
DIMSTYLE
  2
AM_ANSI$4
 70
     0
  3

  4
mm
  5

  6

  7

 40
1.0
 41
0.12
 42
0.05
 43
0.5
 44
0.1
 45
0.0
 46
0.0
 47
0.1
 48
0.1
140
0.12
141
0.0
142
0.0
143
25.3999999999999986
144
1.0
145
0.0
146
0.71
147
0.06
 71
     0
 72
     0
 73
     1
 74
     1
 75
     0
 76
     0
 77
     0
 78
     7
170
     0
171
     2
172
     0
173
     0
174
     0
175
     0
176
   256
177
   256
178
     2
  0
DIMSTYLE
  2
AM_ANSI$7
 70
     0
  3

  4
mm
  5

  6

  7

 40
1.0
 41
0.12
 42
0.05
 43
0.5
 44
0.1
 45
0.0
 46
0.0
 47
0.1
 48
0.1
140
0.12
141
0.0
142
0.0
143
25.3999999999999986
144
1.0
145
0.0
146
0.71
147
0.06
 71
     0
 72
     0
 73
     1
 74
     1
 75
     0
 76
     0
 77
     0
 78
     7
170
     0
171
     2
172
     0
173
     0
174
     0
175
     0
176
   256
177
   256
178
     2
  0
DIMSTYLE
  2
AM_ANSI$SF
 70
     0
  3

  4
mm
  5

  6

  7

 40
1.0
 41
0.12
 42
0.05
 43
0.5
 44
0.1
 45
0.0
 46
0.0
 47
0.1
 48
0.1
140
0.12
141
0.0
142
0.0
143
25.3999999999999986
144
1.0
145
0.0
146
0.71
147
0.06
 71
     0
 72
     0
 73
     1
 74
     1
 75
     1
 76
     1
 77
     0
 78
     7
170
     0
171
     2
172
     0
173
     0
174
     0
175
     0
176
   256
177
   256
178
     2
  0
DIMSTYLE
  2
AM_ANSI$SH
 70
     0
  3

  4
mm
  5

  6
GENAXEH
  7

 40
1.0
 41
0.12
 42
0.05
 43
0.5
 44
0.1
 45
0.0
 46
0.0
 47
0.1
 48
0.1
140
0.12
141
0.0
142
0.0
143
25.3999999999999986
144
1.0
145
0.0
146
0.71
147
0.06
 71
     0
 72
     0
 73
     1
 74
     1
 75
     1
 76
     1
 77
     0
 78
     7
170
     0
171
     2
172
     0
173
     1
174
     0
175
     0
176
   256
177
   256
178
     2
  0
DIMSTYLE
  2
AM_ISO
 70
     0
  3

  4
"
  5

  6

  7

 40
1.0
 41
3.5
 42
1.0
 43
10.0
 44
1.0
 45
0.0
 46
0.0
 47
0.1
 48
0.1
140
3.5
141
0.0
142
0.0
143
0.0393701
144
1.0
145
0.0
146
0.71
147
1.5
 71
     0
 72
     0
 73
     0
 74
     0
 75
     0
 76
     0
 77
     1
 78
     8
170
     0
171
     2
172
     1
173
     0
174
     0
175
     0
176
   256
177
   256
178
     2
  0
DIMSTYLE
  2
AM_ISO$3
 70
     0
  3

  4
"
  5

  6

  7

 40
1.0
 41
3.5
 42
1.0
 43
10.0
 44
1.0
 45
0.0
 46
0.0
 47
0.1
 48
0.1
140
3.5
141
0.0
142
0.0
143
0.0393701
144
1.0
145
0.0
146
0.71
147
1.5
 71
     0
 72
     0
 73
     0
 74
     1
 75
     0
 76
     0
 77
     1
 78
     8
170
     0
171
     2
172
     0
173
     0
174
     0
175
     0
176
   256
177
   256
178
     2
  0
DIMSTYLE
  2
AM_ISO$4
 70
     0
  3

  4
"
  5

  6

  7

 40
1.0
 41
3.5
 42
1.0
 43
10.0
 44
1.0
 45
0.0
 46
0.0
 47
0.1
 48
0.1
140
3.5
141
0.0
142
0.0
143
0.0393701
144
1.0
145
0.0
146
0.71
147
1.5
 71
     0
 72
     0
 73
     0
 74
     1
 75
     0
 76
     0
 77
     1
 78
     8
170
     0
171
     2
172
     0
173
     0
174
     0
175
     0
176
   256
177
   256
178
     2
  0
DIMSTYLE
  2
AM_ISO$6
 70
     0
  3

  4
"
  5

  6

  7

 40
1.0
 41
3.5
 42
1.0
 43
10.0
 44
1.0
 45
0.0
 46
0.0
 47
0.1
 48
0.1
140
3.5
141
0.0
142
0.0
143
0.0393701
144
1.0
145
0.0
146
0.71
147
1.5
 71
     0
 72
     0
 73
     0
 74
     0
 75
     0
 76
     0
 77
     0
 78
     8
170
     0
171
     2
172
     1
173
     0
174
     0
175
     0
176
   256
177
   256
178
     2
  0
DIMSTYLE
  2
AM_ISO$7
 70
     0
  3

  4
"
  5

  6

  7

 40
1.0
 41
3.5
 42
1.0
 43
10.0
 44
1.0
 45
0.0
 46
0.0
 47
0.1
 48
0.1
140
3.5
141
0.0
142
0.0
143
0.0393701
144
1.0
145
0.0
146
0.71
147
1.5
 71
     0
 72
     0
 73
     0
 74
     0
 75
     0
 76
     0
 77
     1
 78
     8
170
     0
171
     2
172
     1
173
     0
174
     0
175
     0
176
   256
177
   256
178
     2
  0
DIMSTYLE
  2
AM_ISO$SF
 70
     0
  3

  4
"
  5

  6

  7

 40
1.0
 41
3.5
 42
1.0
 43
10.0
 44
1.0
 45
0.0
 46
0.0
 47
0.1
 48
0.1
140
3.5
141
0.0
142
0.0
143
0.0393701
144
1.0
145
0.0
146
0.71
147
1.5
 71
     0
 72
     0
 73
     0
 74
     0
 75
     1
 76
     1
 77
     1
 78
     8
170
     0
171
     2
172
     1
173
     0
174
     0
175
     0
176
   256
177
   256
178
     2
  0
DIMSTYLE
  2
AM_ISO$SH
 70
     0
  3

  4
"
  5

  6
GENAXEH
  7

 40
1.0
 41
3.5
 42
1.0
 43
10.0
 44
1.0
 45
0.0
 46
0.0
 47
0.1
 48
0.1
140
3.5
141
0.0
142
0.0
143
0.0393701
144
2.0
145
0.0
146
0.71
147
1.5
 71
     0
 72
     0
 73
     0
 74
     0
 75
     1
 76
     1
 77
     1
 78
     8
170
     0
171
     2
172
     1
173
     1
174
     0
175
     0
176
   256
177
   256
178
     2
  0
ENDTAB
  0
ENDSEC
  0
SECTION
  2
BLOCKS
  0
BLOCK
  8
0
  2
$MODEL_SPACE
 70
     0
 10
0.0
 20
0.0
 30
0.0
  3
$MODEL_SPACE
  1

  0
ENDBLK
  5
AA
  8
0
  0
BLOCK
 67
     1
  8
0
  2
$PAPER_SPACE
 70
     0
 10
0.0
 20
0.0
 30
0.0
  3
$PAPER_SPACE
  1

  0
ENDBLK
  5
A8
 67
     1
  8
0
  0
BLOCK
  8
0
  2
*U0
 70
     1
 10
0.0
 20
0.0
 30
0.0
  3
*U0
  1

  0
ENDBLK
  5
20F
  8
0
  0
BLOCK
  8
0
  2
GENAXEH
 70
     0
 10
0.0
 20
0.0
 30
0.0
  3
GENAXEH
  1

  0
LINE
  5
239
  8
0
 10
-1.0
 20
0.0
 30
0.0
 11
1.0
 21
0.0
 31
0.0
  0
ENDBLK
  5
23B
  8
0
  0
ENDSEC
  0
SECTION
  2
ENTITIES
  0
TEXT
  5
1CC
  8
0
 62
     3
 10
0.0
 20
0.0
 30
0.0
 40
10.0
  1
TCC30-PB-S-G
  7
STANDARD1
  0
ARC
  5
38BD
  8
0
 10
44.1499999999996433
 20
192.25
 30
0.0
 40
0.6499999999998352
 50
89.9999999999869686
 51
180.0000000000129887
  0
ARC
  5
38BE
  8
0
 10
55.8499999999999091
 20
192.25
 30
0.0
 40
0.6499999999998352
 50
359.9999999999869829
 51
90.0000000000162856
  0
LINE
  5
38BF
  8
0
 10
43.4999999999997797
 20
192.2499999999998863
 30
0.0
 11
43.4999999999997797
 21
184.899999999999892
 31
0.0
  0
LINE
  5
38C0
  8
0
 10
56.4999999999997797
 20
184.899999999999892
 30
0.0
 11
56.4999999999997797
 21
192.2499999999998863
 31
0.0
  0
LINE
  5
38C1
  8
0
 10
45.9999999999997797
 20
184.899999999999892
 30
0.0
 11
45.9999999999997797
 21
174.9999999999998863
 31
0.0
  0
LINE
  5
38C2
  8
0
 10
53.9999999999997797
 20
174.9999999999998863
 30
0.0
 11
53.9999999999997797
 21
184.899999999999892
 31
0.0
  0
LINE
  5
38C3
  8
0
 10
44.149999999999757
 20
192.899999999999892
 30
0.0
 11
55.8499999789079311
 21
192.899999999999892
 31
0.0
  0
LINE
  5
38C4
  8
0
 10
43.4999999999997797
 20
184.899999999999892
 30
0.0
 11
56.4999999999997797
 21
184.899999999999892
 31
0.0
  0
LINE
  5
38C6
  8
0
 10
38.9999999999996589
 20
158.2967069115098866
 30
0.0
 11
38.9999999999996589
 21
174.999999999999801
 31
0.0
  0
LINE
  5
38C8
  8
0
 10
60.9999999999996589
 20
175.0
 30
0.0
 11
60.9999999999996589
 21
158.2967069115098866
 31
0.0
  0
LINE
  5
38CB
  8
0
 10
69.9999999999996589
 20
175.0
 30
0.0
 11
29.9999999999996589
 21
174.9999999999998863
 31
0.0
  0
LINE
  5
38D2
  8
0
 10
17.4999999999996696
 20
212.5
 30
0.0
 11
82.4999999999996732
 21
212.5
 31
0.0
  0
CIRCLE
  5
38D4
  8
0
 10
19.9999999999996696
 20
204.9999999999998863
 30
0.0
 40
3.2499999999999849
  0
CIRCLE
  5
38D5
  8
0
 10
79.9999999999996732
 20
204.9999999999998863
 30
0.0
 40
3.2499999999999849
  0
CIRCLE
  5
38D6
  8
0
 10
79.9999999999996589
 20
144.9999999999998863
 30
0.0
 40
3.25
  0
CIRCLE
  5
38D7
  8
0
 10
19.9999999999996589
 20
144.9999999999998863
 30
0.0
 40
3.25
  0
ARC
  5
38E0
  8
0
 10
17.4999999999987601
 20
207.5000000000009095
 30
0.0
 40
4.9999999999990896
 50
89.9999999999902229
 51
180.0000000000098055
  0
LINE
  5
38E1
  8
0
 10
12.4999999999996607
 20
142.4999999999998863
 30
0.0
 11
12.4999999999996696
 21
207.4999999999998863
 31
0.0
  0
ARC
  5
38E3
  8
0
 10
82.5000000000005826
 20
207.5000000000009095
 30
0.0
 40
4.9999999999990896
 50
359.9999999999902229
 51
90.0000000000097771
  0
LINE
  5
38E5
  8
0
 10
87.4999999999996732
 20
207.4999999999998863
 30
0.0
 11
87.4999999999996589
 21
142.4999999999998863
 31
0.0
  0
ARC
  5
38E7
  8
0
 10
17.4999999999987494
 20
142.4999999999990052
 30
0.0
 40
4.9999999999990896
 50
179.9999999999901945
 51
270.0000000000032969
  0
LINE
  5
38E9
  8
0
 10
82.5000000000001137
 20
137.4999999999998863
 30
0.0
 11
17.4999999999992006
 21
137.4999999999998863
 31
0.0
  0
ARC
  5
38EB
  8
0
 10
82.5000000000005542
 20
142.4999999999990052
 30
0.0
 40
4.9999999999990896
 50
269.9999999999935199
 51
0.0000000000097707
  0
CIRCLE
  5
38F5
  8
0
 10
49.9999999999997868
 20
267.0000000000002842
 30
0.0
 40
6.5
  0
LINE
  5
38FD
  8
0
 10
87.4999999999996874
 20
300.0
 30
0.0
 11
87.4999999999996874
 21
294.5000000000002842
 31
0.0
  0
ARC
  5
3902
  8
0
 10
85.4999999999996732
 20
294.5000000000002842
 30
0.0
 40
2.0
 50
270.0
 51
0.0000000000097707
1001
GENIUS_GENODEF_13
1002
{
1000
HIER
1070
     0
1002
}
1002
{
1000
MANEDIT
1070
     0
1002
}
1002
{
1000
NOSEL
1070
     0
1002
}
1002
{
1000
BEHIND
1070
     0
1002
}
1002
{
1000
OTHER
1070
     0
1002
}
1002
{
1000
REACTOR
1002
}
1001
GENIUS_GENOBJ-N-FIL_13
1002
{
1000
OWNER
1000
GEN
1002
}
  0
LINE
  5
3909
  8
0
 10
12.4999999999996891
 20
300.0
 30
0.0
 11
12.4999999999996891
 21
294.5
 31
0.0
  0
LINE
  5
390A
  8
0
 10
87.4999999999996874
 20
300.0
 30
0.0
 11
12.4999999999996891
 21
300.0
 31
0.0
  0
LINE
  5
390B
  8
0
 10
85.4999999999996305
 20
292.5
 30
0.0
 11
14.4999999999996891
 21
292.5
 31
0.0
  0
ARC
  5
390C
  8
0
 10
14.4999999999996891
 20
294.5
 30
0.0
 40
2.0000000000000071
 50
180.0000000000129887
 51
270.0
  0
LINE
  5
390D
  8
0
 10
69.9999999999996732
 20
292.5000000000005116
 30
0.0
 11
69.9999999999996732
 21
267.0000000000003979
 31
0.0
  0
LINE
  5
390E
  8
0
 10
29.9999999999996909
 20
292.5000000000002274
 30
0.0
 11
29.9999999999996803
 21
267.0000000000003979
 31
0.0
  0
LINE
  5
390F
  8
0
 10
38.9999999999996803
 20
250.2967069115103129
 30
0.0
 11
38.9999999999996803
 21
248.7967069115103129
 31
0.0
  0
ARC
  5
3910
  8
0
 10
49.9999999999996803
 20
267.0000000000003979
 30
0.0
 40
20.0000000000000284
 50
180.0
 51
236.6329870307671968
  0
ARC
  5
3911
  8
0
 10
49.9999999999996803
 20
267.0000000000003979
 30
0.0
 40
20.0
 50
303.3670129692326896
 51
0.0
  0
LINE
  5
3912
  8
0
 10
60.9999999999996732
 20
248.7967069115103129
 30
0.0
 11
60.9999999999996732
 21
250.2967069115103129
 31
0.0
  0
ARC
  5
3913
  8
0
 10
49.9999999999996803
 20
265.5000000000003979
 30
0.0
 40
20.0
 50
236.6329870307671968
 51
303.3670129692326896
  0
ARC
  5
3914
  8
0
 10
49.9999999999996803
 20
267.0000000000003979
 30
0.0
 40
8.9999999999998774
 50
274.7801918472011948
 51
325.2198081528050011
  0
LINE
  5
3915
  8
0
 10
50.7500000000001279
 20
258.031304442674525
 30
0.0
 11
50.7500000000001279
 21
251.0175877915748117
 31
0.0
  0
ARC
  5
3916
  8
0
 10
49.9999999999996803
 20
267.0000000000003979
 30
0.0
 40
16.0000000000009095
 50
272.6867241856916166
 51
327.3132758143113961
  0
LINE
  5
3917
  8
0
 10
63.4661749862511968
 20
258.3592748429500148
 30
0.0
 11
57.392118191453072
 21
261.8661331684998004
 31
0.0
  0
ARC
  5
3918
  8
0
 10
49.9999999999996803
 20
267.0000000000003979
 30
0.0
 40
8.9999999999998526
 50
334.7801918472017064
 51
25.2198081528056406
  0
LINE
  5
3919
  8
0
 10
58.142118191452731
 20
263.1651712741760889
 30
0.0
 11
64.2161749862509765
 21
259.658312948626417
 31
0.0
  0
ARC
  5
391A
  8
0
 10
49.9999999999996803
 20
267.0000000000003979
 30
0.0
 40
16.0000000000009202
 50
332.6867241856925261
 51
27.3132758143114991
  0
LINE
  5
391B
  8
0
 10
64.2161749862504223
 20
274.3416870513755725
 30
0.0
 11
58.1421181914521625
 21
270.8348287258257869
 31
0.0
  0
ARC
  5
391C
  8
0
 10
49.9999999999996803
 20
267.0000000000003979
 30
0.0
 40
8.9999999999998845
 50
154.7801918472015927
 51
205.219808152805598
  0
LINE
  5
391D
  8
0
 10
41.8578818085466295
 20
270.8348287258245932
 30
0.0
 11
35.7838250137484906
 21
274.3416870513743788
 31
0.0
  0
ARC
  5
391E
  8
0
 10
49.9999999999996803
 20
267.0000000000003979
 30
0.0
 40
16.0000000000009095
 50
152.6867241856924977
 51
207.3132758143115097
  0
LINE
  5
391F
  8
0
 10
35.7838250137490519
 20
259.6583129486251096
 30
0.0
 11
41.857881808547198
 21
263.1651712741748952
 31
0.0
  0
ARC
  5
3920
  8
0
 10
49.9999999999996803
 20
267.0000000000003979
 30
0.0
 40
8.9999999999998792
 50
214.7801918472030991
 51
265.2198081528051716
  0
LINE
  5
3921
  8
0
 10
42.6078818085470701
 20
261.8661331684987204
 30
0.0
 11
36.5338250137489382
 21
258.3592748429488211
 31
0.0
  0
ARC
  5
3922
  8
0
 10
49.9999999999996803
 20
267.0000000000003979
 30
0.0
 40
16.0000000000009415
 50
212.6867241856926114
 51
267.3132758143116803
  0
LINE
  5
3923
  8
0
 10
49.2500000000005826
 20
251.0175877915748117
 30
0.0
 11
49.2500000000005826
 21
258.0313044426742977
 31
0.0
  0
ARC
  5
3924
  8
0
 10
49.9999999999996803
 20
267.0000000000003979
 30
0.0
 40
8.9999999999998952
 50
94.7801918472012233
 51
145.2198081528086107
  0
LINE
  5
3925
  8
0
 10
49.2499999999992184
 20
275.9686955573263276
 30
0.0
 11
49.2499999999992184
 21
282.9824122084258988
 31
0.0
  0
ARC
  5
3926
  8
0
 10
49.9999999999996803
 20
267.0000000000003979
 30
0.0
 40
16.0000000000009202
 50
92.6867241856948567
 51
147.3132758143113961
  0
LINE
  5
3927
  8
0
 10
36.5338250137481495
 20
275.6407251570507242
 30
0.0
 11
42.6078818085462814
 21
272.1338668315008817
 31
0.0
  0
ARC
  5
3928
  8
0
 10
49.9999999999996803
 20
267.0000000000003979
 30
0.0
 40
8.9999999999998774
 50
34.7801918472031275
 51
85.219808152808497
  0
LINE
  5
3929
  8
0
 10
57.3921181914523899
 20
272.1338668315020186
 30
0.0
 11
63.4661749862505289
 21
275.6407251570518042
 31
0.0
  0
ARC
  5
392A
  8
0
 10
49.9999999999996803
 20
267.0000000000003979
 30
0.0
 40
16.0000000000008988
 50
32.6867241856926185
 51
87.3132758143116661
  0
LINE
  5
392B
  8
0
 10
50.7499999999987708
 20
282.9824122084258988
 30
0.0
 11
50.7499999999987708
 21
275.9686955573263845
 31
0.0
  0
ARC
  5
392D
  8
0
 10
192.250000000000199
 20
77.1499999999995225
 30
0.0
 40
0.6499999999998636
 50
269.9999999999902229
 51
0.0000000000130346
  0
ARC
  5
392E
  8
0
 10
192.250000000000199
 20
88.8499999999998522
 30
0.0
 40
0.6499999999998636
 50
0.000000000000007
 51
90.0000000000162856
1001
GENIUS_GENOBJ-N-FIL_13
1002
{
1000
OWNER
1000
GEN
1002
}
1001
GENIUS_GENODEF_13
1002
{
1000
HIER
1070
     0
1002
}
1002
{
1000
MANEDIT
1070
     0
1002
}
1002
{
1000
NOSEL
1070
     0
1002
}
1002
{
1000
BEHIND
1070
     0
1002
}
1002
{
1000
OTHER
1070
     0
1002
}
1002
{
1000
REACTOR
1002
}
  0
LINE
  5
392F
  8
0
 10
192.2500000000001137
 20
76.4999999999996589
 30
0.0
 11
184.9000000000000909
 21
76.4999999999996589
 31
0.0
  0
LINE
  5
3930
  8
0
 10
184.9000000000000909
 20
89.4999999999996021
 30
0.0
 11
192.25
 21
89.4999999999997158
 31
0.0
  0
LINE
  5
3931
  8
0
 10
184.9000000000000909
 20
78.9999999999996589
 30
0.0
 11
175.0
 21
78.9999999999995453
 31
0.0
  0
LINE
  5
3932
  8
0
 10
174.9999999999998863
 20
86.9999999999995453
 30
0.0
 11
184.9000000000000909
 21
86.9999999999996021
 31
0.0
  0
LINE
  5
3933
  8
0
 10
155.0
 20
57.4999999999995381
 30
0.0
 11
155.0
 21
84.4999999999996021
 31
0.0
  0
ARC
  5
3934
  8
0
 10
175.0
 20
84.4999999999996021
 30
0.0
 40
20.0000000000000391
 50
90.0
 51
180.0
  0
LINE
  5
3936
  8
0
 10
192.9000000000000909
 20
77.149999999999693
 30
0.0
 11
192.9000000000000909
 21
88.8499999999998522
 31
0.0
  0
LINE
  5
3937
  8
0
 10
184.9000000000000909
 20
76.4999999999996021
 30
0.0
 11
184.9000000000000909
 21
89.4999999999996447
 31
0.0
  0
LINE
  5
3938
  8
0
 10
212.5
 20
50.0000000000003411
 30
0.0
 11
137.5
 21
49.9999999999994884
 31
0.0
  0
LINE
  5
393B
  8
0
 10
137.5
 20
49.9999999999994884
 30
0.0
 11
137.5
 21
55.4999999999994884
 31
0.0
  0
LINE
  5
393C
  8
0
 10
212.5
 20
50.0000000000003411
 30
0.0
 11
212.5
 21
55.5
 31
0.0
  0
LINE
  5
3944
  8
0
 10
210.5
 20
57.5000000000007887
 30
0.0
 11
139.5
 21
57.4999999999994884
 31
0.0
  0
ARC
  5
3945
  8
0
 10
139.5
 20
55.4999999999994884
 30
0.0
 40
2.0
 50
90.0
 51
180.0000000000065086
  0
ARC
  5
3948
  8
0
 10
210.5
 20
55.5
 30
0.0
 40
2.0000000000000071
 50
0.0000000000097777
 51
90.0
1001
GENIUS_GENODEF_13
1002
{
1000
HIER
1070
     0
1002
}
1002
{
1000
MANEDIT
1070
     0
1002
}
1002
{
1000
NOSEL
1070
     0
1002
}
1002
{
1000
BEHIND
1070
     0
1002
}
1002
{
1000
OTHER
1070
     0
1002
}
1002
{
1000
REACTOR
1002
}
1001
GENIUS_GENOBJ-N-FIL_13
1002
{
1000
OWNER
1000
GEN
1002
}
  0
LINE
  5
3949
  8
0
 10
175.0
 20
57.4999999999997726
 30
0.0
 11
175.0
 21
104.4999999999996021
 31
0.0
  0
ARC
  5
394E
  8
0
 10
175.0
 20
84.4999999999996021
 30
0.0
 40
16.7032930884900708
 50
90.0
 51
180.0
  0
CIRCLE
  5
3982
  8
0
 10
49.9999999999997584
 20
83.0000000000005258
 30
0.0
 40
3.2330000000000041
  0
CIRCLE
  5
398A
  8
3
 10
49.9999999999998792
 20
83.0000000000007248
 30
0.0
 40
4.0
  0
LINE
  5
3997
  8
0
 10
12.4999999999996394
 20
50.000000000000739
 30
0.0
 11
87.4999999999996447
 21
49.9999999999990408
 31
0.0
  0
LINE
  5
3998
  8
0
 10
12.4999999999996394
 20
50.000000000000739
 30
0.0
 11
12.4999999999996394
 21
55.500000000000739
 31
0.0
  0
ARC
  5
399B
  8
0
 10
14.4999999999996394
 20
55.500000000000739
 30
0.0
 40
2.0
 50
90.0
 51
180.0000000000163141
  0
LINE
  5
399C
  8
0
 10
14.4999999999996394
 20
57.500000000000739
 30
0.0
 11
85.4999999999997158
 21
57.4999999999980105
 31
0.0
  0
LINE
  5
39A4
  8
0
 10
87.4999999999996447
 20
49.9999999999990408
 30
0.0
 11
87.4999999999996589
 21
55.5000000000003908
 31
0.0
  0
ARC
  5
39A7
  8
0
 10
85.4999999999996589
 20
55.5000000000003908
 30
0.0
 40
2.0
 50
359.9999999999869829
 51
89.9999999999967457
1001
GENIUS_GENODEF_13
1002
{
1000
HIER
1070
     0
1002
}
1002
{
1000
MANEDIT
1070
     0
1002
}
1002
{
1000
NOSEL
1070
     0
1002
}
1002
{
1000
BEHIND
1070
     0
1002
}
1002
{
1000
OTHER
1070
     0
1002
}
1002
{
1000
REACTOR
1002
}
1001
GENIUS_GENOBJ-N-FIL_13
1002
{
1000
OWNER
1000
GEN
1002
}
  0
LINE
  5
39A8
  8
0
 10
60.9999999999996518
 20
84.5000000000007248
 30
0.0
 11
60.9999999999996518
 21
83.0000000000007248
 31
0.0
  0
LINE
  5
39A9
  8
0
 10
69.9999999999996589
 20
57.500000000000739
 30
0.0
 11
69.9999999999996589
 21
83.0000000000007248
 31
0.0
  0
LINE
  5
39AA
  8
0
 10
29.9999999999996412
 20
57.5000000000009592
 30
0.0
 11
29.9999999999996589
 21
83.0000000000007248
 31
0.0
  0
LINE
  5
39AB
  8
0
 10
38.9999999999996518
 20
83.0000000000007248
 30
0.0
 11
38.9999999999996518
 21
84.5000000000007248
 31
0.0
  0
LINE
  5
39B3
  8
0
 10
38.9999999999996518
 20
84.5000000000007248
 30
0.0
 11
38.9999999999996589
 21
101.2032930884907955
 31
0.0
  0
ARC
  5
39B4
  8
0
 10
49.9999999999996518
 20
84.5000000000007248
 30
0.0
 40
19.9999999999999893
 50
56.6329870307672394
 51
123.3670129692328032
  0
LINE
  5
39B5
  8
0
 10
60.9999999999996518
 20
101.2032930884907955
 30
0.0
 11
60.9999999999996518
 21
84.5000000000007248
 31
0.0
  0
ARC
  5
39B7
  8
0
 10
49.9999999999996518
 20
83.0000000000007248
 30
0.0
 40
20.0000000000000284
 50
123.3670129692328032
 51
180.0
  0
ARC
  5
39B8
  8
0
 10
49.9999999999996518
 20
83.0000000000007248
 30
0.0
 40
20.0
 50
0.0
 51
56.6329870307672394
  0
LINE
  5
39B9
  8
1
 10
49.9999999999996518
 20
44.9999999999998295
 30
0.0
 11
49.9999999999996589
 21
109.5000000000006963
 31
0.0
  0
ARC
  5
39BA
  8
0
 10
49.9999999999996732
 20
175.0
 30
0.0
 40
20.0
 50
180.0
 51
0.0
  0
LINE
  5
39D1
  8
1
 10
86.2499999999996589
 20
145.0
 30
0.0
 11
73.7499999999996589
 21
145.0
 31
0.0
  0
LINE
  5
39D2
  8
1
 10
79.9999999999998295
 20
138.7499999999998863
 30
0.0
 11
79.9999999999997726
 21
151.2499999999998863
 31
0.0
  0
LINE
  5
39D3
  8
1
 10
26.2499999999996589
 20
145.0
 30
0.0
 11
13.7499999999996607
 21
145.0
 31
0.0
  0
LINE
  5
39D4
  8
1
 10
19.9999999999998792
 20
138.7499999999998863
 30
0.0
 11
19.9999999999997691
 21
151.2499999999998863
 31
0.0
  0
LINE
  5
39D5
  8
1
 10
26.2499999999996803
 20
205.0000000000001137
 30
0.0
 11
13.7499999999996696
 21
205.0000000000001137
 31
0.0
  0
LINE
  5
39D6
  8
1
 10
19.9999999999999005
 20
198.7499999999998863
 30
0.0
 11
19.9999999999997797
 21
211.2499999999998863
 31
0.0
  0
LINE
  5
39D7
  8
1
 10
86.2499999999996732
 20
205.0000000000001137
 30
0.0
 11
73.7499999999996732
 21
205.0000000000001137
 31
0.0
  0
LINE
  5
39D8
  8
1
 10
79.9999999999998437
 20
198.7499999999998863
 30
0.0
 11
79.9999999999997868
 21
211.2499999999998863
 31
0.0
  0
CIRCLE
  5
39DC
  8
0
 10
49.9999999999998792
 20
83.0000000000007248
 30
0.0
 40
6.5
  0
LINE
  5
39DE
  8
1
 10
59.4999999999998792
 20
83.0000000000007248
 30
0.0
 11
40.4999999999998792
 21
83.0000000000007248
 31
0.0
  0
LINE
  5
39E1
  8
1
 10
49.9999999999996803
 20
240.5000000000003979
 30
0.0
 11
49.9999999999996803
 21
305.0
 31
0.0
  0
LINE
  5
39E3
  8
1
 10
40.4999999999997868
 20
267.0000000000002842
 30
0.0
 11
59.4999999999997868
 21
267.0000000000002842
 31
0.0
  0
LINE
  5
3C0F
  8
1
 10
19.9999999999999396
 20
60.5000000000003126
 30
0.0
 11
19.9999999999999396
 21
47.0000000000002274
 31
0.0
  0
LINE
  5
3C10
  8
1
 10
79.9999999999994884
 20
60.5000000000003126
 30
0.0
 11
79.9999999999994884
 21
47.0000000000002274
 31
0.0
  0
LINE
  5
3C11
  8
1
 10
144.9999999999998863
 20
60.5000000000002203
 30
0.0
 11
144.9999999999998863
 21
47.0000000000001421
 31
0.0
  0
LINE
  5
3C12
  8
1
 10
204.9999999999994884
 20
60.5000000000002203
 30
0.0
 11
204.9999999999994884
 21
47.0000000000001421
 31
0.0
  0
LINE
  5
3C13
  8
1
 10
152.0
 20
82.9999999999996163
 30
0.0
 11
195.9000000000000909
 21
82.9999999999996305
 31
0.0
  0
LINE
  5
3C14
  8
1
 10
49.9999999999998295
 20
195.899999999999892
 30
0.0
 11
49.9999999999998295
 21
151.9999999999998863
 31
0.0
  0
LINE
  5
3C15
  8
1
 10
19.9999999999999112
 20
289.4999999999998863
 30
0.0
 11
19.9999999999999112
 21
302.9999999999998863
 31
0.0
  0
LINE
  5
3C16
  8
1
 10
79.99999999999946
 20
289.4999999999998863
 30
0.0
 11
79.99999999999946
 21
302.9999999999998863
 31
0.0
  0
LINE
  5
3C71
  8
3
 10
180.9000000000000909
 20
86.2330000000005015
 30
0.0
 11
175.0
 21
86.2330000000005157
 31
0.0
  0
LINE
  5
3C72
  8
3
 10
180.9000000000000909
 20
79.7670000000004933
 30
0.0
 11
175.0
 21
79.7670000000004933
 31
0.0
  0
LINE
  5
3C73
  8
3
 10
46.7669999999997472
 20
180.899999999999892
 30
0.0
 11
46.7669999999997614
 21
175.0
 31
0.0
  0
LINE
  5
3C74
  8
3
 10
53.2329999999997625
 20
180.899999999999892
 30
0.0
 11
53.2329999999997696
 21
175.0
 31
0.0
  0
LINE
  5
3C75
  8
0
 10
56.4999999999998721
 20
86.7527767497330586
 30
0.0
 11
49.9999999999998934
 21
90.5055534994656341
 31
0.0
  0
LINE
  5
3C76
  8
0
 10
49.9999999999998934
 20
90.5055534994656341
 30
0.0
 11
43.4999999999998792
 21
86.7527767497330586
 31
0.0
  0
LINE
  5
3C77
  8
0
 10
43.4999999999998792
 20
86.7527767497330586
 30
0.0
 11
43.4999999999998792
 21
79.2472232502679503
 31
0.0
  0
LINE
  5
3C78
  8
0
 10
43.4999999999998792
 20
79.2472232502679503
 30
0.0
 11
49.9999999999998792
 21
75.4944465005353891
 31
0.0
  0
LINE
  5
3C79
  8
0
 10
49.9999999999998792
 20
75.4944465005353891
 30
0.0
 11
56.4999999999998721
 21
79.2472232502679503
 31
0.0
  0
LINE
  5
3C7A
  8
0
 10
56.4999999999998721
 20
79.2472232502679503
 30
0.0
 11
56.4999999999998721
 21
86.7527767497330586
 31
0.0
  0
LINE
  5
3C92
  8
0
 10
180.9000000000000909
 20
78.9999999999996163
 30
0.0
 11
180.9000000000000909
 21
86.9999999999995737
 31
0.0
  0
LINE
  5
3C93
  8
0
 10
45.9999999999997797
 20
180.899999999999892
 30
0.0
 11
53.9999999999997797
 21
180.899999999999892
 31
0.0
  0
LINE
  5
3CA4
  8
0
 10
46.9999999999996589
 20
265.2679491924315016
 30
0.0
 11
49.9999999999996589
 21
263.535898384862719
 31
0.0
  0
LINE
  5
3CA5
  8
0
 10
49.9999999999996589
 20
263.535898384862719
 30
0.0
 11
52.9999999999996589
 21
265.2679491924315016
 31
0.0
  0
LINE
  5
3CA6
  8
0
 10
52.9999999999996589
 20
265.2679491924315016
 30
0.0
 11
52.9999999999996589
 21
268.7320508075692942
 31
0.0
  0
LINE
  5
3CA7
  8
0
 10
52.9999999999996589
 20
268.7320508075692942
 30
0.0
 11
49.9999999999996589
 21
270.4641016151380768
 31
0.0
  0
LINE
  5
3CA8
  8
0
 10
49.9999999999996589
 20
270.4641016151380768
 30
0.0
 11
46.9999999999996589
 21
268.7320508075692942
 31
0.0
  0
LINE
  5
3CA9
  8
0
 10
46.9999999999996589
 20
268.7320508075692942
 30
0.0
 11
46.9999999999996589
 21
265.2679491924315016
 31
0.0
  0
LINE
  5
3CB3
  8
2
 10
83.2499999999996447
 20
300.0
 30
0.0
 11
83.2499999999996732
 21
292.5
 31
0.0
  0
LINE
  5
3CB4
  8
2
 10
76.7499999999996732
 20
300.0
 30
0.0
 11
76.7499999999997016
 21
292.5
 31
0.0
  0
LINE
  5
3CB5
  8
2
 10
16.7499999999996803
 20
300.0
 30
0.0
 11
16.7499999999996803
 21
292.4999999999998863
 31
0.0
  0
LINE
  5
3CB6
  8
2
 10
23.2499999999996589
 20
300.0
 30
0.0
 11
23.2499999999996589
 21
292.5
 31
0.0
  0
LINE
  5
3CC1
  8
2
 10
83.2499999999996447
 20
57.4999999999980886
 30
0.0
 11
83.2499999999996447
 21
49.9999999999991189
 31
0.0
  0
LINE
  5
3CC2
  8
2
 10
76.7499999999996732
 20
57.4999999999983302
 30
0.0
 11
76.7499999999996732
 21
49.9999999999992824
 31
0.0
  0
LINE
  5
3CC3
  8
2
 10
23.2499999999996589
 20
57.5000000000003908
 30
0.0
 11
23.2499999999996589
 21
50.0000000000004619
 31
0.0
  0
LINE
  5
3CC4
  8
2
 10
16.7499999999996909
 20
57.5000000000006395
 30
0.0
 11
16.7499999999996803
 21
50.0000000000006324
 31
0.0
  0
LINE
  5
3CC5
  8
2
 10
148.2500000000001137
 20
57.4999999999981029
 30
0.0
 11
148.2500000000001137
 21
49.9999999999991189
 31
0.0
  0
LINE
  5
3CC6
  8
2
 10
141.7500000000001137
 20
57.4999999999983373
 30
0.0
 11
141.7500000000001137
 21
49.9999999999992895
 31
0.0
  0
LINE
  5
3CC7
  8
2
 10
208.2499999999996021
 20
57.4999999999981029
 30
0.0
 11
208.2499999999996021
 21
49.9999999999991189
 31
0.0
  0
LINE
  5
3CC8
  8
2
 10
201.7499999999996874
 20
57.4999999999983373
 30
0.0
 11
201.7499999999996874
 21
49.9999999999992895
 31
0.0
  0
LINE
  5
3CC9
  8
3
 10
53.9999999999997797
 20
182.2284829694052064
 30
0.0
 11
53.2329999999997625
 21
180.899999999999892
 31
0.0
  0
LINE
  5
3CCA
  8
3
 10
45.9999999999998792
 20
182.2284829694052064
 30
0.0
 11
46.7669999999998893
 21
180.899999999999892
 31
0.0
  0
LINE
  5
3CCB
  8
3
 10
182.2284829694054054
 20
78.9999999999996874
 30
0.0
 11
180.9000000000000909
 21
79.7669999999996833
 31
0.0
  0
LINE
  5
3CCC
  8
3
 10
182.2284829694054054
 20
86.9999999999995737
 30
0.0
 11
180.9000000000000909
 21
86.2329999999995636
 31
0.0
  0
ENDSEC
  0
EOF
