  0
SECTION
  2
HEADER
  9
$ACADVER
  1
AC1009
  9
$INSBASE
 10
0.0
 20
0.0
 30
0.0
  9
$EXTMIN
 10
0.0
 20
-2.960436562073669
 30
0.0
  9
$EXTMAX
 10
225.8237859924547877
 20
215.9999999999998863
 30
0.0
  9
$LIMMIN
 10
0.0
 20
0.0
  9
$LIMMAX
 10
375.0
 20
270.0
  9
$ORTHOMODE
 70
     1
  9
$REGENMODE
 70
     1
  9
$FILLMODE
 70
     1
  9
$QTEXTMODE
 70
     0
  9
$MIRRTEXT
 70
     0
  9
$DRAGMODE
 70
     2
  9
$LTSCALE
 40
10.0
  9
$OSMODE
 70
    37
  9
$ATTMODE
 70
     1
  9
$TEXTSIZE
 40
0.2
  9
$TRACEWID
 40
0.05
  9
$TEXTSTYLE
  7
STANDARD
  9
$CLAYER
  8
0
  9
$CELTYPE
  6
BYLAYER
  9
$CECOLOR
 62
   256
  9
$DIMSCALE
 40
1.0
  9
$DIMASZ
 40
3.0
  9
$DIMEXO
 40
2.0
  9
$DIMDLI
 40
0.38
  9
$DIMRND
 40
0.0
  9
$DIMDLE
 40
0.0
  9
$DIMEXE
 40
2.0
  9
$DIMTP
 40
0.0
  9
$DIMTM
 40
0.0
  9
$DIMTXT
 40
3.2000000000000002
  9
$DIMCEN
 40
0.0
  9
$DIMTSZ
 40
0.0
  9
$DIMTOL
 70
     0
  9
$DIMLIM
 70
     0
  9
$DIMTIH
 70
     0
  9
$DIMTOH
 70
     0
  9
$DIMSE1
 70
     0
  9
$DIMSE2
 70
     0
  9
$DIMTAD
 70
     1
  9
$DIMZIN
 70
     0
  9
$DIMBLK
  1

  9
$DIMASO
 70
     0
  9
$DIMSHO
 70
     0
  9
$DIMPOST
  1

  9
$DIMAPOST
  1

  9
$DIMALT
 70
     0
  9
$DIMALTD
 70
     2
  9
$DIMALTF
 40
25.3999999999999986
  9
$DIMLFAC
 40
1.0
  9
$DIMTOFL
 70
     1
  9
$DIMTVP
 40
1.6000000000000001
  9
$DIMTIX
 70
     1
  9
$DIMSOXD
 70
     0
  9
$DIMSAH
 70
     0
  9
$DIMBLK1
  1

  9
$DIMBLK2
  1

  9
$DIMSTYLE
  2
STANDARD
  9
$DIMCLRD
 70
     0
  9
$DIMCLRE
 70
     0
  9
$DIMCLRT
 70
     0
  9
$DIMTFAC
 40
1.0
  9
$DIMGAP
 40
0.09
  9
$LUNITS
 70
     2
  9
$LUPREC
 70
     4
  9
$SKETCHINC
 40
0.1
  9
$FILLETRAD
 40
0.0
  9
$AUNITS
 70
     0
  9
$AUPREC
 70
     4
  9
$MENU
  1
E:\r13\win\SUPPORT\ACAD
  9
$ELEVATION
 40
0.0
  9
$PELEVATION
 40
0.0
  9
$THICKNESS
 40
0.0
  9
$LIMCHECK
 70
     0
  9
$BLIPMODE
 70
     0
  9
$CHAMFERA
 40
0.0
  9
$CHAMFERB
 40
0.0
  9
$SKPOLY
 70
     0
  9
$TDCREATE
 40
2449840.6474999999627471
  9
$TDUPDATE
 40
2460202.4929166669026017
  9
$TDINDWG
 40
1.0840460995000001
  9
$TDUSRTIMER
 40
1.0840460995000001
  9
$USRTIMER
 70
     1
  9
$ANGBASE
 50
0.0
  9
$ANGDIR
 70
     0
  9
$PDMODE
 70
     0
  9
$PDSIZE
 40
0.0
  9
$PLINEWID
 40
0.0
  9
$COORDS
 70
     1
  9
$SPLFRAME
 70
     0
  9
$SPLINETYPE
 70
     6
  9
$SPLINESEGS
 70
     8
  9
$ATTDIA
 70
     1
  9
$ATTREQ
 70
     1
  9
$HANDLING
 70
     1
  9
$HANDSEED
  5
2EB2
  9
$SURFTAB1
 70
     6
  9
$SURFTAB2
 70
     6
  9
$SURFTYPE
 70
     6
  9
$SURFU
 70
     6
  9
$SURFV
 70
     6
  9
$UCSNAME
  2

  9
$UCSORG
 10
0.0
 20
0.0
 30
0.0
  9
$UCSXDIR
 10
1.0
 20
0.0
 30
0.0
  9
$UCSYDIR
 10
0.0
 20
1.0
 30
0.0
  9
$PUCSNAME
  2

  9
$PUCSORG
 10
0.0
 20
0.0
 30
0.0
  9
$PUCSXDIR
 10
1.0
 20
0.0
 30
0.0
  9
$PUCSYDIR
 10
0.0
 20
1.0
 30
0.0
  9
$USERI1
 70
     0
  9
$USERI2
 70
     1
  9
$USERI3
 70
     0
  9
$USERI4
 70
     0
  9
$USERI5
 70
     0
  9
$USERR1
 40
0.0
  9
$USERR2
 40
0.0
  9
$USERR3
 40
0.0
  9
$USERR4
 40
0.0
  9
$USERR5
 40
0.0
  9
$WORLDVIEW
 70
     1
  9
$SHADEDGE
 70
     3
  9
$SHADEDIF
 70
    70
  9
$TILEMODE
 70
     1
  9
$MAXACTVP
 70
    16
  9
$PLIMCHECK
 70
     0
  9
$PEXTMIN
 10
1.0000000000000000E+20
 20
1.0000000000000000E+20
 30
1.0000000000000000E+20
  9
$PEXTMAX
 10
-1.0000000000000000E+20
 20
-1.0000000000000000E+20
 30
-1.0000000000000000E+20
  9
$PLIMMIN
 10
0.0
 20
0.0
  9
$PLIMMAX
 10
12.0
 20
9.0
  9
$UNITMODE
 70
     0
  9
$VISRETAIN
 70
     0
  9
$PLINEGEN
 70
     0
  9
$PSLTSCALE
 70
     0
  0
ENDSEC
  0
SECTION
  2
TABLES
  0
TABLE
  2
VPORT
 70
     1
  0
VPORT
  2
*ACTIVE
 70
     0
 10
0.0
 20
0.0
 11
1.0
 21
1.0
 12
230.1136928053408042
 22
106.5191557929395998
 13
0.0
 23
0.0
 14
10.0
 24
10.0
 15
10.0
 25
10.0
 16
0.0
 26
0.0
 36
1.0
 17
0.0
 27
0.0
 37
0.0
 40
220.8525189137538121
 41
2.3485221674876842
 42
50.0
 43
0.0
 44
0.0
 50
0.0
 51
0.0
 71
     0
 72
   500
 73
     1
 74
     0
 75
     0
 76
     0
 77
     0
 78
     2
  0
ENDTAB
  0
TABLE
  2
LTYPE
 70
    11
  0
LTYPE
  2
CONTINUOUS
 70
     0
  3
Solid Line
 72
    65
 73
     0
 40
0.0
  0
LTYPE
  2
CENTER
 70
     0
  3
____ _ ____ _ ____ _ ____ _ ____ _ ____ _ ____
 72
    65
 73
     4
 40
2.0
 49
1.25
 49
-0.25
 49
0.25
 49
-0.25
  0
LTYPE
  2
HIDDEN
 70
     0
  3
_ _ _ _ _ _ _ _ _ _ _ _ _ _ _ _ _ _ _ _ _ _ _
 72
    65
 73
     2
 40
0.375
 49
0.25
 49
-0.125
  0
LTYPE
  2
PHANTOM2
 70
     0
  3
Phantom (.5x) ___ _ _ ___ _ _ ___ _ _ ___ _ _
 72
    65
 73
     6
 40
1.25
 49
0.625
 49
-0.125
 49
0.125
 49
-0.125
 49
0.125
 49
-0.125
  0
LTYPE
  2
CENTER2
 70
     0
  3
Center (.5x) ___ _ ___ _ ___ _ ___ _ ___ _ ___
 72
    65
 73
     4
 40
1.125
 49
0.75
 49
-0.125
 49
0.125
 49
-0.125
  0
LTYPE
  2
HIDDEN2
 70
     0
  3
Hidden (.5x) _ _ _ _ _ _ _ _ _ _ _ _ _ _ _ _ _
 72
    65
 73
     2
 40
0.1875
 49
0.125
 49
-0.0625
  0
LTYPE
  2
ACANSTGB
 70
     0
  3
__ . . __ . .
 72
    65
 73
     6
 40
0.35433070866
 49
0.15748031496
 49
-0.03937007874
 49
0.03937007874
 49
-0.03937007874
 49
0.03937007874
 49
-0.03937007874
  0
LTYPE
  2
ACANSTGL
 70
     0
  3
_ _ _ _ _
 72
    65
 73
     2
 40
0.11811023622
 49
0.07874015748
 49
-0.03937007874
  0
LTYPE
  2
ACISOWELD
 70
     0
  3
_ _ _ _ _
 72
    65
 73
     2
 40
2.0
 49
2.0
 49
-1.0
  0
LTYPE
  2
ACISOTGL
 70
     0
  3
_ _ _ _ _
 72
    65
 73
     2
 40
3.0
 49
2.0
 49
-1.0
  0
LTYPE
  2
ACISOTGB
 70
     0
  3
__ . . __ . .
 72
    65
 73
     6
 40
9.0
 49
4.0
 49
-1.0
 49
1.0
 49
-1.0
 49
1.0
 49
-1.0
  0
ENDTAB
  0
TABLE
  2
LAYER
 70
     4
  0
LAYER
  2
0
 70
     0
 62
     7
  6
CONTINUOUS
  0
LAYER
  2
1
 70
     0
 62
     1
  6
CENTER
  0
LAYER
  2
2
 70
     0
 62
     2
  6
HIDDEN
  0
LAYER
  2
3
 70
     0
 62
     3
  6
CONTINUOUS
  0
ENDTAB
  0
TABLE
  2
STYLE
 70
     4
  0
STYLE
  2
STANDARD
 70
     0
 40
0.0
 41
1.0
 50
0.0
 71
     0
 42
0.2
  3
TXT
  4
BIGFONT
  0
STYLE
  2
STANDARD1
 70
     0
 40
0.0
 41
1.0
 50
0.0
 71
     0
 42
3.0
  3
txt
  4

  0
STYLE
  2
ACANSGDT
 70
     0
 40
0.0
 41
1.0
 50
0.0
 71
     0
 42
0.2
  3
amgdt.shx
  4

  0
STYLE
  2
ACISOGDT
 70
     0
 40
0.0
 41
1.0
 50
0.0
 71
     0
 42
2.5
  3
amgdt.shx
  4

  0
ENDTAB
  0
TABLE
  2
VIEW
 70
     1
  0
VIEW
  2
ALL
 70
     0
 40
270.0
 10
220.9915966386554942
 20
135.0
 41
0.0
 11
0.0
 21
0.0
 31
1.0
 12
0.0
 22
0.0
 32
0.0
 42
0.0
 43
0.0
 44
0.0
 50
0.0
 71
     0
  0
ENDTAB
  0
TABLE
  2
UCS
 70
     0
  0
ENDTAB
  0
TABLE
  2
APPID
 70
    21
  0
APPID
  2
ACAD
 70
     0
  0
APPID
  2
ACAD_EXEMPT_FROM_CAD_STANDARDS
 70
     0
  0
APPID
  2
ACAD_MLEADERVER
 70
     0
  0
APPID
  2
MCAD_NO_VIS
 70
     0
  0
APPID
  2
ACAD_TEMP_GRAPHIC
 70
     0
  0
APPID
  2
ACATTRIBSERVICES
 70
     0
  0
APPID
  2
DESIGNERASSEMBLIES
 70
     0
  0
APPID
  2
ACAD_DSTYLE_DIMJAG
 70
     0
  0
APPID
  2
ACAD_DSTYLE_DIMBREAK
 70
     0
  0
APPID
  2
ACAD_NAV_VCDISPLAY
 70
     0
  0
APPID
  2
ACAECLAYERSTANDARD
 70
     0
  0
APPID
  2
GENIUS_GENODEF_13
 70
     0
  0
APPID
  2
GENIUS_GENOBJ-N-CEN_13
 70
     0
  0
APPID
  2
GENIUS_GENCEN_19
 70
     0
  0
APPID
  2
GENIUS_GENDTOL_13
 70
     0
  0
APPID
  2
ACAD_DSTYLE_DIMINSPECT
 70
     0
  0
APPID
  2
ACADANNOMONITORALERTICONDI
 70
     0
  0
APPID
  2
ACAD_DSTYLE_DIMRADIAL_EXTENSION
 70
     0
  0
APPID
  2
GENIUS_GENREC_14
 70
     0
  0
APPID
  2
GENIUS_GENOBJ-N-REC_13
 70
     0
  0
APPID
  2
GENIUS_GENOBJ-N-FIL_13
 70
     0
  0
ENDTAB
  0
TABLE
  2
DIMSTYLE
 70
    14
  0
DIMSTYLE
  2
STANDARD
 70
     0
  3

  4

  5

  6

  7

 40
1.0
 41
0.18
 42
0.0625
 43
0.38
 44
0.18
 45
0.0
 46
0.0
 47
0.0
 48
0.0
140
0.18
141
0.09
142
0.0
143
25.3999999999999986
144
1.0
145
0.0
146
1.0
147
0.09
 71
     0
 72
     0
 73
     1
 74
     1
 75
     0
 76
     0
 77
     0
 78
     0
170
     0
171
     2
172
     0
173
     0
174
     0
175
     0
176
     0
177
     0
178
     0
  0
DIMSTYLE
  2
AM_ANSI
 70
     0
  3

  4
mm
  5

  6

  7

 40
1.0
 41
0.12
 42
0.05
 43
0.5
 44
0.1
 45
0.0
 46
0.0
 47
0.1
 48
0.1
140
0.12
141
0.0
142
0.0
143
25.3999999999999986
144
1.0
145
0.0
146
0.71
147
0.06
 71
     0
 72
     0
 73
     1
 74
     1
 75
     0
 76
     0
 77
     0
 78
     7
170
     0
171
     2
172
     0
173
     0
174
     0
175
     0
176
   256
177
   256
178
     2
  0
DIMSTYLE
  2
AM_ANSI$3
 70
     0
  3

  4
mm
  5

  6

  7

 40
1.0
 41
0.12
 42
0.05
 43
0.5
 44
0.1
 45
0.0
 46
0.0
 47
0.1
 48
0.1
140
0.12
141
0.0
142
0.0
143
25.3999999999999986
144
1.0
145
0.0
146
0.71
147
0.06
 71
     0
 72
     0
 73
     1
 74
     1
 75
     0
 76
     0
 77
     0
 78
     7
170
     0
171
     2
172
     0
173
     0
174
     0
175
     0
176
   256
177
   256
178
     2
  0
DIMSTYLE
  2
AM_ANSI$4
 70
     0
  3

  4
mm
  5

  6

  7

 40
1.0
 41
0.12
 42
0.05
 43
0.5
 44
0.1
 45
0.0
 46
0.0
 47
0.1
 48
0.1
140
0.12
141
0.0
142
0.0
143
25.3999999999999986
144
1.0
145
0.0
146
0.71
147
0.06
 71
     0
 72
     0
 73
     1
 74
     1
 75
     0
 76
     0
 77
     0
 78
     7
170
     0
171
     2
172
     0
173
     0
174
     0
175
     0
176
   256
177
   256
178
     2
  0
DIMSTYLE
  2
AM_ANSI$7
 70
     0
  3

  4
mm
  5

  6

  7

 40
1.0
 41
0.12
 42
0.05
 43
0.5
 44
0.1
 45
0.0
 46
0.0
 47
0.1
 48
0.1
140
0.12
141
0.0
142
0.0
143
25.3999999999999986
144
1.0
145
0.0
146
0.71
147
0.06
 71
     0
 72
     0
 73
     1
 74
     1
 75
     0
 76
     0
 77
     0
 78
     7
170
     0
171
     2
172
     0
173
     0
174
     0
175
     0
176
   256
177
   256
178
     2
  0
DIMSTYLE
  2
AM_ANSI$SF
 70
     0
  3

  4
mm
  5

  6

  7

 40
1.0
 41
0.12
 42
0.05
 43
0.5
 44
0.1
 45
0.0
 46
0.0
 47
0.1
 48
0.1
140
0.12
141
0.0
142
0.0
143
25.3999999999999986
144
1.0
145
0.0
146
0.71
147
0.06
 71
     0
 72
     0
 73
     1
 74
     1
 75
     1
 76
     1
 77
     0
 78
     7
170
     0
171
     2
172
     0
173
     0
174
     0
175
     0
176
   256
177
   256
178
     2
  0
DIMSTYLE
  2
AM_ANSI$SH
 70
     0
  3

  4
mm
  5

  6
GENAXEH
  7

 40
1.0
 41
0.12
 42
0.05
 43
0.5
 44
0.1
 45
0.0
 46
0.0
 47
0.1
 48
0.1
140
0.12
141
0.0
142
0.0
143
25.3999999999999986
144
1.0
145
0.0
146
0.71
147
0.06
 71
     0
 72
     0
 73
     1
 74
     1
 75
     1
 76
     1
 77
     0
 78
     7
170
     0
171
     2
172
     0
173
     1
174
     0
175
     0
176
   256
177
   256
178
     2
  0
DIMSTYLE
  2
AM_ISO
 70
     0
  3

  4
"
  5

  6

  7

 40
1.0
 41
3.5
 42
1.0
 43
10.0
 44
1.0
 45
0.0
 46
0.0
 47
0.1
 48
0.1
140
3.5
141
0.0
142
0.0
143
0.0393701
144
1.0
145
0.0
146
0.71
147
1.5
 71
     0
 72
     0
 73
     0
 74
     0
 75
     0
 76
     0
 77
     1
 78
     8
170
     0
171
     2
172
     1
173
     0
174
     0
175
     0
176
   256
177
   256
178
     2
  0
DIMSTYLE
  2
AM_ISO$3
 70
     0
  3

  4
"
  5

  6

  7

 40
1.0
 41
3.5
 42
1.0
 43
10.0
 44
1.0
 45
0.0
 46
0.0
 47
0.1
 48
0.1
140
3.5
141
0.0
142
0.0
143
0.0393701
144
1.0
145
0.0
146
0.71
147
1.5
 71
     0
 72
     0
 73
     0
 74
     1
 75
     0
 76
     0
 77
     1
 78
     8
170
     0
171
     2
172
     0
173
     0
174
     0
175
     0
176
   256
177
   256
178
     2
  0
DIMSTYLE
  2
AM_ISO$4
 70
     0
  3

  4
"
  5

  6

  7

 40
1.0
 41
3.5
 42
1.0
 43
10.0
 44
1.0
 45
0.0
 46
0.0
 47
0.1
 48
0.1
140
3.5
141
0.0
142
0.0
143
0.0393701
144
1.0
145
0.0
146
0.71
147
1.5
 71
     0
 72
     0
 73
     0
 74
     1
 75
     0
 76
     0
 77
     1
 78
     8
170
     0
171
     2
172
     0
173
     0
174
     0
175
     0
176
   256
177
   256
178
     2
  0
DIMSTYLE
  2
AM_ISO$6
 70
     0
  3

  4
"
  5

  6

  7

 40
1.0
 41
3.5
 42
1.0
 43
10.0
 44
1.0
 45
0.0
 46
0.0
 47
0.1
 48
0.1
140
3.5
141
0.0
142
0.0
143
0.0393701
144
1.0
145
0.0
146
0.71
147
1.5
 71
     0
 72
     0
 73
     0
 74
     0
 75
     0
 76
     0
 77
     0
 78
     8
170
     0
171
     2
172
     1
173
     0
174
     0
175
     0
176
   256
177
   256
178
     2
  0
DIMSTYLE
  2
AM_ISO$7
 70
     0
  3

  4
"
  5

  6

  7

 40
1.0
 41
3.5
 42
1.0
 43
10.0
 44
1.0
 45
0.0
 46
0.0
 47
0.1
 48
0.1
140
3.5
141
0.0
142
0.0
143
0.0393701
144
1.0
145
0.0
146
0.71
147
1.5
 71
     0
 72
     0
 73
     0
 74
     0
 75
     0
 76
     0
 77
     1
 78
     8
170
     0
171
     2
172
     1
173
     0
174
     0
175
     0
176
   256
177
   256
178
     2
  0
DIMSTYLE
  2
AM_ISO$SF
 70
     0
  3

  4
"
  5

  6

  7

 40
1.0
 41
3.5
 42
1.0
 43
10.0
 44
1.0
 45
0.0
 46
0.0
 47
0.1
 48
0.1
140
3.5
141
0.0
142
0.0
143
0.0393701
144
1.0
145
0.0
146
0.71
147
1.5
 71
     0
 72
     0
 73
     0
 74
     0
 75
     1
 76
     1
 77
     1
 78
     8
170
     0
171
     2
172
     1
173
     0
174
     0
175
     0
176
   256
177
   256
178
     2
  0
DIMSTYLE
  2
AM_ISO$SH
 70
     0
  3

  4
"
  5

  6
GENAXEH
  7

 40
1.0
 41
3.5
 42
1.0
 43
10.0
 44
1.0
 45
0.0
 46
0.0
 47
0.1
 48
0.1
140
3.5
141
0.0
142
0.0
143
0.0393701
144
2.0
145
0.0
146
0.71
147
1.5
 71
     0
 72
     0
 73
     0
 74
     0
 75
     1
 76
     1
 77
     1
 78
     8
170
     0
171
     2
172
     1
173
     1
174
     0
175
     0
176
   256
177
   256
178
     2
  0
ENDTAB
  0
ENDSEC
  0
SECTION
  2
BLOCKS
  0
BLOCK
  8
0
  2
$MODEL_SPACE
 70
     0
 10
0.0
 20
0.0
 30
0.0
  3
$MODEL_SPACE
  1

  0
ENDBLK
  5
AA
  8
0
  0
BLOCK
 67
     1
  8
0
  2
$PAPER_SPACE
 70
     0
 10
0.0
 20
0.0
 30
0.0
  3
$PAPER_SPACE
  1

  0
ENDBLK
  5
A8
 67
     1
  8
0
  0
BLOCK
  8
0
  2
*U0
 70
     1
 10
0.0
 20
0.0
 30
0.0
  3
*U0
  1

  0
ENDBLK
  5
20F
  8
0
  0
BLOCK
  8
0
  2
GENAXEH
 70
     0
 10
0.0
 20
0.0
 30
0.0
  3
GENAXEH
  1

  0
LINE
  5
239
  8
0
 10
-1.0
 20
0.0
 30
0.0
 11
1.0
 21
0.0
 31
0.0
  0
ENDBLK
  5
23B
  8
0
  0
ENDSEC
  0
SECTION
  2
ENTITIES
  0
TEXT
  5
1CC
  8
0
 62
     3
 10
0.0
 20
0.0
 30
0.0
 40
10.0
  1
TCC30-TB-B
  7
STANDARD1
  0
LINE
  5
2924
  8
0
 10
163.9737859924547081
 20
179.7499999999998863
 30
0.0
 11
167.3237859924547877
 21
179.7499999999998863
 31
0.0
  0
LINE
  5
2925
  8
0
 10
167.3237859924547024
 20
192.75
 30
0.0
 11
163.9737859924547081
 21
192.75
 31
0.0
  0
ARC
  5
2926
  8
0
 10
163.9737859924545944
 20
180.3999999999998067
 30
0.0
 40
0.6499999999998636
 50
179.9999999999849081
 51
270.0000000000130171
  0
ARC
  5
2927
  8
0
 10
163.9737859924545944
 20
192.100000000000108
 30
0.0
 40
0.6499999999998636
 50
89.9999999999869686
 51
180.0000000000131877
  0
LINE
  5
2928
  8
0
 10
178.5737859924547877
 20
182.2499999999998863
 30
0.0
 11
183.0737859924547877
 21
182.2499999999998863
 31
0.0
  0
LINE
  5
2929
  8
0
 10
183.0737859924547024
 20
190.25
 30
0.0
 11
178.5737859924547877
 21
190.25
 31
0.0
  0
LINE
  5
292A
  8
0
 10
195.5237859924548047
 20
179.75
 30
0.0
 11
198.3237859924547877
 21
180.5002577388071074
 31
0.0
  0
LINE
  5
292B
  8
0
 10
198.3237859924547024
 20
191.9997422611928926
 30
0.0
 11
195.5237859924548047
 21
192.75
 31
0.0
  0
LINE
  5
292E
  8
0
 10
200.6237859924549127
 20
163.999999999999801
 30
0.0
 11
200.623785992454799
 21
169.7769770590278995
 31
0.0
  0
LINE
  5
292F
  8
0
 10
161.02378599245489
 20
169.7770284867413864
 30
0.0
 11
161.02378599245489
 21
163.9999999999996874
 31
0.0
  0
LINE
  5
2930
  8
0
 10
200.623785992454799
 20
202.7229715117678097
 30
0.0
 11
200.6237859924547138
 21
208.4999999999998863
 31
0.0
  0
LINE
  5
2931
  8
0
 10
161.023785992454691
 20
208.4999999999996874
 30
0.0
 11
161.023785992454691
 21
202.7230229368749974
 31
0.0
  0
LINE
  5
2932
  8
0
 10
158.8237859924547024
 20
202.4667000028512973
 30
0.0
 11
158.8237859924547877
 21
170.0332965150130917
 31
0.0
  0
LINE
  5
2933
  8
0
 10
202.8237859924547877
 20
170.0332999990243934
 30
0.0
 11
202.8237859924547024
 21
202.4667034845641922
 31
0.0
  0
LINE
  5
2934
  8
0
 10
163.3237859924547024
 20
180.4000000000000057
 30
0.0
 11
163.3237859924547024
 21
192.0999999999999091
 31
0.0
  0
LINE
  5
293F
  8
0
 10
198.3237859924547024
 20
191.9997422611928926
 30
0.0
 11
198.3237859924547877
 21
180.5002577388071074
 31
0.0
  0
LINE
  5
2945
  8
0
 10
183.0737859924547024
 20
197.4494495231400037
 30
0.0
 11
194.3237859924547877
 21
197.4494495231400037
 31
0.0
  0
LINE
  5
2946
  8
0
 10
183.0737859924547877
 20
175.0505504768599963
 30
0.0
 11
194.3237859924547877
 21
175.0505504768599963
 31
0.0
  0
LINE
  5
2948
  8
0
 10
167.3237859924547024
 20
197.4494495231398901
 30
0.0
 11
178.5737859924547024
 21
197.4494495231398901
 31
0.0
  0
LINE
  5
2949
  8
0
 10
167.3237859924547024
 20
175.050550476859911
 30
0.0
 11
178.5737859924547877
 21
175.050550476859911
 31
0.0
  0
LINE
  5
294F
  8
0
 10
194.3237859924547877
 20
174.0847761550780888
 30
0.0
 11
194.323786365712607
 21
198.4152237750207917
 31
0.0
  0
LINE
  5
2952
  8
0
 10
167.3237856129962893
 20
198.4152238449217123
 30
0.0
 11
167.3237859924547024
 21
174.0847760103546875
 31
0.0
  0
LINE
  5
2967
  8
0
 10
161.02378599245489
 20
163.999999999999801
 30
0.0
 11
200.623785992454799
 21
164.0
 31
0.0
  0
LINE
  5
2968
  8
0
 10
183.0737859924549014
 20
208.4999999999998863
 30
0.0
 11
183.0737859924547877
 21
163.999999999999801
 31
0.0
  0
LINE
  5
2969
  8
0
 10
178.5737859924547877
 20
163.999999999999801
 30
0.0
 11
178.5737859924547877
 21
208.4999999999998863
 31
0.0
  0
LINE
  5
296B
  8
0
 10
161.023785992454691
 20
208.499999999999801
 30
0.0
 11
200.6237859924547138
 21
208.4999999999998863
 31
0.0
  0
LINE
  5
296E
  8
0
 10
178.5737859924547877
 20
181.4278846153848974
 30
0.0
 11
183.0737859924547877
 21
181.4278846153848974
 31
0.0
  0
LINE
  5
296F
  8
0
 10
178.5737859924547877
 20
175.8653846153848974
 30
0.0
 11
183.0737859924547877
 21
175.8653846153850111
 31
0.0
  0
LINE
  5
2970
  8
0
 10
178.5737859924547024
 20
196.6346153846149036
 30
0.0
 11
183.0737859924547024
 21
196.6346153846149036
 31
0.0
  0
LINE
  5
2971
  8
0
 10
178.5737859924547877
 20
191.0721153846149036
 30
0.0
 11
183.0737859924547877
 21
191.0721153846149036
 31
0.0
  0
LINE
  5
2974
  8
0
 10
183.0737859924547024
 20
197.3749999999998863
 30
0.0
 11
178.5737859924547877
 21
197.3749999999998863
 31
0.0
  0
LINE
  5
2975
  8
0
 10
183.0737859924547877
 20
175.1249999999998863
 30
0.0
 11
178.5737859924547877
 21
175.1249999999998863
 31
0.0
  0
LINE
  5
297A
  8
0
 10
218.823785992455214
 20
161.4999999999998863
 30
0.0
 11
142.8237859924539919
 21
161.4999999999998863
 31
0.0
  0
LINE
  5
2985
  8
0
 10
142.8237859924541056
 20
210.9999999999998863
 30
0.0
 11
218.8237859924560098
 21
210.9999999999998863
 31
0.0
  0
LINE
  5
2995
  8
0
 10
220.8237859924547877
 20
208.9999999999998863
 30
0.0
 11
220.8237859924547877
 21
163.4999999999998863
 31
0.0
  0
LINE
  5
2996
  8
0
 10
140.8237859924547024
 20
208.9999999999998863
 30
0.0
 11
140.8237859924547024
 21
163.4999999999996021
 31
0.0
  0
LINE
  5
299A
  8
1
 10
225.8237859924547877
 20
186.2500000000001137
 30
0.0
 11
135.8237859924547024
 21
186.249999999999801
 31
0.0
  0
LINE
  5
299B
  8
1
 10
180.8237859924545887
 20
215.9999999999998863
 30
0.0
 11
180.8237859924549014
 21
156.4999999999998863
 31
0.0
  0
ARC
  5
299C
  8
0
 10
163.9737859924543955
 20
105.8499999999999943
 30
0.0
 40
0.6499999999998636
 50
89.9999999999869686
 51
180.0000000000131877
  0
LINE
  5
299D
  8
0
 10
167.3237859924545887
 20
106.4999999999999005
 30
0.0
 11
163.9737859924545944
 21
106.4999999999999005
 31
0.0
  0
LINE
  5
299E
  8
0
 10
178.5737859924547024
 20
95.9999999999998437
 30
0.0
 11
183.0737859924547024
 21
95.9999999999998437
 31
0.0
  0
LINE
  5
299F
  8
0
 10
183.0737859924545887
 20
103.999999999999801
 30
0.0
 11
178.5737859924545887
 21
103.999999999999801
 31
0.0
  0
LINE
  5
29A0
  8
0
 10
198.3237859924545887
 20
105.7497422611926936
 30
0.0
 11
195.5237859924546058
 21
106.4999999999999005
 31
0.0
  0
LINE
  5
29A1
  8
0
 10
178.5737859924545887
 20
111.499999999999801
 30
0.0
 11
167.3237859924545887
 21
111.499999999999801
 31
0.0
  0
LINE
  5
29A2
  8
0
 10
194.3237859924545035
 20
111.499999999999801
 30
0.0
 11
183.0737859924545887
 21
111.499999999999801
 31
0.0
  0
LINE
  5
29A3
  8
0
 10
163.3237859924545035
 20
94.3667914023351813
 30
0.0
 11
163.3237859924545035
 21
105.8499999999997954
 31
0.0
  0
LINE
  5
29AB
  8
0
 10
198.3237859924545887
 20
105.7497422611926936
 30
0.0
 11
198.3237859924545887
 21
94.4328178876718027
 31
0.0
  0
LINE
  5
29AF
  8
0
 10
140.8237859924545035
 20
49.9999999999998721
 30
0.0
 11
140.8237859924545035
 21
55.9999999999998721
 31
0.0
  0
LINE
  5
29BB
  8
0
 10
220.8237859924545887
 20
55.9999999999998721
 30
0.0
 11
220.8237859924545887
 21
49.9999999999998721
 31
0.0
  0
LINE
  5
29BC
  8
0
 10
220.8237859924545887
 20
49.9999999999998721
 30
0.0
 11
140.8237859924545035
 21
49.9999999999998721
 31
0.0
  0
ARC
  5
29BF
  8
0
 10
180.8237859924545035
 20
79.9999999999999432
 30
0.0
 40
14.9999999999999893
 50
98.6269265586789601
 51
261.3730734413226742
  0
LINE
  5
29C0
  8
0
 10
178.5737859924545887
 20
65.1697100500360023
 30
0.0
 11
178.5737859924545887
 21
64.2499999999998721
 31
0.0
  0
LINE
  5
29C1
  8
0
 10
178.5737859924545887
 20
64.2499999999998721
 30
0.0
 11
183.0737859924545887
 21
64.2499999999998721
 31
0.0
  0
LINE
  5
29C2
  8
0
 10
183.0737859924545887
 20
64.2499999999998721
 30
0.0
 11
183.0737859924545887
 21
65.1697100500360023
 31
0.0
  0
ARC
  5
29C3
  8
0
 10
180.8237859924545035
 20
79.9999999999999432
 30
0.0
 40
15.0000000000000107
 50
278.6269265586806227
 51
81.3730734413210257
  0
LINE
  5
29C4
  8
0
 10
183.0737859924545887
 20
94.8302899499638414
 30
0.0
 11
183.0737859924545887
 21
99.6717436949549125
 31
0.0
  0
LINE
  5
29C5
  8
0
 10
178.5737859924545887
 20
99.6717436949549125
 30
0.0
 11
178.5737859924545887
 21
94.8302899499638841
 31
0.0
  0
ARC
  5
29C6
  8
0
 10
180.8237859924545887
 20
79.9999999999999432
 30
0.0
 40
19.8000000000000185
 50
96.5249788441444139
 51
83.4750211558556146
  0
ARC
  5
29CB
  8
0
 10
194.9605310814623067
 20
63.9341219260074709
 30
0.0
 40
1.5999999999992831
 50
131.3453097849688049
 51
190.0000000000221121
  0
LINE
  5
29CC
  8
0
 10
193.3848386766435965
 20
63.6562848417399181
 30
0.0
 11
194.0907780611447038
 21
59.6527036446660901
 31
0.0
  0
ARC
  5
29CD
  8
0
 10
166.6870409034468992
 20
63.9341219260074709
 30
0.0
 40
1.59999999999927
 50
349.9999999999794227
 51
48.6546902150268892
  0
LINE
  5
29CE
  8
0
 10
167.5567939237645874
 20
59.6527036446660901
 30
0.0
 11
168.2627333082656094
 21
63.6562848417399181
 31
0.0
  0
LINE
  5
29D2
  8
0
 10
183.0737859924545887
 20
102.6119591073838961
 30
0.0
 11
183.0737859924545887
 21
99.6717436947678124
 31
0.0
  0
LINE
  5
29D6
  8
0
 10
178.5737859924545887
 20
99.6717436527266045
 30
0.0
 11
178.5737859924545887
 21
102.6119591073838961
 31
0.0
  0
LINE
  5
29D7
  8
0
 10
167.3237859924545887
 20
111.499999999999801
 30
0.0
 11
167.3237859924545035
 21
98.4709515557019586
 31
0.0
  0
LINE
  5
29D8
  8
0
 10
178.5737859924545887
 20
102.6119591073838961
 30
0.0
 11
178.5737859924545887
 21
111.499999999999801
 31
0.0
  0
LINE
  5
29D9
  8
0
 10
194.3237859924545887
 20
98.4709515557020865
 30
0.0
 11
194.3237859924545035
 21
111.499999999999801
 31
0.0
  0
LINE
  5
29DA
  8
0
 10
183.0737859924545887
 20
111.499999999999801
 30
0.0
 11
183.0737859924545887
 21
102.6119591073838961
 31
0.0
  0
ARC
  5
29DB
  8
0
 10
180.8237859924545035
 20
79.9999999999999005
 30
0.0
 40
15.0
 50
261.3730734413226742
 51
278.6269265586806227
  0
LINE
  5
29DC
  8
0
 10
178.5737859924545887
 20
98.7499999999998437
 30
0.0
 11
183.0737859924545887
 21
98.7499999999998437
 31
0.0
  0
LINE
  5
29DD
  8
0
 10
183.0737859924545887
 20
96.4999999999998579
 30
0.0
 11
178.5737859924545887
 21
96.4999999999998579
 31
0.0
  0
LINE
  5
29F4
  8
0
 10
178.5737859924545887
 20
99.6717436949549125
 30
0.0
 11
178.5737859924545887
 21
99.6717436527266045
 31
0.0
  0
LINE
  5
29F5
  8
0
 10
168.2627333104194065
 20
63.656284853954368
 30
0.0
 11
168.2627333082656094
 21
63.6562848417399181
 31
0.0
  0
LINE
  5
29F6
  8
0
 10
167.7439932590710896
 20
65.1353095541236087
 30
0.0
 11
167.7439938072976986
 21
65.1353090717260699
 31
0.0
  0
LINE
  5
29F7
  8
0
 10
193.384838667610893
 20
63.6562848929670722
 30
0.0
 11
193.3848386766435965
 21
63.6562848417399181
 31
0.0
  0
LINE
  5
29F8
  8
0
 10
193.4818206578258923
 20
63.1062744710755723
 30
0.0
 11
193.4818203792194993
 21
63.1062742750845231
 31
0.0
  0
LINE
  5
29F9
  8
0
 10
168.1657513270833135
 20
63.1062744710756718
 30
0.0
 11
168.1657502091321987
 21
63.1062752575198118
 31
0.0
  0
LINE
  5
2A0A
  8
0
 10
168.1657502091323124
 20
63.1062752575198118
 30
0.0
 11
168.2627333172981139
 21
63.6562848929669727
 31
0.0
  0
LINE
  5
2A0B
  8
0
 10
193.3848386715253866
 20
63.6562848707656599
 30
0.0
 11
193.4818205939907045
 21
63.1062745641595697
 31
0.0
  0
LINE
  5
2A0C
  8
0
 10
183.0737859924545035
 20
99.6717436949547135
 30
0.0
 11
183.0737859924545035
 21
99.671743674355568
 31
0.0
  0
LINE
  5
2A0D
  8
0
 10
193.9035781776113936
 20
65.1353090717258851
 30
0.0
 11
193.9035784520933987
 21
65.1353093132490528
 31
0.0
  0
LINE
  5
2A0E
  8
0
 10
193.3848386766435112
 20
63.6562848417398186
 30
0.0
 11
193.3848386715253866
 21
63.6562848707656599
 31
0.0
  0
LINE
  5
2A0F
  8
0
 10
167.7439938072974996
 20
65.1353090717258851
 30
0.0
 11
167.7439935457684896
 21
65.1353093018515352
 31
0.0
  0
LINE
  5
2A10
  8
0
 10
168.2627333082654957
 20
63.6562848417398186
 30
0.0
 11
168.2627333172981139
 21
63.6562848929669727
 31
0.0
  0
LINE
  5
2A27
  8
2
 10
154.0737859924545035
 20
49.9999999999998721
 30
0.0
 11
154.0737859924545035
 21
57.9999999999998721
 31
0.0
  0
LINE
  5
2A28
  8
2
 10
147.5737859924545887
 20
57.9999999999998721
 30
0.0
 11
147.5737859924545887
 21
49.9999999999998721
 31
0.0
  0
LINE
  5
2A29
  8
2
 10
214.0737859924545887
 20
49.9999999999998721
 30
0.0
 11
214.0737859924545887
 21
57.9999999999998721
 31
0.0
  0
LINE
  5
2A2A
  8
2
 10
207.5737859924545887
 20
57.9999999999998721
 30
0.0
 11
207.5737859924545035
 21
49.9999999999998721
 31
0.0
  0
LINE
  5
2A2D
  8
1
 10
201.3237859924545887
 20
99.9999999999998721
 30
0.0
 11
160.3237859924545035
 21
99.9999999999999147
 31
0.0
  0
LINE
  5
2A2E
  8
1
 10
210.8237859924545887
 20
60.9999999999998721
 30
0.0
 11
210.8237859924545887
 21
46.9999999999998721
 31
0.0
  0
LINE
  5
2A2F
  8
1
 10
150.8237859924545887
 20
60.9999999999998721
 30
0.0
 11
150.8237859924545887
 21
46.9999999999998721
 31
0.0
  0
LINE
  5
2A30
  8
0
 10
87.2112859924542931
 20
60.1999999999999531
 30
0.0
 11
88.3237859924544182
 21
60.1999999999999531
 31
0.0
  0
LINE
  5
2A31
  8
0
 10
43.8237859924544111
 20
60.1999999999997968
 30
0.0
 11
44.936285992454323
 21
60.1999999999997968
 31
0.0
  0
CIRCLE
  5
2A33
  8
0
 10
66.0737859924541908
 20
99.9999999999998721
 30
0.0
 40
6.5
  0
LINE
  5
2A3D
  8
0
 10
90.8237859924543045
 20
55.5248437561027615
 30
0.0
 11
90.8237859924545319
 21
49.9999999999998721
 31
0.0
  0
LINE
  5
2A3E
  8
0
 10
90.8237859924545319
 20
49.9999999999998721
 30
0.0
 11
88.8237859924545461
 21
49.9999999999998721
 31
0.0
  0
LINE
  5
2A43
  8
0
 10
41.3237859924545319
 20
49.9999999999998721
 30
0.0
 11
41.3237859924542974
 21
55.524843756102868
 31
0.0
  0
LINE
  5
2A45
  8
0
 10
43.3237859924545319
 20
49.9999999999998721
 30
0.0
 11
41.3237859924545319
 21
49.9999999999998721
 31
0.0
  0
LINE
  5
2A48
  8
0
 10
43.3237859924545319
 20
49.9999999999998721
 30
0.0
 11
88.8237859924545461
 21
49.9999999999998721
 31
0.0
  0
LINE
  5
2A49
  8
0
 10
41.3237859924542974
 20
55.524843756102868
 30
0.0
 11
41.3237859924542974
 21
55.9999999999998721
 31
0.0
  0
LINE
  5
2A4E
  8
0
 10
90.8237859924543045
 20
55.9999999999998721
 30
0.0
 11
90.8237859924543045
 21
55.5248437561027615
 31
0.0
  0
LINE
  5
2A53
  8
0
 10
62.3210092427216296
 20
93.4999999999998721
 30
0.0
 11
69.8265627422156854
 21
93.5000000000497238
 31
0.0
  0
LINE
  5
2A55
  8
0
 10
72.6965436595472738
 20
98.4709527657518748
 30
0.0
 11
78.2390099820994465
 21
98.4709515557020154
 31
0.0
  0
LINE
  5
2A57
  8
0
 10
86.4868341134999241
 20
63.1062744710756718
 30
0.0
 11
45.660738023079432
 21
63.1062752575198118
 31
0.0
  0
LINE
  5
2A59
  8
0
 10
53.9085621475323933
 20
98.4709523600958647
 30
0.0
 11
59.4510283260687515
 21
98.4709527643960314
 31
0.0
  0
LINE
  5
2A5C
  8
0
 10
88.3237859924543045
 20
99.6717436949549125
 30
0.0
 11
77.9589587307037277
 21
99.6717436527266045
 31
0.0
  0
LINE
  5
2A5D
  8
0
 10
88.3237859924543471
 20
60.1999999999999531
 30
0.0
 11
88.3237859924543045
 21
99.6717436949549125
 31
0.0
  0
LINE
  5
2A5E
  8
0
 10
43.8237859924543613
 20
60.1999999999997968
 30
0.0
 11
43.8237859924542974
 21
99.6717436949547135
 31
0.0
  0
LINE
  5
2A5F
  8
0
 10
54.1886132542059613
 20
99.6717436527317346
 30
0.0
 11
43.8237859924542974
 21
99.6717436949547135
 31
0.0
  0
LINE
  5
2A63
  8
0
 10
87.2112859924542931
 20
60.1999999999999531
 30
0.0
 11
87.2112859924542931
 21
57.9999999999998721
 31
0.0
  0
LINE
  5
2A64
  8
0
 10
44.936285992454323
 20
60.1999999999997968
 30
0.0
 11
44.936285992454323
 21
57.9999999999998721
 31
0.0
  0
ARC
  5
2A67
  8
0
 10
66.0737859924543045
 20
99.99999999999946
 30
0.0
 40
11.5000000000003908
 50
13.1279778845625206
 51
166.8720221154387104
  0
LINE
  5
2A68
  8
0
 10
73.5793394919193702
 20
99.9999999999998721
 30
0.0
 11
69.8265627421868658
 21
106.4999999999999005
 31
0.0
  0
LINE
  5
2A69
  8
0
 10
69.8265627421868658
 20
106.4999999999999005
 30
0.0
 11
62.3210092427216296
 21
106.4999999999999005
 31
0.0
  0
LINE
  5
2A6A
  8
0
 10
62.3210092427216296
 20
106.4999999999999005
 30
0.0
 11
58.568232492989182
 21
99.9999999999998721
 31
0.0
  0
LINE
  5
2A6D
  8
0
 10
45.6607378714087417
 20
63.1062744710755723
 30
0.0
 11
54.874336469314251
 21
102.6119591073837967
 31
0.0
  0
LINE
  5
2A6E
  8
0
 10
77.2732355155942514
 20
102.6119591073838961
 30
0.0
 11
86.4868341134999241
 21
63.1062744710756718
 31
0.0
  0
LINE
  5
2A7A
  8
0
 10
69.8265627471732842
 20
106.4999999913628983
 30
0.0
 11
69.8265627592270448
 21
106.4999999704852058
 31
0.0
  0
LINE
  5
2A7F
  8
2
 10
43.8237859924542974
 20
94.9999999999998721
 30
0.0
 11
88.3237859924543045
 21
95.0000000000000284
 31
0.0
  0
LINE
  5
2A92
  8
0
 10
45.6607378714087417
 20
63.1062744710755723
 30
0.0
 11
86.4868341909549372
 21
63.1062742750845231
 31
0.0
  0
LINE
  5
2A94
  8
0
 10
53.9085622174333068
 20
98.4709524759590664
 30
0.0
 11
59.451028325514983
 21
98.4709527655685264
 31
0.0
  0
LINE
  5
2A95
  8
0
 10
72.6965436588396869
 20
98.4709527643960314
 30
0.0
 11
78.2390098373760452
 21
98.4709523600959642
 31
0.0
  0
LINE
  5
2A9E
  8
2
 10
69.3237859924545319
 20
49.9999999999998792
 30
0.0
 11
69.3237859924544182
 21
57.9999999999998721
 31
0.0
  0
LINE
  5
2A9F
  8
2
 10
62.8237859924544182
 20
57.9999999999998721
 30
0.0
 11
62.8237859924545319
 21
49.9999999999998579
 31
0.0
  0
LINE
  5
2AA1
  8
1
 10
66.0737859924542477
 20
116.499999999999801
 30
0.0
 11
66.0737859924542477
 21
44.9999999999998721
 31
0.0
  0
CIRCLE
  5
2AA7
  8
0
 10
210.8237859779692087
 20
186.2500000000001137
 30
0.0
 40
3.25
  0
LINE
  5
2AA9
  8
1
 10
210.8237859779692087
 20
192.5000000000001137
 30
0.0
 11
210.8237859779692087
 21
180.0000000000001137
 31
0.0
  0
CIRCLE
  5
2AAA
  8
0
 10
150.8237860069401108
 20
186.2500000000001137
 30
0.0
 40
3.25
  0
LINE
  5
2AAB
  8
1
 10
150.8237860069401108
 20
192.5000000000001137
 30
0.0
 11
150.8237860069401108
 21
180.0000000000001137
 31
0.0
  0
ARC
  5
2AAC
  8
0
 10
180.822068512948988
 20
81.0999585155851719
 30
0.0
 40
21.9989779354149597
 50
127.8493064317234058
 51
234.8783841622993123
1001
GENIUS_GENODEF_13
1002
{
1000
HIER
1070
     0
1002
}
1002
{
1000
MANEDIT
1070
     0
1002
}
1002
{
1000
NOSEL
1070
     0
1002
}
1002
{
1000
BEHIND
1070
     0
1002
}
1002
{
1000
OTHER
1070
     0
1002
}
1002
{
1000
REACTOR
1002
}
1001
GENIUS_GENOBJ-N-FIL_13
1002
{
1000
OWNER
1000
GEN
1002
}
  0
ARC
  5
2AAE
  8
0
 10
180.8255034719603032
 20
81.0999585155851719
 30
0.0
 40
21.9989779354149597
 50
305.1216158377009151
 51
52.1506935682771697
  0
LINE
  5
2AAF
  8
0
 10
69.8265627422156854
 20
93.5000000000496669
 30
0.0
 11
73.5793394919193702
 21
99.9999999999998721
 31
0.0
  0
LINE
  5
2AB0
  8
0
 10
62.3210092426926892
 20
93.5000000000496669
 30
0.0
 11
58.5682324929890115
 21
99.9999999999998721
 31
0.0
  0
LINE
  5
2AB1
  8
0
 10
218.8237859924545887
 20
57.9999999999998721
 30
0.0
 11
142.8237859924545035
 21
57.9999999999998721
 31
0.0
  0
ARC
  5
2AB2
  8
0
 10
218.8237859924545887
 20
55.9999999999998721
 30
0.0
 40
2.0
 50
0.0
 51
90.0
1001
GENIUS_GENOBJ-N-FIL_13
1002
{
1000
OWNER
1000
GEN
1002
}
1001
GENIUS_GENODEF_13
1002
{
1000
HIER
1070
     0
1002
}
1002
{
1000
MANEDIT
1070
     0
1002
}
1002
{
1000
NOSEL
1070
     0
1002
}
1002
{
1000
BEHIND
1070
     0
1002
}
1002
{
1000
OTHER
1070
     0
1002
}
1002
{
1000
REACTOR
1002
}
  0
ARC
  5
2AB4
  8
0
 10
142.8237859924545035
 20
55.9999999999998721
 30
0.0
 40
2.0
 50
90.0
 51
180.0
1001
GENIUS_GENODEF_13
1002
{
1000
HIER
1070
     0
1002
}
1002
{
1000
MANEDIT
1070
     0
1002
}
1002
{
1000
NOSEL
1070
     0
1002
}
1002
{
1000
BEHIND
1070
     0
1002
}
1002
{
1000
OTHER
1070
     0
1002
}
1002
{
1000
REACTOR
1002
}
1001
GENIUS_GENOBJ-N-FIL_13
1002
{
1000
OWNER
1000
GEN
1002
}
  0
ARC
  5
2AB7
  8
0
 10
196.0603935671690863
 20
59.9999999999998721
 30
0.0
 40
2.0
 50
189.9999999999980957
 51
270.0
1001
GENIUS_GENODEF_13
1002
{
1000
HIER
1070
     0
1002
}
1002
{
1000
MANEDIT
1070
     0
1002
}
1002
{
1000
NOSEL
1070
     0
1002
}
1002
{
1000
BEHIND
1070
     0
1002
}
1002
{
1000
OTHER
1070
     0
1002
}
1002
{
1000
REACTOR
1002
}
1001
GENIUS_GENOBJ-N-FIL_13
1002
{
1000
OWNER
1000
GEN
1002
}
  0
ARC
  5
2AB8
  8
0
 10
165.5871784177400912
 20
59.9999999999998721
 30
0.0
 40
2.0
 50
270.0
 51
350.000000000001819
1001
GENIUS_GENOBJ-N-FIL_13
1002
{
1000
OWNER
1000
GEN
1002
}
1001
GENIUS_GENODEF_13
1002
{
1000
HIER
1070
     0
1002
}
1002
{
1000
MANEDIT
1070
     0
1002
}
1002
{
1000
NOSEL
1070
     0
1002
}
1002
{
1000
BEHIND
1070
     0
1002
}
1002
{
1000
OTHER
1070
     0
1002
}
1002
{
1000
REACTOR
1002
}
  0
LINE
  5
2AB9
  8
0
 10
43.3237859924542974
 20
57.9999999999998721
 30
0.0
 11
88.8237859924545461
 21
57.9999999999998721
 31
0.0
  0
ARC
  5
2ABA
  8
0
 10
88.8237859924543045
 20
55.9999999999998721
 30
0.0
 40
2.0
 50
0.0
 51
90.0
1001
GENIUS_GENOBJ-N-FIL_13
1002
{
1000
OWNER
1000
GEN
1002
}
1001
GENIUS_GENODEF_13
1002
{
1000
HIER
1070
     0
1002
}
1002
{
1000
MANEDIT
1070
     0
1002
}
1002
{
1000
NOSEL
1070
     0
1002
}
1002
{
1000
BEHIND
1070
     0
1002
}
1002
{
1000
OTHER
1070
     0
1002
}
1002
{
1000
REACTOR
1002
}
  0
ARC
  5
2ABB
  8
0
 10
43.3237859924542974
 20
55.9999999999998721
 30
0.0
 40
2.0
 50
90.0
 51
180.0
1001
GENIUS_GENOBJ-N-FIL_13
1002
{
1000
OWNER
1000
GEN
1002
}
1001
GENIUS_GENODEF_13
1002
{
1000
HIER
1070
     0
1002
}
1002
{
1000
MANEDIT
1070
     0
1002
}
1002
{
1000
NOSEL
1070
     0
1002
}
1002
{
1000
BEHIND
1070
     0
1002
}
1002
{
1000
OTHER
1070
     0
1002
}
1002
{
1000
REACTOR
1002
}
  0
LINE
  5
2ABD
  8
1
 10
75.5737859924541908
 20
99.9999999999998721
 30
0.0
 11
56.5737859924541908
 21
99.9999999999998721
 31
0.0
  0
LINE
  5
2AC0
  8
1
 10
93.3237859924543471
 20
80.0000000000000568
 30
0.0
 11
38.8237859924543329
 21
79.9999999999999716
 31
0.0
  0
LINE
  5
2AC2
  8
2
 10
43.8237859924542974
 20
65.000000000000199
 30
0.0
 11
88.3237859924543045
 21
65.0000000000000426
 31
0.0
  0
LINE
  5
2AC4
  8
2
 10
195.8237859924547024
 20
208.4999999999998863
 30
0.0
 11
195.8237859924549014
 21
163.9999999999998863
 31
0.0
  0
LINE
  5
2AC5
  8
2
 10
165.823785992455413
 20
208.4999999999998863
 30
0.0
 11
165.823785992455214
 21
163.9999999999998863
 31
0.0
  0
LINE
  5
2BA4
  8
3
 10
183.0737859924547877
 20
189.4829999999998904
 30
0.0
 11
178.5737859924547877
 21
189.4829999999998904
 31
0.0
  0
LINE
  5
2BA5
  8
3
 10
183.0737859924547877
 20
183.0169999999999106
 30
0.0
 11
178.5737859924547877
 21
183.0169999999999106
 31
0.0
  0
LINE
  5
2BA6
  8
3
 10
183.0737859924547024
 20
103.2329999999998051
 30
0.0
 11
178.5737859924547024
 21
103.2329999999998051
 31
0.0
  0
LINE
  5
2BA8
  8
0
 10
195.5237859924548047
 20
192.75
 30
0.0
 11
194.9432294088539948
 21
193.7555534994652078
 31
0.0
  0
LINE
  5
2BA9
  8
0
 10
194.9432294088539948
 20
178.7444465005349059
 30
0.0
 11
195.523785992454691
 21
179.75
 31
0.0
  0
LINE
  5
2BAA
  8
0
 10
194.9432294088539948
 20
193.7555534994652078
 30
0.0
 11
194.3237862942276877
 21
193.7555534994652078
 31
0.0
  0
LINE
  5
2BAB
  8
0
 10
194.9432294088539948
 20
178.7444465005349059
 30
0.0
 11
194.3237860639395933
 21
178.7444465005349059
 31
0.0
  0
LINE
  5
2BAC
  8
0
 10
194.9432294088539948
 20
182.4972232502674103
 30
0.0
 11
194.3237861215116027
 21
182.4972232502674103
 31
0.0
  0
LINE
  5
2BAD
  8
0
 10
194.9432294088539948
 20
190.0027767497325897
 30
0.0
 11
194.3237862366557067
 21
190.0027767497325897
 31
0.0
  0
LINE
  5
2BAE
  8
0
 10
195.5237859924548047
 20
192.75
 30
0.0
 11
195.523785992454691
 21
179.75
 31
0.0
  0
ARC
  5
2BAF
  8
0
 10
192.2012164195029129
 20
180.6208348754011865
 30
0.0
 40
3.3225695729515041
 50
334.3842474680262171
 51
34.3842474680247605
  0
ARC
  5
2BB0
  8
0
 10
183.1040354304905122
 20
186.25
 30
0.0
 40
12.4197362045516098
 50
342.4124743850338746
 51
17.58752561496593
  0
ARC
  5
2BB1
  8
0
 10
192.2012164195029129
 20
191.8791651245988987
 30
0.0
 40
3.3225695729515041
 50
325.615752531975204
 51
25.6157525319736905
  0
LINE
  5
2BB2
  8
0
 10
195.5237859924546058
 20
106.4999999999999005
 30
0.0
 11
194.3237859924545035
 21
106.4999999999999005
 31
0.0
  0
LINE
  5
2BB3
  8
0
 10
195.5237859924546058
 20
106.4999999999999005
 30
0.0
 11
195.5237859924546058
 21
97.4680836724443651
 31
0.0
  0
LINE
  5
2BB4
  8
0
 10
194.9432294088537958
 20
99.9999999999998863
 30
0.0
 11
194.3237859924545887
 21
99.9999999999999147
 31
0.0
  0
ARC
  5
2BB5
  8
0
 10
186.122543251536797
 20
103.2499999999999005
 30
0.0
 40
9.4003725610149864
 50
339.7735762333493881
 51
20.2264237666506084
  0
ARC
  5
2BB6
  8
0
 10
186.122543251536797
 20
96.7499999999999005
 30
0.0
 40
9.4003725610149864
 50
4.5479882753686569
 51
20.2264237666506084
  0
POLYLINE
  5
2BFA
  8
0
 66
     1
 10
0.0
 20
0.0
 30
0.0
  0
VERTEX
  5
2CE0
  8
0
 10
178.5737858078767033
 20
198.1351727382480874
 30
0.0
  0
VERTEX
  5
2CE1
  8
0
 10
177.6693810314656048
 20
198.1663323827847023
 30
0.0
  0
VERTEX
  5
2CE2
  8
0
 10
176.7700282113740116
 20
198.2032745842861061
 30
0.0
  0
VERTEX
  5
2CE3
  8
0
 10
175.880324121556697
 20
198.250912051087596
 30
0.0
  0
VERTEX
  5
2CE4
  8
0
 10
175.0022953146315103
 20
198.3092458260514093
 30
0.0
  0
VERTEX
  5
2CE5
  8
0
 10
174.1371418620705072
 20
198.3767106421589119
 30
0.0
  0
VERTEX
  5
2CE6
  8
0
 10
173.286649408495208
 20
198.4529629394079961
 30
0.0
  0
VERTEX
  5
2CE7
  8
0
 10
172.8675450923784069
 20
198.4944567192553109
 30
0.0
  0
VERTEX
  5
2CE8
  8
0
 10
172.4528596539188072
 20
198.5382062429544874
 30
0.0
  0
VERTEX
  5
2CE9
  8
0
 10
172.0428037994794011
 20
198.5841719454217014
 30
0.0
  0
VERTEX
  5
2CEA
  8
0
 10
171.6375860853088113
 20
198.6323111149683029
 30
0.0
  0
VERTEX
  5
2CEB
  8
0
 10
171.2374150632516034
 20
198.682581048288597
 30
0.0
  0
VERTEX
  5
2CEC
  8
0
 10
170.8424974783866048
 20
198.7349424813016014
 30
0.0
  0
VERTEX
  5
2CED
  8
0
 10
170.4530354960448051
 20
198.7893648675905922
 30
0.0
  0
VERTEX
  5
2CEE
  8
0
 10
170.069230566842009
 20
198.8458190212188015
 30
0.0
  0
VERTEX
  5
2CEF
  8
0
 10
169.6912841413933108
 20
198.9042757562494046
 30
0.0
  0
VERTEX
  5
2CF0
  8
0
 10
169.3193946924430975
 20
198.9647046642643033
 30
0.0
  0
VERTEX
  5
2CF1
  8
0
 10
168.9537461569640868
 20
199.0270693695946989
 30
0.0
  0
VERTEX
  5
2CF2
  8
0
 10
168.5945180434941904
 20
199.0913316786023017
 30
0.0
  0
VERTEX
  5
2CF3
  8
0
 10
168.2418898595097971
 20
199.1574533972130894
 30
0.0
  0
VERTEX
  5
2CF4
  8
0
 10
167.8960400770668002
 20
199.2253962173915056
 30
0.0
  0
VERTEX
  5
2CF5
  8
0
 10
167.5571359710309878
 20
199.2951205987021126
 30
0.0
  0
VERTEX
  5
2CF6
  8
0
 10
167.2253379719340103
 20
199.3665862473995958
 30
0.0
  0
VERTEX
  5
2CF7
  8
0
 10
166.9008064121402981
 20
199.4397528589339004
 30
0.0
  0
VERTEX
  5
2CF8
  8
0
 10
166.5837014049565994
 20
199.5145800985222877
 30
0.0
  0
VERTEX
  5
2CF9
  8
0
 10
166.2741747391183935
 20
199.5910264824915998
 30
0.0
  0
VERTEX
  5
2CFA
  8
0
 10
165.9723674988370021
 20
199.6690490498156976
 30
0.0
  0
VERTEX
  5
2CFB
  8
0
 10
165.6784200638203117
 20
199.7486047422387117
 30
0.0
  0
VERTEX
  5
2CFC
  8
0
 10
165.392472809220294
 20
199.829650500989402
 30
0.0
  0
VERTEX
  5
2CFD
  8
0
 10
165.1146616026470042
 20
199.9121427575965129
 30
0.0
  0
VERTEX
  5
2CFE
  8
0
 10
164.8451093561531877
 20
199.9960364786107903
 30
0.0
  0
VERTEX
  5
2CFF
  8
0
 10
164.5839366684793106
 20
200.0812863690001961
 30
0.0
  0
VERTEX
  5
2D00
  8
0
 10
164.3312641383656967
 20
200.1678471337326073
 30
0.0
  0
VERTEX
  5
2D01
  8
0
 10
164.0872102083866935
 20
200.2556733729446137
 30
0.0
  0
VERTEX
  5
2D02
  8
0
 10
163.8518782051959874
 20
200.3447189518485914
 30
0.0
  0
VERTEX
  5
2D03
  8
0
 10
163.6253649883373953
 20
200.4349374212303871
 30
0.0
  0
VERTEX
  5
2D04
  8
0
 10
163.4077673928950105
 20
200.5262823306871098
 30
0.0
  0
VERTEX
  5
2D05
  8
0
 10
163.1991821532998017
 20
200.6187071697895874
 30
0.0
  0
VERTEX
  5
2D06
  8
0
 10
162.9997037927518022
 20
200.712164109413294
 30
0.0
  0
VERTEX
  5
2D07
  8
0
 10
162.8094246793976936
 20
200.8066040352408095
 30
0.0
  0
VERTEX
  5
2D08
  8
0
 10
162.6284370919680953
 20
200.9019777796299877
 30
0.0
  0
VERTEX
  5
2D09
  8
0
 10
162.4568331986330065
 20
200.9982361770200043
 30
0.0
  0
VERTEX
  5
2D0A
  8
0
 10
162.2946756848110965
 20
201.0953306168098038
 30
0.0
  0
VERTEX
  5
2D0B
  8
0
 10
162.1419582063070095
 20
201.1932137877568891
 30
0.0
  0
VERTEX
  5
2D0C
  8
0
 10
161.9986645534326897
 20
201.2918385643187946
 30
0.0
  0
VERTEX
  5
2D0D
  8
0
 10
161.8647785165001096
 20
201.3911578209533104
 30
0.0
  0
VERTEX
  5
2D0E
  8
0
 10
161.7403294786695085
 20
201.4911239569655947
 30
0.0
  0
VERTEX
  5
2D0F
  8
0
 10
161.6256083688629985
 20
201.5916866459249093
 30
0.0
  0
VERTEX
  5
2D10
  8
0
 10
161.5209992085110002
 20
201.6927945912233042
 30
0.0
  0
VERTEX
  5
2D11
  8
0
 10
161.4268861320861106
 20
201.794396495075091
 30
0.0
  0
VERTEX
  5
2D12
  8
0
 10
161.3435870954762095
 20
201.8964414312374061
 30
0.0
  0
VERTEX
  5
2D13
  8
0
 10
161.2705230721396106
 20
201.9988835093500938
 30
0.0
  0
VERTEX
  5
2D14
  8
0
 10
161.2064693207568098
 20
202.1016804642563045
 30
0.0
  0
VERTEX
  5
2D15
  8
0
 10
161.150186882972406
 20
202.2047901106170116
 30
0.0
  0
VERTEX
  5
2D16
  8
0
 10
161.100503400675592
 20
202.3081698504321082
 30
0.0
  0
VERTEX
  5
2D17
  8
0
 10
161.0587570171645098
 20
202.4117615303968023
 30
0.0
  0
VERTEX
  5
2D18
  8
0
 10
161.0295023588805918
 20
202.515487067572991
 30
0.0
  0
VERTEX
  5
2D19
  8
0
 10
161.0210485350212934
 20
202.5673752240712986
 30
0.0
  0
VERTEX
  5
2D1A
  8
0
 10
161.0175045724554934
 20
202.6192670746193016
 30
0.0
  0
VERTEX
  5
2D1B
  8
0
 10
161.0194661145123121
 20
202.6711526957996057
 30
0.0
  0
VERTEX
  5
2D1C
  8
0
 10
161.027330367627286
 20
202.7230229368749974
 30
0.0
  0
SEQEND
  5
2D1D
  8
0
  0
POLYLINE
  5
2BFB
  8
0
 66
     1
 10
0.0
 20
0.0
 30
0.0
  0
VERTEX
  5
2D1E
  8
0
 10
161.023785992454691
 20
204.6847014324511917
 30
0.0
  0
VERTEX
  5
2D1F
  8
0
 10
160.623026886043391
 20
204.4879970110426939
 30
0.0
  0
VERTEX
  5
2D20
  8
0
 10
160.4325910771187864
 20
204.3887251370219076
 30
0.0
  0
VERTEX
  5
2D21
  8
0
 10
160.2540333371140946
 20
204.2883553804495023
 30
0.0
  0
VERTEX
  5
2D22
  8
0
 10
160.0891683774258922
 20
204.1867469242716879
 30
0.0
  0
VERTEX
  5
2D23
  8
0
 10
159.9370763339503014
 20
204.0840460258631879
 30
0.0
  0
VERTEX
  5
2D24
  8
0
 10
159.796655014333794
 20
203.9804180833307896
 30
0.0
  0
VERTEX
  5
2D25
  8
0
 10
159.6668022262230124
 20
203.8760284947815933
 30
0.0
  0
VERTEX
  5
2D26
  8
0
 10
159.5464157772645137
 20
203.7710426583225001
 30
0.0
  0
VERTEX
  5
2D27
  8
0
 10
159.4345522091975056
 20
203.6656092541120131
 30
0.0
  0
VERTEX
  5
2D28
  8
0
 10
159.3312072873754062
 20
203.5597780428412875
 30
0.0
  0
VERTEX
  5
2D29
  8
0
 10
159.2367209573733078
 20
203.4535625359804953
 30
0.0
  0
VERTEX
  5
2D2A
  8
0
 10
159.1514336841069905
 20
203.3469761903025983
 30
0.0
  0
VERTEX
  5
2D2B
  8
0
 10
159.0756859324926893
 20
203.2400324625805013
 30
0.0
  0
VERTEX
  5
2D2C
  8
0
 10
159.0098158598821954
 20
203.1327450409623907
 30
0.0
  0
VERTEX
  5
2D2D
  8
0
 10
158.9540127261957991
 20
203.0251425432562939
 30
0.0
  0
VERTEX
  5
2D2E
  8
0
 10
158.9082287861654095
 20
202.9172773513263905
 30
0.0
  0
VERTEX
  5
2D2F
  8
0
 10
158.872395162979501
 20
202.8092039658563976
 30
0.0
  0
VERTEX
  5
2D30
  8
0
 10
158.8464429798272022
 20
202.700976887529805
 30
0.0
  0
VERTEX
  5
2D31
  8
0
 10
158.8303033598969876
 20
202.5926506170299888
 30
0.0
  0
VERTEX
  5
2D32
  8
0
 10
158.8239150260749
 20
202.4842786546161904
 30
0.0
  0
VERTEX
  5
2D33
  8
0
 10
158.8272700252007041
 20
202.3759074809779861
 30
0.0
  0
VERTEX
  5
2D34
  8
0
 10
158.8403832353824896
 20
202.2675805712956958
 30
0.0
  0
VERTEX
  5
2D35
  8
0
 10
158.8632696214064026
 20
202.1593413893392892
 30
0.0
  0
VERTEX
  5
2D36
  8
0
 10
158.8959441480583905
 20
202.0512333988783951
 30
0.0
  0
VERTEX
  5
2D37
  8
0
 10
158.9384214629471046
 20
201.943300083431609
 30
0.0
  0
VERTEX
  5
2D38
  8
0
 10
158.990698419388508
 20
201.8355860344479993
 30
0.0
  0
VERTEX
  5
2D39
  8
0
 10
159.0527449778896028
 20
201.7281375178106089
 30
0.0
  0
VERTEX
  5
2D3A
  8
0
 10
159.1245288642195135
 20
201.6210009385445971
 30
0.0
  0
VERTEX
  5
2D3B
  8
0
 10
159.2060178041475922
 20
201.5142227016750951
 30
0.0
  0
VERTEX
  5
2D3C
  8
0
 10
159.2971795234431909
 20
201.4078492122274042
 30
0.0
  0
VERTEX
  5
2D3D
  8
0
 10
159.3979808128947013
 20
201.301926648921409
 30
0.0
  0
VERTEX
  5
2D3E
  8
0
 10
159.5083832192530906
 20
201.1964999211963061
 30
0.0
  0
VERTEX
  5
2D3F
  8
0
 10
159.6283464621828898
 20
201.0916134962585033
 30
0.0
  0
VERTEX
  5
2D40
  8
0
 10
159.7578302594799027
 20
200.9873118408619064
 30
0.0
  0
VERTEX
  5
2D41
  8
0
 10
159.8967943289399898
 20
200.8836394217607051
 30
0.0
  0
VERTEX
  5
2D42
  8
0
 10
160.0451979565445981
 20
200.7806407435076892
 30
0.0
  0
VERTEX
  5
2D43
  8
0
 10
160.2029869116364864
 20
200.6783614938312041
 30
0.0
  0
VERTEX
  5
2D44
  8
0
 10
160.3700910924002017
 20
200.5768487497369961
 30
0.0
  0
VERTEX
  5
2D45
  8
0
 10
160.5464394904915935
 20
200.4761496675837975
 30
0.0
  0
VERTEX
  5
2D46
  8
0
 10
160.7319610975667104
 20
200.3763114037299999
 30
0.0
  0
VERTEX
  5
2D47
  8
0
 10
160.9265849052816009
 20
200.2773811145345064
 30
0.0
  0
VERTEX
  5
2D48
  8
0
 10
161.1302394335251904
 20
200.1794048967680908
 30
0.0
  0
VERTEX
  5
2D49
  8
0
 10
161.3428511974477999
 20
200.0824243445642026
 30
0.0
  0
VERTEX
  5
2D4A
  8
0
 10
161.564346179786412
 20
199.986479856256409
 30
0.0
  0
VERTEX
  5
2D4B
  8
0
 10
161.7946501314208945
 20
199.8916118269710864
 30
0.0
  0
VERTEX
  5
2D4C
  8
0
 10
162.0336742132564893
 20
199.7978604505987903
 30
0.0
  0
VERTEX
  5
2D4D
  8
0
 10
162.2813065725316051
 20
199.7052656036082965
 30
0.0
  0
VERTEX
  5
2D4E
  8
0
 10
162.8019429572607919
 20
199.5237055545167948
 30
0.0
  0
VERTEX
  5
2D4F
  8
0
 10
163.3557967960994119
 20
199.3472923018678955
 30
0.0
  0
VERTEX
  5
2D50
  8
0
 10
163.9423002642676863
 20
199.1764417885358966
 30
0.0
  0
VERTEX
  5
2D51
  8
0
 10
164.5600717304141938
 20
199.0113527259508999
 30
0.0
  0
VERTEX
  5
2D52
  8
0
 10
165.2071605104208061
 20
198.8520775874677895
 30
0.0
  0
VERTEX
  5
2D53
  8
0
 10
165.8849449446690869
 20
198.6996283942881121
 30
0.0
  0
VERTEX
  5
2D54
  8
0
 10
166.5948442810502002
 20
198.5550377805672895
 30
0.0
  0
VERTEX
  5
2D55
  8
0
 10
167.3237856129962893
 20
198.4152238449217123
 30
0.0
  0
SEQEND
  5
2D56
  8
0
  0
POLYLINE
  5
2BFC
  8
0
 66
     1
 10
0.0
 20
0.0
 30
0.0
  0
VERTEX
  5
2D57
  8
0
 10
200.6115227106976135
 20
202.7229715117678097
 30
0.0
  0
VERTEX
  5
2D58
  8
0
 10
200.6228205883637941
 20
202.6191956683431101
 30
0.0
  0
VERTEX
  5
2D59
  8
0
 10
200.6147214658406028
 20
202.5154276647571976
 30
0.0
  0
VERTEX
  5
2D5A
  8
0
 10
200.5887264947693893
 20
202.4117271975626977
 30
0.0
  0
VERTEX
  5
2D5B
  8
0
 10
200.5487127420306024
 20
202.3081598589130863
 30
0.0
  0
VERTEX
  5
2D5C
  8
0
 10
200.4985569880022069
 20
202.2047912397578102
 30
0.0
  0
VERTEX
  5
2D5D
  8
0
 10
200.441137962923392
 20
202.1016827371425109
 30
0.0
  0
VERTEX
  5
2D5E
  8
0
 10
200.3761007734858879
 20
201.9988821601122027
 30
0.0
  0
VERTEX
  5
2D5F
  8
0
 10
200.3024368159150015
 20
201.8964345707566963
 30
0.0
  0
VERTEX
  5
2D60
  8
0
 10
200.2191374864362103
 20
201.7943850311663141
 30
0.0
  0
VERTEX
  5
2D61
  8
0
 10
200.1253539685428962
 20
201.6927792332218985
 30
0.0
  0
VERTEX
  5
2D62
  8
0
 10
200.0211111056912046
 20
201.5916663122789885
 30
0.0
  0
VERTEX
  5
2D63
  8
0
 10
199.9067308318091136
 20
201.4910965746560976
 30
0.0
  0
VERTEX
  5
2D64
  8
0
 10
199.7825353270544895
 20
201.3911203276419997
 30
0.0
  0
VERTEX
  5
2D65
  8
0
 10
199.6488252560490935
 20
201.291787771950311
 30
0.0
  0
VERTEX
  5
2D66
  8
0
 10
199.5056981668064964
 20
201.1931481021734953
 30
0.0
  0
VERTEX
  5
2D67
  8
0
 10
199.3531399014694045
 20
201.0952499595786946
 30
0.0
  0
VERTEX
  5
2D68
  8
0
 10
199.191135143844491
 20
200.9981419796949922
 30
0.0
  0
VERTEX
  5
2D69
  8
0
 10
199.0196717454658994
 20
200.9018727951275025
 30
0.0
  0
VERTEX
  5
2D6A
  8
0
 10
198.8387951362585966
 20
200.8064909853295035
 30
0.0
  0
VERTEX
  5
2D6B
  8
0
 10
198.6486009318905133
 20
200.7120450834266876
 30
0.0
  0
VERTEX
  5
2D6C
  8
0
 10
198.4491864284698863
 20
200.6185836209936042
 30
0.0
  0
VERTEX
  5
2D6D
  8
0
 10
198.240648891174402
 20
200.5261551187066971
 30
0.0
  0
VERTEX
  5
2D6E
  8
0
 10
198.0230841354971005
 20
200.434807586459101
 30
0.0
  0
VERTEX
  5
2D6F
  8
0
 10
197.7965859367253927
 20
200.3445883152963063
 30
0.0
  0
VERTEX
  5
2D70
  8
0
 10
197.561247916771805
 20
200.2555445422235891
 30
0.0
  0
VERTEX
  5
2D71
  8
0
 10
197.3171637229661997
 20
200.1677235023942103
 30
0.0
  0
VERTEX
  5
2D72
  8
0
 10
197.0644353512772113
 20
200.0811718227072902
 30
0.0
  0
VERTEX
  5
2D73
  8
0
 10
196.8031851447443898
 20
199.995934647640496
 30
0.0
  0
VERTEX
  5
2D74
  8
0
 10
196.5335384874811098
 20
199.9120569001096044
 30
0.0
  0
VERTEX
  5
2D75
  8
0
 10
196.2556207636002057
 20
199.8295835030297951
 30
0.0
  0
VERTEX
  5
2D76
  8
0
 10
195.9695607273372957
 20
199.7485588090736996
 30
0.0
  0
VERTEX
  5
2D77
  8
0
 10
195.6755032893177031
 20
199.6690244371669962
 30
0.0
  0
VERTEX
  5
2D78
  8
0
 10
195.3735981959366939
 20
199.5910211879970859
 30
0.0
  0
VERTEX
  5
2D79
  8
0
 10
195.0639951944768029
 20
199.5145898621013032
 30
0.0
  0
VERTEX
  5
2D7A
  8
0
 10
194.7468440550086086
 20
199.4397713407728077
 30
0.0
  0
VERTEX
  5
2D7B
  8
0
 10
194.4222948087887062
 20
199.3666074308902978
 30
0.0
  0
VERTEX
  5
2D7C
  8
0
 10
194.0904976538292885
 20
199.2951405302763987
 30
0.0
  0
VERTEX
  5
2D7D
  8
0
 10
193.7516027908442027
 20
199.2254130463275033
 30
0.0
  0
VERTEX
  5
2D7E
  8
0
 10
193.405760700498405
 20
199.1574673452074933
 30
0.0
  0
VERTEX
  5
2D7F
  8
0
 10
193.0531343334646124
 20
199.0913439564392036
 30
0.0
  0
VERTEX
  5
2D80
  8
0
 10
192.6939038223528939
 20
199.0270808789099988
 30
0.0
  0
VERTEX
  5
2D81
  8
0
 10
192.3282505525671127
 20
198.9647159269896974
 30
0.0
  0
VERTEX
  5
2D82
  8
0
 10
191.9563559150001026
 20
198.9042869126423057
 30
0.0
  0
VERTEX
  5
2D83
  8
0
 10
191.5784057880229057
 20
198.8458296808574062
 30
0.0
  0
VERTEX
  5
2D84
  8
0
 10
191.194598645872702
 20
198.7893745555400073
 30
0.0
  0
VERTEX
  5
2D85
  8
0
 10
190.8051351563279923
 20
198.7349508991109133
 30
0.0
  0
VERTEX
  5
2D86
  8
0
 10
190.4102159871677884
 20
198.682588073990587
 30
0.0
  0
VERTEX
  5
2D87
  8
0
 10
190.010042730393593
 20
198.6323169951737952
 30
0.0
  0
VERTEX
  5
2D88
  8
0
 10
189.1947629074983013
 20
198.5382116771075971
 30
0.0
  0
VERTEX
  5
2D89
  8
0
 10
188.360965140213608
 20
198.4529697534661068
 30
0.0
  0
VERTEX
  5
2D8A
  8
0
 10
187.5104670830284874
 20
198.3767144468567096
 30
0.0
  0
VERTEX
  5
2D8B
  8
0
 10
186.6453101849795928
 20
198.3092419911127138
 30
0.0
  0
VERTEX
  5
2D8C
  8
0
 10
185.7672728815535095
 20
198.2509097825031859
 30
0.0
  0
VERTEX
  5
2D8D
  8
0
 10
184.877553965698894
 20
198.2032857284038982
 30
0.0
  0
VERTEX
  5
2D8E
  8
0
 10
183.9781922238892093
 20
198.1663452796323952
 30
0.0
  0
VERTEX
  5
2D8F
  8
0
 10
183.0737860825041139
 20
198.1351727332051098
 30
0.0
  0
SEQEND
  5
2D90
  8
0
  0
POLYLINE
  5
2BFD
  8
0
 66
     1
 10
0.0
 20
0.0
 30
0.0
  0
VERTEX
  5
2D91
  8
0
 10
194.323786365712607
 20
198.4152237750207917
 30
0.0
  0
VERTEX
  5
2D92
  8
0
 10
195.0527229369673989
 20
198.5550288944845931
 30
0.0
  0
VERTEX
  5
2D93
  8
0
 10
195.7625991275565127
 20
198.699618825106711
 30
0.0
  0
VERTEX
  5
2D94
  8
0
 10
196.4403614742194009
 20
198.852068287429006
 30
0.0
  0
VERTEX
  5
2D95
  8
0
 10
197.0874187199694063
 20
199.0113354092113127
 30
0.0
  0
VERTEX
  5
2D96
  8
0
 10
197.7051624629573041
 20
199.1764166434375056
 30
0.0
  0
VERTEX
  5
2D97
  8
0
 10
198.291772927453593
 20
199.347271416587688
 30
0.0
  0
VERTEX
  5
2D98
  8
0
 10
198.8458401233984887
 20
199.5237160862810981
 30
0.0
  0
VERTEX
  5
2D99
  8
0
 10
199.3666011182411921
 20
199.7053535976143053
 30
0.0
  0
VERTEX
  5
2D9A
  8
0
 10
199.6142614407704912
 20
199.797993170139506
 30
0.0
  0
VERTEX
  5
2D9B
  8
0
 10
199.853318063114699
 20
199.8917843952023929
 30
0.0
  0
VERTEX
  5
2D9C
  8
0
 10
200.0836774756066916
 20
199.9866865003687906
 30
0.0
  0
VERTEX
  5
2D9D
  8
0
 10
200.305246144491008
 20
200.0826588860076072
 30
0.0
  0
VERTEX
  5
2D9E
  8
0
 10
200.5179305360119884
 20
200.1796609524876942
 30
0.0
  0
VERTEX
  5
2D9F
  8
0
 10
200.7216371165295072
 20
200.2776521001594858
 30
0.0
  0
VERTEX
  5
2DA0
  8
0
 10
200.9162778214927982
 20
200.3765908408122982
 30
0.0
  0
VERTEX
  5
2DA1
  8
0
 10
201.1017846765406034
 20
200.4764324221910954
 30
0.0
  0
VERTEX
  5
2DA2
  8
0
 10
201.2780943192306893
 20
200.57713134274411
 30
0.0
  0
VERTEX
  5
2DA3
  8
0
 10
201.4451433871211066
 20
200.6786421009194896
 30
0.0
  0
VERTEX
  5
2DA4
  8
0
 10
201.6028685177697071
 20
200.7809191951656089
 30
0.0
  0
VERTEX
  5
2DA5
  8
0
 10
201.7512069739119056
 20
200.8839171315532042
 30
0.0
  0
VERTEX
  5
2DA6
  8
0
 10
201.8901093739112014
 20
200.9875905789955084
 30
0.0
  0
VERTEX
  5
2DA7
  8
0
 10
202.0195391467657942
 20
201.0918943626024031
 30
0.0
  0
VERTEX
  5
2DA8
  8
0
 10
202.1394602375929139
 20
201.1967833137771038
 30
0.0
  0
VERTEX
  5
2DA9
  8
0
 10
202.2498365915101033
 20
201.3022122639225984
 30
0.0
  0
VERTEX
  5
2DAA
  8
0
 10
202.3506321536349049
 20
201.4081360444419886
 30
0.0
  0
VERTEX
  5
2DAB
  8
0
 10
202.4418105839648945
 20
201.5145093527700908
 30
0.0
  0
VERTEX
  5
2DAC
  8
0
 10
202.5233343127175942
 20
201.6212863085085871
 30
0.0
  0
VERTEX
  5
2DAD
  8
0
 10
202.5951654386194036
 20
201.7284208755025929
 30
0.0
  0
VERTEX
  5
2DAE
  8
0
 10
202.6572660603920042
 20
201.8358670175950067
 30
0.0
  0
VERTEX
  5
2DAF
  8
0
 10
202.7095982767569069
 20
201.9435786986286132
 30
0.0
  0
VERTEX
  5
2DB0
  8
0
 10
202.7521248451151052
 20
202.0515099114371083
 30
0.0
  0
VERTEX
  5
2DB1
  8
0
 10
202.7848319361254141
 20
202.1596156793519015
 30
0.0
  0
VERTEX
  5
2DB2
  8
0
 10
202.8077349239923137
 20
202.2678523110529056
 30
0.0
  0
VERTEX
  5
2DB3
  8
0
 10
202.8208510174152934
 20
202.3761761959621879
 30
0.0
  0
VERTEX
  5
2DB4
  8
0
 10
202.8241974250933879
 20
202.4845437235022132
 30
0.0
  0
VERTEX
  5
2DB5
  8
0
 10
202.8177913557258023
 20
202.5929112830951908
 30
0.0
  0
VERTEX
  5
2DB6
  8
0
 10
202.8016393485407036
 20
202.701233900321995
 30
0.0
  0
VERTEX
  5
2DB7
  8
0
 10
202.7756906368796876
 20
202.8094592755508074
 30
0.0
  0
VERTEX
  5
2DB8
  8
0
 10
202.7398752972875116
 20
202.9175326604029124
 30
0.0
  0
VERTEX
  5
2DB9
  8
0
 10
202.6941233927622932
 20
203.0253993047682002
 30
0.0
  0
VERTEX
  5
2DBA
  8
0
 10
202.6383649863026051
 20
203.1330044585365044
 30
0.0
  0
VERTEX
  5
2DBB
  8
0
 10
202.5725354880080999
 20
203.2402939096924115
 30
0.0
  0
VERTEX
  5
2DBC
  8
0
 10
202.4967527362587134
 20
203.3472318045280076
 30
0.0
  0
VERTEX
  5
2DBD
  8
0
 10
202.4113578009524872
 20
203.4538047537953105
 30
0.0
  0
VERTEX
  5
2DBE
  8
0
 10
202.3167053641097937
 20
203.5600007380749048
 30
0.0
  0
VERTEX
  5
2DBF
  8
0
 10
202.2131501077502094
 20
203.6658077379476879
 30
0.0
  0
VERTEX
  5
2DC0
  8
0
 10
201.9805274505928878
 20
203.8761832689253879
 30
0.0
  0
VERTEX
  5
2DC1
  8
0
 10
201.8507266169592071
 20
203.9805757199935954
 30
0.0
  0
VERTEX
  5
2DC2
  8
0
 10
201.7104987240462037
 20
204.0842209805292953
 30
0.0
  0
VERTEX
  5
2DC3
  8
0
 10
201.5586982689005993
 20
204.1869489423862944
 30
0.0
  0
VERTEX
  5
2DC4
  8
0
 10
201.3941797485686891
 20
204.2885894974189114
 30
0.0
  0
VERTEX
  5
2DC5
  8
0
 10
201.2159107285081916
 20
204.3889844167848935
 30
0.0
  0
VERTEX
  5
2DC6
  8
0
 10
201.0253973023021956
 20
204.4882421769663097
 30
0.0
  0
VERTEX
  5
2DC7
  8
0
 10
200.6237859924547138
 20
204.6848438239115069
 30
0.0
  0
SEQEND
  5
2DC8
  8
0
  0
POLYLINE
  5
2BFE
  8
0
 66
     1
 10
0.0
 20
0.0
 30
0.0
  0
VERTEX
  5
2DC9
  8
0
 10
200.623785992454799
 20
167.8152984725178101
 30
0.0
  0
VERTEX
  5
2DCA
  8
0
 10
201.0245451542874093
 20
168.0120028927229896
 30
0.0
  0
VERTEX
  5
2DCB
  8
0
 10
201.2149809832714027
 20
168.1112747670134127
 30
0.0
  0
VERTEX
  5
2DCC
  8
0
 10
201.3935387349389998
 20
168.2116445248178138
 30
0.0
  0
VERTEX
  5
2DCD
  8
0
 10
201.5584037033206073
 20
168.3132529826291091
 30
0.0
  0
VERTEX
  5
2DCE
  8
0
 10
201.7104957547992115
 20
168.4159538828189113
 30
0.0
  0
VERTEX
  5
2DCF
  8
0
 10
201.8509170824777073
 20
168.5195818271853909
 30
0.0
  0
VERTEX
  5
2DD0
  8
0
 10
201.9807698794589896
 20
168.6239714175268887
 30
0.0
  0
VERTEX
  5
2DD1
  8
0
 10
202.1011563388460104
 20
168.7289572556418022
 30
0.0
  0
VERTEX
  5
2DD2
  8
0
 10
202.2130199186092057
 20
168.8343906613874026
 30
0.0
  0
VERTEX
  5
2DD3
  8
0
 10
202.3163648518988111
 20
168.9402218742247044
 30
0.0
  0
VERTEX
  5
2DD4
  8
0
 10
202.4108511928992868
 20
169.0464373827059887
 30
0.0
  0
VERTEX
  5
2DD5
  8
0
 10
202.4961384764744139
 20
169.153023730078786
 30
0.0
  0
VERTEX
  5
2DD6
  8
0
 10
202.571886237487405
 20
169.259967459590797
 30
0.0
  0
VERTEX
  5
2DD7
  8
0
 10
202.6377563184013013
 20
169.3672548831108031
 30
0.0
  0
VERTEX
  5
2DD8
  8
0
 10
202.6935594596320129
 20
169.4748573827938003
 30
0.0
  0
VERTEX
  5
2DD9
  8
0
 10
202.7393434066266025
 20
169.5827225767517064
 30
0.0
  0
VERTEX
  5
2DDA
  8
0
 10
202.7751770362430079
 20
169.6907959642900892
 30
0.0
  0
VERTEX
  5
2DDB
  8
0
 10
202.8011292253387126
 20
169.7990230447146871
 30
0.0
  0
VERTEX
  5
2DDC
  8
0
 10
202.8172688507715122
 20
169.9073493173310965
 30
0.0
  0
VERTEX
  5
2DDD
  8
0
 10
202.8236571896576095
 20
170.0157212818756136
 30
0.0
  0
VERTEX
  5
2DDE
  8
0
 10
202.8203021950803873
 20
170.1240924576634939
 30
0.0
  0
VERTEX
  5
2DDF
  8
0
 10
202.8071889889116903
 20
170.2324193695122858
 30
0.0
  0
VERTEX
  5
2DE0
  8
0
 10
202.7843026063472109
 20
170.3406585536498881
 30
0.0
  0
VERTEX
  5
2DE1
  8
0
 10
202.7516280825824992
 20
170.4487665463038866
 30
0.0
  0
VERTEX
  5
2DE2
  8
0
 10
202.7091507699944088
 20
170.556699863953213
 30
0.0
  0
VERTEX
  5
2DE3
  8
0
 10
202.6568738152994911
 20
170.6644139151426884
 30
0.0
  0
VERTEX
  5
2DE4
  8
0
 10
202.5948272580070011
 20
170.7718624339844098
 30
0.0
  0
VERTEX
  5
2DE5
  8
0
 10
202.5230433723519923
 20
170.8789990154483007
 30
0.0
  0
VERTEX
  5
2DE6
  8
0
 10
202.4415544325696885
 20
170.9857772545047965
 30
0.0
  0
VERTEX
  5
2DE7
  8
0
 10
202.3503927128952
 20
171.0921507461243039
 30
0.0
  0
VERTEX
  5
2DE8
  8
0
 10
202.2495914225476099
 20
171.1980733115831868
 30
0.0
  0
VERTEX
  5
2DE9
  8
0
 10
202.1391890147839092
 20
171.3035000414396904
 30
0.0
  0
VERTEX
  5
2DEA
  8
0
 10
202.0192257699418974
 20
171.4083864684839114
 30
0.0
  0
VERTEX
  5
2DEB
  8
0
 10
201.8897419702281013
 20
171.5126881259581921
 30
0.0
  0
VERTEX
  5
2DEC
  8
0
 10
201.7507778978489057
 20
171.6163605471049891
 30
0.0
  0
VERTEX
  5
2DED
  8
0
 10
201.6023742668278089
 20
171.7193592273675904
 30
0.0
  0
VERTEX
  5
2DEE
  8
0
 10
201.4445853078472908
 20
171.8216384790123925
 30
0.0
  0
VERTEX
  5
2DEF
  8
0
 10
201.2774811227338034
 20
171.9231512250293008
 30
0.0
  0
VERTEX
  5
2DF0
  8
0
 10
201.1011327198380059
 20
172.0238503090560869
 30
0.0
  0
VERTEX
  5
2DF1
  8
0
 10
200.9156111075105002
 20
172.1236885747302949
 30
0.0
  0
VERTEX
  5
2DF2
  8
0
 10
200.7209872941016044
 20
172.2226188656898103
 30
0.0
  0
VERTEX
  5
2DF3
  8
0
 10
200.5173327597308059
 20
172.3205950851624095
 30
0.0
  0
VERTEX
  5
2DF4
  8
0
 10
200.3047209892579019
 20
172.4175756390148138
 30
0.0
  0
VERTEX
  5
2DF5
  8
0
 10
200.0832259999559994
 20
172.5135201289108124
 30
0.0
  0
VERTEX
  5
2DF6
  8
0
 10
199.8529220409560025
 20
172.6083881597216987
 30
0.0
  0
VERTEX
  5
2DF7
  8
0
 10
199.6138979513791014
 20
172.7021395375541033
 30
0.0
  0
VERTEX
  5
2DF8
  8
0
 10
199.3662655839970057
 20
172.7947343859358114
 30
0.0
  0
VERTEX
  5
2DF9
  8
0
 10
198.8456291819694002
 20
172.9762944375875975
 30
0.0
  0
VERTEX
  5
2DFA
  8
0
 10
198.2917753243561094
 20
173.1527076924562039
 30
0.0
  0
VERTEX
  5
2DFB
  8
0
 10
197.7052718360295103
 20
173.3235582076447088
 30
0.0
  0
VERTEX
  5
2DFC
  8
0
 10
197.0875003487062997
 20
173.4886472717778929
 30
0.0
  0
VERTEX
  5
2DFD
  8
0
 10
196.4404115465077041
 20
173.6479224114578983
 30
0.0
  0
VERTEX
  5
2DFE
  8
0
 10
195.7626270886661928
 20
173.8003716052982099
 30
0.0
  0
VERTEX
  5
2DFF
  8
0
 10
195.0527277279761904
 20
173.9449622192659888
 30
0.0
  0
VERTEX
  5
2E00
  8
0
 10
194.3237863719132008
 20
174.0847761550780888
 30
0.0
  0
SEQEND
  5
2E01
  8
0
  0
POLYLINE
  5
2BFF
  8
0
 66
     1
 10
0.0
 20
0.0
 30
0.0
  0
VERTEX
  5
2E02
  8
0
 10
183.0737859932725087
 20
174.3648272715554128
 30
0.0
  0
VERTEX
  5
2E03
  8
0
 10
183.9781907982323048
 20
174.3336676360077888
 30
0.0
  0
VERTEX
  5
2E04
  8
0
 10
184.8775436476796017
 20
174.2967254430419928
 30
0.0
  0
VERTEX
  5
2E05
  8
0
 10
185.7672477683096872
 20
174.2490879839349134
 30
0.0
  0
VERTEX
  5
2E06
  8
0
 10
186.6452766072665952
 20
174.1907542158033948
 30
0.0
  0
VERTEX
  5
2E07
  8
0
 10
187.5104300925563905
 20
174.1232894057600049
 30
0.0
  0
VERTEX
  5
2E08
  8
0
 10
188.3609225792610005
 20
174.0470371138121948
 30
0.0
  0
VERTEX
  5
2E09
  8
0
 10
188.7800269120338044
 20
174.0055433363197039
 30
0.0
  0
VERTEX
  5
2E0A
  8
0
 10
189.1947123671760096
 20
173.9617938147763994
 30
0.0
  0
VERTEX
  5
2E0B
  8
0
 10
189.6047682382910864
 20
173.9158281142688054
 30
0.0
  0
VERTEX
  5
2E0C
  8
0
 10
190.0099859690967037
 20
173.8676889464879878
 30
0.0
  0
VERTEX
  5
2E0D
  8
0
 10
190.4101570077145027
 20
173.8174190147421996
 30
0.0
  0
VERTEX
  5
2E0E
  8
0
 10
190.8050746090337952
 20
173.7650575831148956
 30
0.0
  0
VERTEX
  5
2E0F
  8
0
 10
191.1945366076948005
 20
173.710635198024903
 30
0.0
  0
VERTEX
  5
2E10
  8
0
 10
191.5783415530544005
 20
173.6541810454114909
 30
0.0
  0
VERTEX
  5
2E11
  8
0
 10
191.9562879944691929
 20
173.5957243112140134
 30
0.0
  0
VERTEX
  5
2E12
  8
0
 10
192.3281774591681028
 20
173.5352954038530129
 30
0.0
  0
VERTEX
  5
2E13
  8
0
 10
192.6938260101530034
 20
173.4729306990014095
 30
0.0
  0
VERTEX
  5
2E14
  8
0
 10
193.0530541388611994
 20
173.4086683903011874
 30
0.0
  0
VERTEX
  5
2E15
  8
0
 10
193.4056823377906085
 20
173.3425466718298935
 30
0.0
  0
VERTEX
  5
2E16
  8
0
 10
193.7515321348610939
 20
173.2746038516272051
 30
0.0
  0
VERTEX
  5
2E17
  8
0
 10
194.0904362551860061
 20
173.2048794701329939
 30
0.0
  0
VERTEX
  5
2E18
  8
0
 10
194.422234268214396
 20
173.1334138210972924
 30
0.0
  0
VERTEX
  5
2E19
  8
0
 10
194.746765841562393
 20
173.060247209074987
 30
0.0
  0
VERTEX
  5
2E1A
  8
0
 10
195.0638708619040926
 20
172.9854199688533924
 30
0.0
  0
VERTEX
  5
2E1B
  8
0
 10
195.373397540486593
 20
172.9089735841106972
 30
0.0
  0
VERTEX
  5
2E1C
  8
0
 10
195.6752047930822869
 20
172.8309510158779005
 30
0.0
  0
VERTEX
  5
2E1D
  8
0
 10
195.9691522399662063
 20
172.7513953224157035
 30
0.0
  0
VERTEX
  5
2E1E
  8
0
 10
196.2550995059698096
 20
172.6703495625002915
 30
0.0
  0
VERTEX
  5
2E1F
  8
0
 10
196.5329107234682908
 20
172.5878573046078088
 30
0.0
  0
VERTEX
  5
2E20
  8
0
 10
196.8024629803967116
 20
172.5039635821929096
 30
0.0
  0
VERTEX
  5
2E21
  8
0
 10
197.0636356780026119
 20
172.4187136902928046
 30
0.0
  0
VERTEX
  5
2E22
  8
0
 10
197.3163082175339014
 20
172.3321529239449887
 30
0.0
  0
VERTEX
  5
2E23
  8
0
 10
197.5603621564050911
 20
172.244326683017988
 30
0.0
  0
VERTEX
  5
2E24
  8
0
 10
197.7956941679545935
 20
172.1552811023049969
 30
0.0
  0
VERTEX
  5
2E25
  8
0
 10
198.0222073926312873
 20
172.0650626310251141
 30
0.0
  0
VERTEX
  5
2E26
  8
0
 10
198.2398049953432064
 20
171.9737177195868867
 30
0.0
  0
VERTEX
  5
2E27
  8
0
 10
198.4483902416519925
 20
171.8812928784246878
 30
0.0
  0
VERTEX
  5
2E28
  8
0
 10
198.6478686083513026
 20
171.7878359366683014
 30
0.0
  0
VERTEX
  5
2E29
  8
0
 10
198.8381477272891971
 20
171.6933960086408035
 30
0.0
  0
VERTEX
  5
2E2A
  8
0
 10
199.0191353197295996
 20
171.598022261989513
 30
0.0
  0
VERTEX
  5
2E2B
  8
0
 10
199.1907392174975087
 20
171.5017638622805123
 30
0.0
  0
VERTEX
  5
2E2C
  8
0
 10
199.3528967351736014
 20
171.4046694201202001
 30
0.0
  0
VERTEX
  5
2E2D
  8
0
 10
199.5056142169540863
 20
171.3067862467555074
 30
0.0
  0
VERTEX
  5
2E2E
  8
0
 10
199.6489078725271042
 20
171.2081614677331061
 30
0.0
  0
VERTEX
  5
2E2F
  8
0
 10
199.7827939115805975
 20
171.1088422086000946
 30
0.0
  0
VERTEX
  5
2E30
  8
0
 10
199.907242950946312
 20
171.0088760700558055
 30
0.0
  0
VERTEX
  5
2E31
  8
0
 10
200.0219640616764991
 20
170.9083133785368886
 30
0.0
  0
VERTEX
  5
2E32
  8
0
 10
200.1265732223176883
 20
170.8072054306572056
 30
0.0
  0
VERTEX
  5
2E33
  8
0
 10
200.2206862983748863
 20
170.7056035242086978
 30
0.0
  0
VERTEX
  5
2E34
  8
0
 10
200.3039853339489014
 20
170.6035585854399983
 30
0.0
  0
VERTEX
  5
2E35
  8
0
 10
200.377049355642896
 20
170.5011165047137069
 30
0.0
  0
VERTEX
  5
2E36
  8
0
 10
200.4411031048510949
 20
170.398319547186901
 30
0.0
  0
VERTEX
  5
2E37
  8
0
 10
200.4973855400012042
 20
170.2952098981988058
 30
0.0
  0
VERTEX
  5
2E38
  8
0
 10
200.5470690192667007
 20
170.1918301557500115
 30
0.0
  0
VERTEX
  5
2E39
  8
0
 10
200.5888153992164007
 20
170.0882384731550871
 30
0.0
  0
VERTEX
  5
2E3A
  8
0
 10
200.6180700531274965
 20
169.9845129333743046
 30
0.0
  0
VERTEX
  5
2E3B
  8
0
 10
200.6265238744086901
 20
169.9326247755901989
 30
0.0
  0
VERTEX
  5
2E3C
  8
0
 10
200.6300678340882939
 20
169.8807329237710917
 30
0.0
  0
VERTEX
  5
2E3D
  8
0
 10
200.6281062888025133
 20
169.8288473013371913
 30
0.0
  0
VERTEX
  5
2E3E
  8
0
 10
200.6202420320936142
 20
169.7769770590278995
 30
0.0
  0
SEQEND
  5
2E3F
  8
0
  0
POLYLINE
  5
2C00
  8
0
 66
     1
 10
0.0
 20
0.0
 30
0.0
  0
VERTEX
  5
2E40
  8
0
 10
161.0360490641708964
 20
169.7770284867413864
 30
0.0
  0
VERTEX
  5
2E41
  8
0
 10
161.0247511842719064
 20
169.880804330620407
 30
0.0
  0
VERTEX
  5
2E42
  8
0
 10
161.032850302373987
 20
169.9845723346614932
 30
0.0
  0
VERTEX
  5
2E43
  8
0
 10
161.0588452695228057
 20
170.0882728023192101
 30
0.0
  0
VERTEX
  5
2E44
  8
0
 10
161.0988590193003915
 20
170.1918401414409061
 30
0.0
  0
VERTEX
  5
2E45
  8
0
 10
161.1490147717873072
 20
170.295208761077987
 30
0.0
  0
VERTEX
  5
2E46
  8
0
 10
161.206433796209808
 20
170.3983172641810881
 30
0.0
  0
VERTEX
  5
2E47
  8
0
 10
161.2714709851599082
 20
170.5011178417007898
 30
0.0
  0
VERTEX
  5
2E48
  8
0
 10
161.3451349422863075
 20
170.6035654315448085
 30
0.0
  0
VERTEX
  5
2E49
  8
0
 10
161.4284342712377907
 20
170.705614971620605
 30
0.0
  0
VERTEX
  5
2E4A
  8
0
 10
161.5222177885636938
 20
170.8072207700456886
 30
0.0
  0
VERTEX
  5
2E4B
  8
0
 10
161.6264606510254112
 20
170.9083336914636106
 30
0.0
  0
VERTEX
  5
2E4C
  8
0
 10
161.7408409247279906
 20
171.0089034295546071
 30
0.0
  0
VERTEX
  5
2E4D
  8
0
 10
161.8650364295448867
 20
171.1088796770281988
 30
0.0
  0
VERTEX
  5
2E4E
  8
0
 10
161.9987465008611025
 20
171.2082122331694904
 30
0.0
  0
VERTEX
  5
2E4F
  8
0
 10
162.1418735906065081
 20
171.3068519033840005
 30
0.0
  0
VERTEX
  5
2E50
  8
0
 10
162.2944318566217135
 20
171.4047500464033078
 30
0.0
  0
VERTEX
  5
2E51
  8
0
 10
162.4564366150860906
 20
171.5018580266967092
 30
0.0
  0
VERTEX
  5
2E52
  8
0
 10
162.6279000144556903
 20
171.5981272116576974
 30
0.0
  0
VERTEX
  5
2E53
  8
0
 10
162.8087766248154082
 20
171.693509021831602
 30
0.0
  0
VERTEX
  5
2E54
  8
0
 10
162.9989708304962903
 20
171.7879549240915082
 30
0.0
  0
VERTEX
  5
2E55
  8
0
 10
163.198385335387286
 20
171.8814163868615026
 30
0.0
  0
VERTEX
  5
2E56
  8
0
 10
163.4069228743078099
 20
171.9738448894640896
 30
0.0
  0
VERTEX
  5
2E57
  8
0
 10
163.6244876317595072
 20
172.0651924220044862
 30
0.0
  0
VERTEX
  5
2E58
  8
0
 10
163.8509858324484014
 20
172.1554116934364913
 30
0.0
  0
VERTEX
  5
2E59
  8
0
 10
164.0863238544550029
 20
172.244455466753692
 30
0.0
  0
VERTEX
  5
2E5A
  8
0
 10
164.330408050442287
 20
172.3322765068016054
 30
0.0
  0
VERTEX
  5
2E5B
  8
0
 10
164.5831364244378108
 20
172.4188281866802015
 30
0.0
  0
VERTEX
  5
2E5C
  8
0
 10
164.8443866333961978
 20
172.50406536191079
 30
0.0
  0
VERTEX
  5
2E5D
  8
0
 10
165.1140332931971955
 20
172.5879431095771963
 30
0.0
  0
VERTEX
  5
2E5E
  8
0
 10
165.3919510197202953
 20
172.6704165067635017
 30
0.0
  0
VERTEX
  5
2E5F
  8
0
 10
165.678011058724195
 20
172.7514412007961937
 30
0.0
  0
VERTEX
  5
2E60
  8
0
 10
165.9720684995783984
 20
172.8309755727489119
 30
0.0
  0
VERTEX
  5
2E61
  8
0
 10
166.2739735958809888
 20
172.9089788219336015
 30
0.0
  0
VERTEX
  5
2E62
  8
0
 10
166.5835766003428944
 20
172.985410147812587
 30
0.0
  0
VERTEX
  5
2E63
  8
0
 10
166.9007277428871134
 20
173.0602286690923961
 30
0.0
  0
VERTEX
  5
2E64
  8
0
 10
167.2252769922519917
 20
173.1333925788933072
 30
0.0
  0
VERTEX
  5
2E65
  8
0
 10
167.5570741504214141
 20
173.2048594793915015
 30
0.0
  0
VERTEX
  5
2E66
  8
0
 10
167.8959690166778103
 20
173.2745869631893925
 30
0.0
  0
VERTEX
  5
2E67
  8
0
 10
168.2418111103523017
 20
173.3425326641221034
 30
0.0
  0
VERTEX
  5
2E68
  8
0
 10
168.5944374807671977
 20
173.4086560526658047
 30
0.0
  0
VERTEX
  5
2E69
  8
0
 10
168.9536679953033058
 20
173.4729191299338993
 30
0.0
  0
VERTEX
  5
2E6A
  8
0
 10
169.3193212685465028
 20
173.5352840815569948
 30
0.0
  0
VERTEX
  5
2E6B
  8
0
 10
169.6912159095940922
 20
173.5957130955719947
 30
0.0
  0
VERTEX
  5
2E6C
  8
0
 10
170.0691660400661078
 20
173.6541703269894867
 30
0.0
  0
VERTEX
  5
2E6D
  8
0
 10
170.4529731857176102
 20
173.7106254519052868
 30
0.0
  0
VERTEX
  5
2E6E
  8
0
 10
170.8424366787623114
 20
173.765049107899614
 30
0.0
  0
VERTEX
  5
2E6F
  8
0
 10
171.2373558514134118
 20
173.8174119325524032
 30
0.0
  0
VERTEX
  5
2E70
  8
0
 10
171.6375291116617063
 20
173.8676830108703086
 30
0.0
  0
VERTEX
  5
2E71
  8
0
 10
172.4528089414247916
 20
173.9617883278498027
 30
0.0
  0
VERTEX
  5
2E72
  8
0
 10
173.2866067154197935
 20
174.0470302502943127
 30
0.0
  0
VERTEX
  5
2E73
  8
0
 10
174.1371047791116098
 20
174.1232855556046957
 30
0.0
  0
VERTEX
  5
2E74
  8
0
 10
175.0022616834343125
 20
174.1907580099617121
 30
0.0
  0
VERTEX
  5
2E75
  8
0
 10
175.8802989928541933
 20
174.249090217114599
 30
0.0
  0
VERTEX
  5
2E76
  8
0
 10
176.7700179143425885
 20
174.2967142697002032
 30
0.0
  0
VERTEX
  5
2E77
  8
0
 10
177.6693796614119947
 20
174.3336547169103881
 30
0.0
  0
VERTEX
  5
2E78
  8
0
 10
178.5737858078539091
 20
174.3648272617504063
 30
0.0
  0
SEQEND
  5
2E79
  8
0
  0
POLYLINE
  5
2C01
  8
0
 66
     1
 10
0.0
 20
0.0
 30
0.0
  0
VERTEX
  5
2E7A
  8
0
 10
167.3237844350678927
 20
174.0847760103546875
 30
0.0
  0
VERTEX
  5
2E7B
  8
0
 10
166.5948479499791972
 20
173.9449708863490969
 30
0.0
  0
VERTEX
  5
2E7C
  8
0
 10
165.8849718441034895
 20
173.8003809522533061
 30
0.0
  0
VERTEX
  5
2E7D
  8
0
 10
165.207209580492389
 20
173.6479314879769049
 30
0.0
  0
VERTEX
  5
2E7E
  8
0
 10
164.5601524164441116
 20
173.48866436543031
 30
0.0
  0
VERTEX
  5
2E7F
  8
0
 10
163.9424087531799898
 20
173.32358313157971
 30
0.0
  0
VERTEX
  5
2E80
  8
0
 10
163.355798365917309
 20
173.1527283600026976
 30
0.0
  0
VERTEX
  5
2E81
  8
0
 10
162.8017312446166898
 20
172.9762836930013066
 30
0.0
  0
VERTEX
  5
2E82
  8
0
 10
162.2809703217164952
 20
172.7946461853888138
 30
0.0
  0
VERTEX
  5
2E83
  8
0
 10
162.0333100341024988
 20
172.7020066150847128
 30
0.0
  0
VERTEX
  5
2E84
  8
0
 10
161.794253445934288
 20
172.6082153924766942
 30
0.0
  0
VERTEX
  5
2E85
  8
0
 10
161.5638940668397936
 20
172.5133132899948976
 30
0.0
  0
VERTEX
  5
2E86
  8
0
 10
161.3423254305349985
 20
172.4173409072660093
 30
0.0
  0
VERTEX
  5
2E87
  8
0
 10
161.129641070735687
 20
172.3203388439162893
 30
0.0
  0
VERTEX
  5
2E88
  8
0
 10
160.9259345210425067
 20
172.2223476995910971
 30
0.0
  0
VERTEX
  5
2E89
  8
0
 10
160.7312938459791098
 20
172.1234089624940111
 30
0.0
  0
VERTEX
  5
2E8A
  8
0
 10
160.5457870198862906
 20
172.0235673848713134
 30
0.0
  0
VERTEX
  5
2E8B
  8
0
 10
160.3694774051787135
 20
171.9228684682668131
 30
0.0
  0
VERTEX
  5
2E8C
  8
0
 10
160.2024283642707871
 20
171.8213577142242059
 30
0.0
  0
VERTEX
  5
2E8D
  8
0
 10
160.0447032595768917
 20
171.7190806242873862
 30
0.0
  0
VERTEX
  5
2E8E
  8
0
 10
159.896364828337795
 20
171.6160826923774039
 30
0.0
  0
VERTEX
  5
2E8F
  8
0
 10
159.7574624521980979
 20
171.512409249573011
 30
0.0
  0
VERTEX
  5
2E90
  8
0
 10
159.6280327021744085
 20
171.408105470754407
 30
0.0
  0
VERTEX
  5
2E91
  8
0
 10
159.5081116331618887
 20
171.3032165245095086
 30
0.0
  0
VERTEX
  5
2E92
  8
0
 10
159.3977353000558139
 20
171.1977875794258068
 30
0.0
  0
VERTEX
  5
2E93
  8
0
 10
159.296939757751403
 20
171.0918638040909059
 30
0.0
  0
VERTEX
  5
2E94
  8
0
 10
159.2057613462584982
 20
170.9854905010608945
 30
0.0
  0
VERTEX
  5
2E95
  8
0
 10
159.1242376353476118
 20
170.8787135507263883
 30
0.0
  0
VERTEX
  5
2E96
  8
0
 10
159.0524065262754903
 20
170.7715789892357066
 30
0.0
  0
VERTEX
  5
2E97
  8
0
 10
158.9903059203043085
 20
170.6641328527394137
 30
0.0
  0
VERTEX
  5
2E98
  8
0
 10
158.9379737186955879
 20
170.5564211773881027
 30
0.0
  0
VERTEX
  5
2E99
  8
0
 10
158.8954471640356019
 20
170.4484899703415977
 30
0.0
  0
VERTEX
  5
2E9A
  8
0
 10
158.862740085675
 20
170.3403842082626909
 30
0.0
  0
VERTEX
  5
2E9B
  8
0
 10
158.8398371093857975
 20
170.2321475824631136
 30
0.0
  0
VERTEX
  5
2E9C
  8
0
 10
158.8267210264376956
 20
170.123823703512187
 30
0.0
  0
VERTEX
  5
2E9D
  8
0
 10
158.823374628100396
 20
170.0154561819792889
 30
0.0
  0
VERTEX
  5
2E9E
  8
0
 10
158.8297807056437136
 20
169.9070886284335131
 30
0.0
  0
VERTEX
  5
2E9F
  8
0
 10
158.8459327197867026
 20
169.7987660172823041
 30
0.0
  0
VERTEX
  5
2EA0
  8
0
 10
158.8718814371543999
 20
169.6905406481452872
 30
0.0
  0
VERTEX
  5
2EA1
  8
0
 10
158.9076967812181067
 20
169.582467269394499
 30
0.0
  0
VERTEX
  5
2EA2
  8
0
 10
158.9534486889959055
 20
169.4746006311333133
 30
0.0
  0
VERTEX
  5
2EA3
  8
0
 10
159.0092070975057084
 20
169.366995483465189
 30
0.0
  0
VERTEX
  5
2EA4
  8
0
 10
159.0750365966931952
 20
169.2597060384017027
 30
0.0
  0
VERTEX
  5
2EA5
  8
0
 10
159.150819348408902
 20
169.1527681496654054
 30
0.0
  0
VERTEX
  5
2EA6
  8
0
 10
159.2362142827502112
 20
169.046195206495014
 30
0.0
  0
VERTEX
  5
2EA7
  8
0
 10
159.3308667176343931
 20
168.939999228294198
 30
0.0
  0
VERTEX
  5
2EA8
  8
0
 10
159.4344219709786898
 20
168.8341922344671104
 30
0.0
  0
VERTEX
  5
2EA9
  8
0
 10
159.6670446181493048
 20
168.623816715363489
 30
0.0
  0
VERTEX
  5
2EAA
  8
0
 10
159.7968454437369985
 20
168.5194242699919869
 30
0.0
  0
VERTEX
  5
2EAB
  8
0
 10
159.937073326670486
 20
168.4157790149905907
 30
0.0
  0
VERTEX
  5
2EAC
  8
0
 10
160.0888737701646107
 20
168.3130510585230866
 30
0.0
  0
VERTEX
  5
2EAD
  8
0
 10
160.2533922774343011
 20
168.2114105087530049
 30
0.0
  0
VERTEX
  5
2EAE
  8
0
 10
160.4316612838719038
 20
168.1110155946020939
 30
0.0
  0
VERTEX
  5
2EAF
  8
0
 10
160.6221746991045904
 20
168.0117578399203069
 30
0.0
  0
VERTEX
  5
2EB0
  8
0
 10
161.02378599245489
 20
167.8151562045561036
 30
0.0
  0
SEQEND
  5
2EB1
  8
0
  0
ARC
  5
2C03
  8
0
 10
142.8237859924545035
 20
208.9999999999998863
 30
0.0
 40
2.0
 50
90.0
 51
180.0
1001
GENIUS_GENODEF_13
1002
{
1000
HIER
1070
     0
1002
}
1002
{
1000
MANEDIT
1070
     0
1002
}
1002
{
1000
NOSEL
1070
     0
1002
}
1002
{
1000
BEHIND
1070
     0
1002
}
1002
{
1000
OTHER
1070
     0
1002
}
1002
{
1000
REACTOR
1002
}
1001
GENIUS_GENOBJ-N-FIL_13
1002
{
1000
OWNER
1000
GEN
1002
}
  0
ARC
  5
2C04
  8
0
 10
218.8237859924549014
 20
209.000000000000199
 30
0.0
 40
2.0
 50
0.0000000000004095
 51
90.0
1001
GENIUS_GENODEF_13
1002
{
1000
HIER
1070
     0
1002
}
1002
{
1000
MANEDIT
1070
     0
1002
}
1002
{
1000
NOSEL
1070
     0
1002
}
1002
{
1000
BEHIND
1070
     0
1002
}
1002
{
1000
OTHER
1070
     0
1002
}
1002
{
1000
REACTOR
1002
}
1001
GENIUS_GENOBJ-N-FIL_13
1002
{
1000
OWNER
1000
GEN
1002
}
  0
ARC
  5
2C05
  8
0
 10
142.8237859924545887
 20
163.499999999999801
 30
0.0
 40
2.0
 50
180.0
 51
270.0000000000003979
1001
GENIUS_GENODEF_13
1002
{
1000
HIER
1070
     0
1002
}
1002
{
1000
MANEDIT
1070
     0
1002
}
1002
{
1000
NOSEL
1070
     0
1002
}
1002
{
1000
BEHIND
1070
     0
1002
}
1002
{
1000
OTHER
1070
     0
1002
}
1002
{
1000
REACTOR
1002
}
1001
GENIUS_GENOBJ-N-FIL_13
1002
{
1000
OWNER
1000
GEN
1002
}
  0
ARC
  5
2C06
  8
0
 10
218.8237859924549866
 20
163.5
 30
0.0
 40
2.0
 50
270.0000000000003979
 51
0.0
1001
GENIUS_GENODEF_13
1002
{
1000
HIER
1070
     0
1002
}
1002
{
1000
MANEDIT
1070
     0
1002
}
1002
{
1000
NOSEL
1070
     0
1002
}
1002
{
1000
BEHIND
1070
     0
1002
}
1002
{
1000
OTHER
1070
     0
1002
}
1002
{
1000
REACTOR
1002
}
1001
GENIUS_GENOBJ-N-FIL_13
1002
{
1000
OWNER
1000
GEN
1002
}
  0
LINE
  5
2C0D
  8
1
 10
180.8237859924545887
 20
116.499999999999801
 30
0.0
 11
180.8237859924545887
 21
44.9999999999998721
 31
0.0
  0
LINE
  5
2C16
  8
1
 10
153.8230905775340034
 20
80.0000000000000568
 30
0.0
 11
207.8244814073752877
 21
80.0000000000000568
 31
0.0
  0
LINE
  5
2C7D
  8
0
 10
62.6096843773164125
 20
99.9999999999999147
 30
0.0
 11
64.341735184885323
 21
96.9999999999999147
 31
0.0
  0
LINE
  5
2C7E
  8
0
 10
67.8058368000230161
 20
102.9999999999999005
 30
0.0
 11
69.537887607591955
 21
99.9999999999999147
 31
0.0
  0
LINE
  5
2C7F
  8
0
 10
64.3417351848852803
 20
96.9999999999999289
 30
0.0
 11
67.8058368000230445
 21
96.9999999999998437
 31
0.0
  0
LINE
  5
2C80
  8
0
 10
64.3417351848852803
 20
102.999999999999801
 30
0.0
 11
67.8058368000230161
 21
102.9999999999999005
 31
0.0
  0
LINE
  5
2C81
  8
0
 10
69.537887607591955
 20
99.9999999999999147
 30
0.0
 11
67.8058368000230161
 21
96.9999999999999005
 31
0.0
  0
LINE
  5
2C82
  8
0
 10
64.3417351848852945
 20
102.999999999999801
 30
0.0
 11
62.6096843773164267
 21
99.9999999999998863
 31
0.0
  0
ENDSEC
  0
EOF
