  0
SECTION
  2
HEADER
  9
$ACADVER
  1
AC1009
  9
$INSBASE
 10
0.0
 20
0.0
 30
0.0
  9
$EXTMIN
 10
0.0
 20
-2.960436562073669
 30
0.0
  9
$EXTMAX
 10
346.9999842856968257
 20
204.9628132052015133
 30
0.0
  9
$LIMMIN
 10
0.0
 20
0.0
  9
$LIMMAX
 10
375.0
 20
270.0
  9
$ORTHOMODE
 70
     0
  9
$REGENMODE
 70
     1
  9
$FILLMODE
 70
     1
  9
$QTEXTMODE
 70
     0
  9
$MIRRTEXT
 70
     0
  9
$DRAGMODE
 70
     2
  9
$LTSCALE
 40
10.0
  9
$OSMODE
 70
    37
  9
$ATTMODE
 70
     1
  9
$TEXTSIZE
 40
0.2
  9
$TRACEWID
 40
0.05
  9
$TEXTSTYLE
  7
STANDARD
  9
$CLAYER
  8
0
  9
$CELTYPE
  6
BYLAYER
  9
$CECOLOR
 62
   256
  9
$DIMSCALE
 40
1.0
  9
$DIMASZ
 40
3.0
  9
$DIMEXO
 40
2.0
  9
$DIMDLI
 40
0.38
  9
$DIMRND
 40
0.0
  9
$DIMDLE
 40
0.0
  9
$DIMEXE
 40
2.0
  9
$DIMTP
 40
0.0
  9
$DIMTM
 40
0.0
  9
$DIMTXT
 40
3.2000000000000002
  9
$DIMCEN
 40
0.0
  9
$DIMTSZ
 40
0.0
  9
$DIMTOL
 70
     0
  9
$DIMLIM
 70
     0
  9
$DIMTIH
 70
     0
  9
$DIMTOH
 70
     0
  9
$DIMSE1
 70
     0
  9
$DIMSE2
 70
     0
  9
$DIMTAD
 70
     1
  9
$DIMZIN
 70
     0
  9
$DIMBLK
  1

  9
$DIMASO
 70
     0
  9
$DIMSHO
 70
     0
  9
$DIMPOST
  1

  9
$DIMAPOST
  1

  9
$DIMALT
 70
     0
  9
$DIMALTD
 70
     2
  9
$DIMALTF
 40
25.3999999999999986
  9
$DIMLFAC
 40
1.0
  9
$DIMTOFL
 70
     1
  9
$DIMTVP
 40
1.6000000000000001
  9
$DIMTIX
 70
     1
  9
$DIMSOXD
 70
     0
  9
$DIMSAH
 70
     0
  9
$DIMBLK1
  1

  9
$DIMBLK2
  1

  9
$DIMSTYLE
  2
STANDARD
  9
$DIMCLRD
 70
     0
  9
$DIMCLRE
 70
     0
  9
$DIMCLRT
 70
     0
  9
$DIMTFAC
 40
1.0
  9
$DIMGAP
 40
0.09
  9
$LUNITS
 70
     2
  9
$LUPREC
 70
     4
  9
$SKETCHINC
 40
0.1
  9
$FILLETRAD
 40
0.0
  9
$AUNITS
 70
     0
  9
$AUPREC
 70
     4
  9
$MENU
  1
E:\r13\win\SUPPORT\ACAD
  9
$ELEVATION
 40
0.0
  9
$PELEVATION
 40
0.0
  9
$THICKNESS
 40
0.0
  9
$LIMCHECK
 70
     0
  9
$BLIPMODE
 70
     0
  9
$CHAMFERA
 40
0.0
  9
$CHAMFERB
 40
0.0
  9
$SKPOLY
 70
     0
  9
$TDCREATE
 40
2449840.6474999999627471
  9
$TDUPDATE
 40
2460189.5877083339728415
  9
$TDINDWG
 40
1.2014796065
  9
$TDUSRTIMER
 40
1.2014796065
  9
$USRTIMER
 70
     1
  9
$ANGBASE
 50
0.0
  9
$ANGDIR
 70
     0
  9
$PDMODE
 70
     0
  9
$PDSIZE
 40
0.0
  9
$PLINEWID
 40
0.0
  9
$COORDS
 70
     1
  9
$SPLFRAME
 70
     0
  9
$SPLINETYPE
 70
     6
  9
$SPLINESEGS
 70
     8
  9
$ATTDIA
 70
     1
  9
$ATTREQ
 70
     1
  9
$HANDLING
 70
     1
  9
$HANDSEED
  5
30AE
  9
$SURFTAB1
 70
     6
  9
$SURFTAB2
 70
     6
  9
$SURFTYPE
 70
     6
  9
$SURFU
 70
     6
  9
$SURFV
 70
     6
  9
$UCSNAME
  2

  9
$UCSORG
 10
0.0
 20
0.0
 30
0.0
  9
$UCSXDIR
 10
1.0
 20
0.0
 30
0.0
  9
$UCSYDIR
 10
0.0
 20
1.0
 30
0.0
  9
$PUCSNAME
  2

  9
$PUCSORG
 10
0.0
 20
0.0
 30
0.0
  9
$PUCSXDIR
 10
1.0
 20
0.0
 30
0.0
  9
$PUCSYDIR
 10
0.0
 20
1.0
 30
0.0
  9
$USERI1
 70
     0
  9
$USERI2
 70
     1
  9
$USERI3
 70
     0
  9
$USERI4
 70
     0
  9
$USERI5
 70
     0
  9
$USERR1
 40
0.0
  9
$USERR2
 40
0.0
  9
$USERR3
 40
0.0
  9
$USERR4
 40
0.0
  9
$USERR5
 40
0.0
  9
$WORLDVIEW
 70
     1
  9
$SHADEDGE
 70
     3
  9
$SHADEDIF
 70
    70
  9
$TILEMODE
 70
     1
  9
$MAXACTVP
 70
    16
  9
$PLIMCHECK
 70
     0
  9
$PEXTMIN
 10
1.0000000000000000E+20
 20
1.0000000000000000E+20
 30
1.0000000000000000E+20
  9
$PEXTMAX
 10
-1.0000000000000000E+20
 20
-1.0000000000000000E+20
 30
-1.0000000000000000E+20
  9
$PLIMMIN
 10
0.0
 20
0.0
  9
$PLIMMAX
 10
12.0
 20
9.0
  9
$UNITMODE
 70
     0
  9
$VISRETAIN
 70
     0
  9
$PLINEGEN
 70
     0
  9
$PSLTSCALE
 70
     0
  0
ENDSEC
  0
SECTION
  2
TABLES
  0
TABLE
  2
VPORT
 70
     1
  0
VPORT
  2
*ACTIVE
 70
     0
 10
0.0
 20
0.0
 11
1.0
 21
1.0
 12
322.7121779240254114
 22
100.9963782921960984
 13
0.0
 23
0.0
 14
10.0
 24
10.0
 15
10.0
 25
10.0
 16
0.0
 26
0.0
 36
1.0
 17
0.0
 27
0.0
 37
0.0
 40
266.6177013820973798
 41
2.4292993630573241
 42
50.0
 43
0.0
 44
0.0
 50
0.0
 51
0.0
 71
     0
 72
   500
 73
     1
 74
     0
 75
     0
 76
     0
 77
     0
 78
     2
  0
ENDTAB
  0
TABLE
  2
LTYPE
 70
    11
  0
LTYPE
  2
CONTINUOUS
 70
     0
  3
Solid Line
 72
    65
 73
     0
 40
0.0
  0
LTYPE
  2
CENTER
 70
     0
  3
____ _ ____ _ ____ _ ____ _ ____ _ ____ _ ____
 72
    65
 73
     4
 40
2.0
 49
1.25
 49
-0.25
 49
0.25
 49
-0.25
  0
LTYPE
  2
HIDDEN
 70
     0
  3
_ _ _ _ _ _ _ _ _ _ _ _ _ _ _ _ _ _ _ _ _ _ _
 72
    65
 73
     2
 40
0.375
 49
0.25
 49
-0.125
  0
LTYPE
  2
PHANTOM2
 70
     0
  3
Phantom (.5x) ___ _ _ ___ _ _ ___ _ _ ___ _ _
 72
    65
 73
     6
 40
1.25
 49
0.625
 49
-0.125
 49
0.125
 49
-0.125
 49
0.125
 49
-0.125
  0
LTYPE
  2
CENTER2
 70
     0
  3
Center (.5x) ___ _ ___ _ ___ _ ___ _ ___ _ ___
 72
    65
 73
     4
 40
1.125
 49
0.75
 49
-0.125
 49
0.125
 49
-0.125
  0
LTYPE
  2
HIDDEN2
 70
     0
  3
Hidden (.5x) _ _ _ _ _ _ _ _ _ _ _ _ _ _ _ _ _
 72
    65
 73
     2
 40
0.1875
 49
0.125
 49
-0.0625
  0
LTYPE
  2
ACANSTGB
 70
     0
  3
__ . . __ . .
 72
    65
 73
     6
 40
0.35433070866
 49
0.15748031496
 49
-0.03937007874
 49
0.03937007874
 49
-0.03937007874
 49
0.03937007874
 49
-0.03937007874
  0
LTYPE
  2
ACANSTGL
 70
     0
  3
_ _ _ _ _
 72
    65
 73
     2
 40
0.11811023622
 49
0.07874015748
 49
-0.03937007874
  0
LTYPE
  2
ACISOWELD
 70
     0
  3
_ _ _ _ _
 72
    65
 73
     2
 40
2.0
 49
2.0
 49
-1.0
  0
LTYPE
  2
ACISOTGL
 70
     0
  3
_ _ _ _ _
 72
    65
 73
     2
 40
3.0
 49
2.0
 49
-1.0
  0
LTYPE
  2
ACISOTGB
 70
     0
  3
__ . . __ . .
 72
    65
 73
     6
 40
9.0
 49
4.0
 49
-1.0
 49
1.0
 49
-1.0
 49
1.0
 49
-1.0
  0
ENDTAB
  0
TABLE
  2
LAYER
 70
     4
  0
LAYER
  2
0
 70
     0
 62
     7
  6
CONTINUOUS
  0
LAYER
  2
1
 70
     0
 62
     1
  6
CENTER
  0
LAYER
  2
2
 70
     0
 62
     2
  6
HIDDEN
  0
LAYER
  2
3
 70
     0
 62
     3
  6
CONTINUOUS
  0
ENDTAB
  0
TABLE
  2
STYLE
 70
     4
  0
STYLE
  2
STANDARD
 70
     0
 40
0.0
 41
1.0
 50
0.0
 71
     0
 42
0.2
  3
TXT
  4
BIGFONT
  0
STYLE
  2
STANDARD1
 70
     0
 40
0.0
 41
1.0
 50
0.0
 71
     0
 42
3.0
  3
txt
  4

  0
STYLE
  2
ACANSGDT
 70
     0
 40
0.0
 41
1.0
 50
0.0
 71
     0
 42
0.2
  3
amgdt.shx
  4

  0
STYLE
  2
ACISOGDT
 70
     0
 40
0.0
 41
1.0
 50
0.0
 71
     0
 42
2.5
  3
amgdt.shx
  4

  0
ENDTAB
  0
TABLE
  2
VIEW
 70
     1
  0
VIEW
  2
ALL
 70
     0
 40
270.0
 10
220.9915966386554942
 20
135.0
 41
0.0
 11
0.0
 21
0.0
 31
1.0
 12
0.0
 22
0.0
 32
0.0
 42
0.0
 43
0.0
 44
0.0
 50
0.0
 71
     0
  0
ENDTAB
  0
TABLE
  2
UCS
 70
     0
  0
ENDTAB
  0
TABLE
  2
APPID
 70
    21
  0
APPID
  2
ACAD
 70
     0
  0
APPID
  2
ACAD_EXEMPT_FROM_CAD_STANDARDS
 70
     0
  0
APPID
  2
ACAD_MLEADERVER
 70
     0
  0
APPID
  2
MCAD_NO_VIS
 70
     0
  0
APPID
  2
ACAD_TEMP_GRAPHIC
 70
     0
  0
APPID
  2
ACATTRIBSERVICES
 70
     0
  0
APPID
  2
DESIGNERASSEMBLIES
 70
     0
  0
APPID
  2
ACAD_DSTYLE_DIMJAG
 70
     0
  0
APPID
  2
ACAD_DSTYLE_DIMBREAK
 70
     0
  0
APPID
  2
ACAD_NAV_VCDISPLAY
 70
     0
  0
APPID
  2
ACAECLAYERSTANDARD
 70
     0
  0
APPID
  2
GENIUS_GENODEF_13
 70
     0
  0
APPID
  2
GENIUS_GENOBJ-N-CEN_13
 70
     0
  0
APPID
  2
GENIUS_GENCEN_19
 70
     0
  0
APPID
  2
GENIUS_GENDTOL_13
 70
     0
  0
APPID
  2
ACAD_DSTYLE_DIMINSPECT
 70
     0
  0
APPID
  2
ACADANNOMONITORALERTICONDI
 70
     0
  0
APPID
  2
ACAD_DSTYLE_DIMRADIAL_EXTENSION
 70
     0
  0
APPID
  2
GENIUS_GENREC_14
 70
     0
  0
APPID
  2
GENIUS_GENOBJ-N-REC_13
 70
     0
  0
APPID
  2
GENIUS_GENOBJ-N-FIL_13
 70
     0
  0
ENDTAB
  0
TABLE
  2
DIMSTYLE
 70
    14
  0
DIMSTYLE
  2
STANDARD
 70
     0
  3

  4

  5

  6

  7

 40
1.0
 41
0.18
 42
0.0625
 43
0.38
 44
0.18
 45
0.0
 46
0.0
 47
0.0
 48
0.0
140
0.18
141
0.09
142
0.0
143
25.3999999999999986
144
1.0
145
0.0
146
1.0
147
0.09
 71
     0
 72
     0
 73
     1
 74
     1
 75
     0
 76
     0
 77
     0
 78
     0
170
     0
171
     2
172
     0
173
     0
174
     0
175
     0
176
     0
177
     0
178
     0
  0
DIMSTYLE
  2
AM_ANSI
 70
     0
  3

  4
mm
  5

  6

  7

 40
1.0
 41
0.12
 42
0.05
 43
0.5
 44
0.1
 45
0.0
 46
0.0
 47
0.1
 48
0.1
140
0.12
141
0.0
142
0.0
143
25.3999999999999986
144
1.0
145
0.0
146
0.71
147
0.06
 71
     0
 72
     0
 73
     1
 74
     1
 75
     0
 76
     0
 77
     0
 78
     7
170
     0
171
     2
172
     0
173
     0
174
     0
175
     0
176
   256
177
   256
178
     2
  0
DIMSTYLE
  2
AM_ANSI$3
 70
     0
  3

  4
mm
  5

  6

  7

 40
1.0
 41
0.12
 42
0.05
 43
0.5
 44
0.1
 45
0.0
 46
0.0
 47
0.1
 48
0.1
140
0.12
141
0.0
142
0.0
143
25.3999999999999986
144
1.0
145
0.0
146
0.71
147
0.06
 71
     0
 72
     0
 73
     1
 74
     1
 75
     0
 76
     0
 77
     0
 78
     7
170
     0
171
     2
172
     0
173
     0
174
     0
175
     0
176
   256
177
   256
178
     2
  0
DIMSTYLE
  2
AM_ANSI$4
 70
     0
  3

  4
mm
  5

  6

  7

 40
1.0
 41
0.12
 42
0.05
 43
0.5
 44
0.1
 45
0.0
 46
0.0
 47
0.1
 48
0.1
140
0.12
141
0.0
142
0.0
143
25.3999999999999986
144
1.0
145
0.0
146
0.71
147
0.06
 71
     0
 72
     0
 73
     1
 74
     1
 75
     0
 76
     0
 77
     0
 78
     7
170
     0
171
     2
172
     0
173
     0
174
     0
175
     0
176
   256
177
   256
178
     2
  0
DIMSTYLE
  2
AM_ANSI$7
 70
     0
  3

  4
mm
  5

  6

  7

 40
1.0
 41
0.12
 42
0.05
 43
0.5
 44
0.1
 45
0.0
 46
0.0
 47
0.1
 48
0.1
140
0.12
141
0.0
142
0.0
143
25.3999999999999986
144
1.0
145
0.0
146
0.71
147
0.06
 71
     0
 72
     0
 73
     1
 74
     1
 75
     0
 76
     0
 77
     0
 78
     7
170
     0
171
     2
172
     0
173
     0
174
     0
175
     0
176
   256
177
   256
178
     2
  0
DIMSTYLE
  2
AM_ANSI$SF
 70
     0
  3

  4
mm
  5

  6

  7

 40
1.0
 41
0.12
 42
0.05
 43
0.5
 44
0.1
 45
0.0
 46
0.0
 47
0.1
 48
0.1
140
0.12
141
0.0
142
0.0
143
25.3999999999999986
144
1.0
145
0.0
146
0.71
147
0.06
 71
     0
 72
     0
 73
     1
 74
     1
 75
     1
 76
     1
 77
     0
 78
     7
170
     0
171
     2
172
     0
173
     0
174
     0
175
     0
176
   256
177
   256
178
     2
  0
DIMSTYLE
  2
AM_ANSI$SH
 70
     0
  3

  4
mm
  5

  6
GENAXEH
  7

 40
1.0
 41
0.12
 42
0.05
 43
0.5
 44
0.1
 45
0.0
 46
0.0
 47
0.1
 48
0.1
140
0.12
141
0.0
142
0.0
143
25.3999999999999986
144
1.0
145
0.0
146
0.71
147
0.06
 71
     0
 72
     0
 73
     1
 74
     1
 75
     1
 76
     1
 77
     0
 78
     7
170
     0
171
     2
172
     0
173
     1
174
     0
175
     0
176
   256
177
   256
178
     2
  0
DIMSTYLE
  2
AM_ISO
 70
     0
  3

  4
"
  5

  6

  7

 40
1.0
 41
3.5
 42
1.0
 43
10.0
 44
1.0
 45
0.0
 46
0.0
 47
0.1
 48
0.1
140
3.5
141
0.0
142
0.0
143
0.0393701
144
1.0
145
0.0
146
0.71
147
1.5
 71
     0
 72
     0
 73
     0
 74
     0
 75
     0
 76
     0
 77
     1
 78
     8
170
     0
171
     2
172
     1
173
     0
174
     0
175
     0
176
   256
177
   256
178
     2
  0
DIMSTYLE
  2
AM_ISO$3
 70
     0
  3

  4
"
  5

  6

  7

 40
1.0
 41
3.5
 42
1.0
 43
10.0
 44
1.0
 45
0.0
 46
0.0
 47
0.1
 48
0.1
140
3.5
141
0.0
142
0.0
143
0.0393701
144
1.0
145
0.0
146
0.71
147
1.5
 71
     0
 72
     0
 73
     0
 74
     1
 75
     0
 76
     0
 77
     1
 78
     8
170
     0
171
     2
172
     0
173
     0
174
     0
175
     0
176
   256
177
   256
178
     2
  0
DIMSTYLE
  2
AM_ISO$4
 70
     0
  3

  4
"
  5

  6

  7

 40
1.0
 41
3.5
 42
1.0
 43
10.0
 44
1.0
 45
0.0
 46
0.0
 47
0.1
 48
0.1
140
3.5
141
0.0
142
0.0
143
0.0393701
144
1.0
145
0.0
146
0.71
147
1.5
 71
     0
 72
     0
 73
     0
 74
     1
 75
     0
 76
     0
 77
     1
 78
     8
170
     0
171
     2
172
     0
173
     0
174
     0
175
     0
176
   256
177
   256
178
     2
  0
DIMSTYLE
  2
AM_ISO$6
 70
     0
  3

  4
"
  5

  6

  7

 40
1.0
 41
3.5
 42
1.0
 43
10.0
 44
1.0
 45
0.0
 46
0.0
 47
0.1
 48
0.1
140
3.5
141
0.0
142
0.0
143
0.0393701
144
1.0
145
0.0
146
0.71
147
1.5
 71
     0
 72
     0
 73
     0
 74
     0
 75
     0
 76
     0
 77
     0
 78
     8
170
     0
171
     2
172
     1
173
     0
174
     0
175
     0
176
   256
177
   256
178
     2
  0
DIMSTYLE
  2
AM_ISO$7
 70
     0
  3

  4
"
  5

  6

  7

 40
1.0
 41
3.5
 42
1.0
 43
10.0
 44
1.0
 45
0.0
 46
0.0
 47
0.1
 48
0.1
140
3.5
141
0.0
142
0.0
143
0.0393701
144
1.0
145
0.0
146
0.71
147
1.5
 71
     0
 72
     0
 73
     0
 74
     0
 75
     0
 76
     0
 77
     1
 78
     8
170
     0
171
     2
172
     1
173
     0
174
     0
175
     0
176
   256
177
   256
178
     2
  0
DIMSTYLE
  2
AM_ISO$SF
 70
     0
  3

  4
"
  5

  6

  7

 40
1.0
 41
3.5
 42
1.0
 43
10.0
 44
1.0
 45
0.0
 46
0.0
 47
0.1
 48
0.1
140
3.5
141
0.0
142
0.0
143
0.0393701
144
1.0
145
0.0
146
0.71
147
1.5
 71
     0
 72
     0
 73
     0
 74
     0
 75
     1
 76
     1
 77
     1
 78
     8
170
     0
171
     2
172
     1
173
     0
174
     0
175
     0
176
   256
177
   256
178
     2
  0
DIMSTYLE
  2
AM_ISO$SH
 70
     0
  3

  4
"
  5

  6
GENAXEH
  7

 40
1.0
 41
3.5
 42
1.0
 43
10.0
 44
1.0
 45
0.0
 46
0.0
 47
0.1
 48
0.1
140
3.5
141
0.0
142
0.0
143
0.0393701
144
2.0
145
0.0
146
0.71
147
1.5
 71
     0
 72
     0
 73
     0
 74
     0
 75
     1
 76
     1
 77
     1
 78
     8
170
     0
171
     2
172
     1
173
     1
174
     0
175
     0
176
   256
177
   256
178
     2
  0
ENDTAB
  0
ENDSEC
  0
SECTION
  2
BLOCKS
  0
BLOCK
  8
0
  2
$MODEL_SPACE
 70
     0
 10
0.0
 20
0.0
 30
0.0
  3
$MODEL_SPACE
  1

  0
ENDBLK
  5
AA
  8
0
  0
BLOCK
 67
     1
  8
0
  2
$PAPER_SPACE
 70
     0
 10
0.0
 20
0.0
 30
0.0
  3
$PAPER_SPACE
  1

  0
ENDBLK
  5
A8
 67
     1
  8
0
  0
BLOCK
  8
0
  2
*U0
 70
     1
 10
0.0
 20
0.0
 30
0.0
  3
*U0
  1

  0
ENDBLK
  5
20F
  8
0
  0
BLOCK
  8
0
  2
GENAXEH
 70
     0
 10
0.0
 20
0.0
 30
0.0
  3
GENAXEH
  1

  0
LINE
  5
239
  8
0
 10
-1.0
 20
0.0
 30
0.0
 11
1.0
 21
0.0
 31
0.0
  0
ENDBLK
  5
23B
  8
0
  0
ENDSEC
  0
SECTION
  2
ENTITIES
  0
TEXT
  5
1CC
  8
0
 62
     3
 10
0.0
 20
0.0
 30
0.0
 40
10.0
  1
TCC30-TS-G
  7
STANDARD1
  0
LINE
  5
2585
  8
2
 10
203.749984285696712
 20
64.9628132052015417
 30
0.0
 11
247.9999842856967973
 21
64.9628132052015417
 31
0.0
  0
LINE
  5
2586
  8
2
 10
203.749984285696712
 20
94.9628132052015417
 30
0.0
 11
247.9999842856967973
 21
94.9628132052015417
 31
0.0
  0
LINE
  5
2587
  8
2
 10
203.749984285696712
 20
94.9628132052015417
 30
0.0
 11
203.749984285696712
 21
64.9628132052015417
 31
0.0
  0
LINE
  5
258A
  8
2
 10
168.499984285696712
 20
100.962813205201499
 30
0.0
 11
168.499984285696712
 21
58.9628132052015417
 31
0.0
  0
ARC
  5
2596
  8
0
 10
236.999984285696712
 20
100.962813205201499
 30
0.0
 40
11.0
 50
0.0
 51
170.9339501083402126
  0
LINE
  5
2598
  8
0
 10
225.1629666674579084
 20
100.561171247897903
 30
0.0
 11
221.8198046865377933
 21
96.5769459465119269
 31
0.0
  0
ARC
  5
2599
  8
0
 10
223.5051024613995025
 20
95.1628132052015445
 30
0.0
 40
2.1999999999999891
 50
139.9999999999994884
 51
215.2388027552592007
  0
POLYLINE
  5
259A
  8
0
 66
     1
 10
0.0
 20
0.0
 30
0.0
  0
VERTEX
  5
2E6B
  8
0
 10
154.999984285696712
 20
72.4129787699307883
 30
0.0
  0
VERTEX
  5
2E6C
  8
0
 10
154.5240622743087044
 20
72.9520294646614644
 30
0.0
  0
VERTEX
  5
2E6D
  8
0
 10
154.086373288416695
 20
73.5176686218258908
 30
0.0
  0
VERTEX
  5
2E6E
  8
0
 10
153.6920813536627008
 20
74.1008218193469617
 30
0.0
  0
VERTEX
  5
2E6F
  8
0
 10
153.1758094651709996
 20
75.0150822276182652
 30
0.0
  0
VERTEX
  5
2E70
  8
0
 10
152.7562602045308893
 20
75.9552775765349253
 30
0.0
  0
VERTEX
  5
2E71
  8
0
 10
152.4324669015225879
 20
76.9087050972298698
 30
0.0
  0
VERTEX
  5
2E72
  8
0
 10
152.1924449429915001
 20
77.9142090060493189
 30
0.0
  0
VERTEX
  5
2E73
  8
0
 10
152.0487419590523075
 20
78.9284699807499237
 30
0.0
  0
VERTEX
  5
2E74
  8
0
 10
152.0000000000001137
 20
79.9442198078023125
 30
0.0
  0
VERTEX
  5
2E75
  8
0
 10
151.999984285696712
 20
79.9628132052015417
 30
0.0
  0
SEQEND
  5
2E76
  8
0
  0
POLYLINE
  5
259B
  8
0
 66
     1
 10
0.0
 20
0.0
 30
0.0
  0
VERTEX
  5
2E77
  8
0
 10
151.999984285696712
 20
79.9628132052015417
 30
0.0
  0
VERTEX
  5
2E78
  8
0
 10
152.0000000000001137
 20
79.9814066026007708
 30
0.0
  0
VERTEX
  5
2E79
  8
0
 10
152.0487419590521938
 20
80.9971564296532449
 30
0.0
  0
VERTEX
  5
2E7A
  8
0
 10
152.1924449429915001
 20
82.0114174043537929
 30
0.0
  0
VERTEX
  5
2E7B
  8
0
 10
152.4324669015225879
 20
83.0169213131732135
 30
0.0
  0
VERTEX
  5
2E7C
  8
0
 10
152.7562602045308893
 20
83.9703488338681723
 30
0.0
  0
VERTEX
  5
2E7D
  8
0
 10
153.1758094651711133
 20
84.910544182784804
 30
0.0
  0
VERTEX
  5
2E7E
  8
0
 10
153.6920813536627008
 20
85.8248045910561359
 30
0.0
  0
VERTEX
  5
2E7F
  8
0
 10
154.086373288416695
 20
86.4079577885772068
 30
0.0
  0
VERTEX
  5
2E80
  8
0
 10
154.5240622743087044
 20
86.9735969457416047
 30
0.0
  0
VERTEX
  5
2E81
  8
0
 10
154.999984285696712
 20
87.5126476404722951
 30
0.0
  0
SEQEND
  5
2E82
  8
0
  0
ARC
  5
259C
  8
0
 10
162.999984285696712
 20
79.9628132052015275
 30
0.0
 40
10.9999999999999805
 50
223.3417582272224138
 51
259.1080746041427005
  0
ARC
  5
259D
  8
0
 10
162.999984285696712
 20
79.9628132052015559
 30
0.0
 40
10.9999999999999893
 50
100.8919253958572995
 51
136.6582417727773873
  0
LINE
  5
25A7
  8
0
 10
247.9999842856967973
 20
100.962813205201499
 30
0.0
 11
247.9999842856967973
 21
60.2128132052015417
 31
0.0
  0
LINE
  5
25A9
  8
0
 10
247.999984285696712
 20
93.8934449209565685
 30
0.0
 11
221.7082429346270089
 21
93.8934449209565685
 31
0.0
  0
LINE
  5
25AA
  8
0
 10
224.3637699007024935
 20
99.6087256299274486
 30
0.0
 11
203.749984285696712
 21
99.6087256299274486
 31
0.0
  0
LINE
  5
25AB
  8
0
 10
203.749984285696712
 20
100.962813205201499
 30
0.0
 11
203.749984285696712
 21
99.6087256299274486
 31
0.0
  0
LINE
  5
25AC
  8
0
 10
203.740445379216311
 20
60.2128132052015417
 30
0.0
 11
247.9999842856967973
 21
60.2128132052015417
 31
0.0
  0
LINE
  5
25AD
  8
0
 10
163.3753724881985931
 20
58.9628132052015417
 30
0.0
 11
203.749984285696712
 21
58.9628132052015417
 31
0.0
  0
LINE
  5
25AE
  8
0
 10
163.3753724881985931
 20
58.9628132052015417
 30
0.0
 11
163.3753724881985931
 21
68.6887832736552042
 31
0.0
  0
LINE
  5
25AF
  8
0
 10
203.749984285696712
 20
58.9628132052015701
 30
0.0
 11
203.749984285696712
 21
60.2225927098013898
 31
0.0
  0
LINE
  5
25B0
  8
0
 10
203.7499842856827001
 20
60.2128132052159515
 30
0.0
 11
202.6985378894399048
 21
61.292396485808311
 31
0.0
  0
LINE
  5
25B1
  8
0
 10
163.3753724881985931
 20
100.962813205201499
 30
0.0
 11
203.749984285696712
 21
100.962813205201499
 31
0.0
  0
LINE
  5
25B2
  8
0
 10
163.3753724881985931
 20
91.2368431367478649
 30
0.0
 11
163.3753724881985931
 21
100.962813205201499
 31
0.0
  0
LINE
  5
25B3
  8
0
 10
202.6985378894399048
 20
98.6332299245948008
 30
0.0
 11
203.749984285696712
 21
99.7128132052015559
 31
0.0
  0
LINE
  5
25B6
  8
0
 10
200.2164873531814067
 20
61.5996871252579368
 30
0.0
 11
160.9214566783346925
 21
69.1609743346464825
 31
0.0
  0
POLYLINE
  5
25B7
  8
0
 66
     1
 10
0.0
 20
0.0
 30
0.0
  0
VERTEX
  5
2E83
  8
0
 10
202.7905893471460104
 20
61.2874400803645614
 30
0.0
  0
VERTEX
  5
2E84
  8
0
 10
202.3614781074417976
 20
61.3144339031563419
 30
0.0
  0
VERTEX
  5
2E85
  8
0
 10
201.8543611155724022
 20
61.3591411806552074
 30
0.0
  0
VERTEX
  5
2E86
  8
0
 10
201.0965718065571934
 20
61.4520216982036089
 30
0.0
  0
VERTEX
  5
2E87
  8
0
 10
200.2164873531814067
 20
61.5996871252579368
 30
0.0
  0
SEQEND
  5
2E88
  8
0
  0
POLYLINE
  5
25B8
  8
0
 66
     1
 10
0.0
 20
0.0
 30
0.0
  0
VERTEX
  5
2E89
  8
0
 10
202.7905893471460104
 20
98.638186330038522
 30
0.0
  0
VERTEX
  5
2E8A
  8
0
 10
202.3223941351483859
 20
98.1090794415718221
 30
0.0
  0
VERTEX
  5
2E8B
  8
0
 10
201.7799006781129947
 20
97.4916480406145212
 30
0.0
  0
VERTEX
  5
2E8C
  8
0
 10
201.2129039461260049
 20
96.8411161507420815
 30
0.0
  0
VERTEX
  5
2E8D
  8
0
 10
200.5947492863724904
 20
96.1247609465735309
 30
0.0
  0
VERTEX
  5
2E8E
  8
0
 10
199.933965656710086
 20
95.3491810172176031
 30
0.0
  0
VERTEX
  5
2E8F
  8
0
 10
199.2390820149963986
 20
94.520974951783046
 30
0.0
  0
VERTEX
  5
2E90
  8
0
 10
198.5186273190886936
 20
93.6467413393786643
 30
0.0
  0
VERTEX
  5
2E91
  8
0
 10
197.5851570536246129
 20
92.4900839973627455
 30
0.0
  0
VERTEX
  5
2E92
  8
0
 10
196.6278621819893999
 20
91.2622439644647017
 30
0.0
  0
VERTEX
  5
2E93
  8
0
 10
195.6678361884964943
 20
89.964364127720529
 30
0.0
  0
VERTEX
  5
2E94
  8
0
 10
194.7261725574593072
 20
88.597587374166153
 30
0.0
  0
VERTEX
  5
2E95
  8
0
 10
193.8239647731911077
 20
87.1630565908375416
 30
0.0
  0
VERTEX
  5
2E96
  8
0
 10
193.1551576231109095
 20
85.9763112909844267
 30
0.0
  0
VERTEX
  5
2E97
  8
0
 10
192.5510782600098878
 20
84.7320935422407189
 30
0.0
  0
VERTEX
  5
2E98
  8
0
 10
192.0440495662537046
 20
83.4312826083200321
 30
0.0
  0
VERTEX
  5
2E99
  8
0
 10
191.7935501097163922
 20
82.5906531952131218
 30
0.0
  0
VERTEX
  5
2E9A
  8
0
 10
191.6040200268352862
 20
81.7260260417999689
 30
0.0
  0
VERTEX
  5
2E9B
  8
0
 10
191.4840223903966034
 20
80.846909820867225
 30
0.0
  0
VERTEX
  5
2E9C
  8
0
 10
191.4421202731867879
 20
79.9628132052015417
 30
0.0
  0
VERTEX
  5
2E9D
  8
0
 10
191.484756812776908
 20
79.0711623996483866
 30
0.0
  0
VERTEX
  5
2E9E
  8
0
 10
191.6067859724655875
 20
78.1846243932914433
 30
0.0
  0
VERTEX
  5
2E9F
  8
0
 10
191.7993870636304905
 20
77.3129000382442371
 30
0.0
  0
VERTEX
  5
2EA0
  8
0
 10
192.0537393976493945
 20
76.4656901866202645
 30
0.0
  0
VERTEX
  5
2EA1
  8
0
 10
192.5238484646309871
 20
75.2538718751828242
 30
0.0
  0
VERTEX
  5
2EA2
  8
0
 10
193.0794920656001068
 20
74.0902126093688622
 30
0.0
  0
VERTEX
  5
2EA3
  8
0
 10
193.6971081369927958
 20
72.9745300274693562
 30
0.0
  0
VERTEX
  5
2EA4
  8
0
 10
194.3531346152454091
 20
71.9066417677753549
 30
0.0
  0
VERTEX
  5
2EA5
  8
0
 10
195.2792204589977985
 20
70.5184616974100038
 30
0.0
  0
VERTEX
  5
2EA6
  8
0
 10
196.2303151357509137
 20
69.1946507368387671
 30
0.0
  0
VERTEX
  5
2EA7
  8
0
 10
197.1876469943599091
 20
67.9380231903458878
 30
0.0
  0
VERTEX
  5
2EA8
  8
0
 10
198.1324443836799105
 20
66.7513933622156515
 30
0.0
  0
VERTEX
  5
2EA9
  8
0
 10
199.0459356525662997
 20
65.6375755567323154
 30
0.0
  0
VERTEX
  5
2EAA
  8
0
 10
199.8724789944969871
 20
64.6495544069730386
 30
0.0
  0
VERTEX
  5
2EAB
  8
0
 10
200.653798806817889
 20
63.7322160386351584
 30
0.0
  0
VERTEX
  5
2EAC
  8
0
 10
201.3754144806584065
 20
62.8973825521384811
 30
0.0
  0
VERTEX
  5
2EAD
  8
0
 10
202.0228454071485089
 20
62.1568760479028626
 30
0.0
  0
VERTEX
  5
2EAE
  8
0
 10
202.4301955994795037
 20
61.6944305857569972
 30
0.0
  0
VERTEX
  5
2EAF
  8
0
 10
202.7905893471460104
 20
61.2874400803645614
 30
0.0
  0
SEQEND
  5
2EB0
  8
0
  0
POLYLINE
  5
25B9
  8
0
 66
     1
 10
0.0
 20
0.0
 30
0.0
  0
VERTEX
  5
2EB1
  8
0
 10
200.2164873531814067
 20
98.3259392851451395
 30
0.0
  0
VERTEX
  5
2EB2
  8
0
 10
200.9931610679022072
 20
98.4585164437397395
 30
0.0
  0
VERTEX
  5
2EB3
  8
0
 10
201.6807222351619941
 20
98.5479727301078867
 30
0.0
  0
VERTEX
  5
2EB4
  8
0
 10
202.2863047863961867
 20
98.6054966768133738
 30
0.0
  0
VERTEX
  5
2EB5
  8
0
 10
202.7905893471460104
 20
98.638186330038522
 30
0.0
  0
SEQEND
  5
2EB6
  8
0
  0
LINE
  5
25BA
  8
0
 10
160.9214566783346925
 20
90.7646520757566009
 30
0.0
 11
200.2164873531814067
 21
98.3259392851451395
 31
0.0
  0
LINE
  5
25C0
  8
1
 10
180.2749842856966893
 20
79.9628132052015417
 30
0.0
 11
251.2249842856967064
 21
79.9628132052015417
 31
0.0
  0
LINE
  5
25C1
  8
1
 10
183.4999842856967973
 20
53.9628132052015417
 30
0.0
 11
183.4999842856967973
 21
105.962813205201499
 31
0.0
  0
LINE
  5
25F0
  8
0
 10
154.999984285696712
 20
165.9628132052015133
 30
0.0
 11
163.7722202423013016
 21
165.9628132052015133
 31
0.0
  0
POLYLINE
  5
25F1
  8
0
 66
     1
 10
0.0
 20
0.0
 30
0.0
  0
VERTEX
  5
2EB7
  8
0
 10
151.999984285696712
 20
168.9628132052015133
 30
0.0
  0
VERTEX
  5
2EB8
  8
0
 10
152.0000000000001137
 20
168.953103129344214
 30
0.0
  0
VERTEX
  5
2EB9
  8
0
 10
152.0273089746796984
 20
168.5588268332101904
 30
0.0
  0
VERTEX
  5
2EBA
  8
0
 10
152.1068759016891079
 20
168.1691357654410126
 30
0.0
  0
VERTEX
  5
2EBB
  8
0
 10
152.2418837310191861
 20
167.7825929135939873
 30
0.0
  0
VERTEX
  5
2EBC
  8
0
 10
152.4324669015225879
 20
167.411086914271408
 30
0.0
  0
VERTEX
  5
2EBD
  8
0
 10
152.6633784567086991
 20
167.0812274409395002
 30
0.0
  0
VERTEX
  5
2EBE
  8
0
 10
152.9458993551895958
 20
166.7763239876969976
 30
0.0
  0
VERTEX
  5
2EBF
  8
0
 10
153.2904669022254041
 20
166.4975017216112008
 30
0.0
  0
VERTEX
  5
2EC0
  8
0
 10
153.6920813536627008
 20
166.2629261852733009
 30
0.0
  0
VERTEX
  5
2EC1
  8
0
 10
153.980008921040195
 20
166.1415196229710887
 30
0.0
  0
VERTEX
  5
2EC2
  8
0
 10
154.2915378151409129
 20
166.0476625061197069
 30
0.0
  0
VERTEX
  5
2EC3
  8
0
 10
154.6345415166896942
 20
165.9851517605924016
 30
0.0
  0
VERTEX
  5
2EC4
  8
0
 10
154.999984285696712
 20
165.9628132052015133
 30
0.0
  0
SEQEND
  5
2EC5
  8
0
  0
LINE
  5
25F2
  8
0
 10
151.999984285696712
 20
177.7128132052015133
 30
0.0
 11
151.999984285696712
 21
168.9628132052015133
 31
0.0
  0
LINE
  5
25F3
  8
0
 10
163.7722202423013016
 20
193.9628132052015133
 30
0.0
 11
154.999984285696712
 21
193.9628132052015133
 31
0.0
  0
POLYLINE
  5
25F4
  8
0
 66
     1
 10
0.0
 20
0.0
 30
0.0
  0
VERTEX
  5
2EC6
  8
0
 10
154.999984285696712
 20
193.9628132052015133
 30
0.0
  0
VERTEX
  5
2EC7
  8
0
 10
154.6433876687698898
 20
193.941546592962311
 30
0.0
  0
VERTEX
  5
2EC8
  8
0
 10
154.3080841461712964
 20
193.8819353672435
 30
0.0
  0
VERTEX
  5
2EC9
  8
0
 10
153.9876793878262049
 20
193.786868960532189
 30
0.0
  0
VERTEX
  5
2ECA
  8
0
 10
153.6920813536627008
 20
193.6627002251296972
 30
0.0
  0
VERTEX
  5
2ECB
  8
0
 10
153.2998037584133044
 20
193.4345692417975897
 30
0.0
  0
VERTEX
  5
2ECC
  8
0
 10
152.9617911486525088
 20
193.164123891157999
 30
0.0
  0
VERTEX
  5
2ECD
  8
0
 10
152.6699667939888059
 20
192.8525542254849938
 30
0.0
  0
VERTEX
  5
2ECE
  8
0
 10
152.4324669015225879
 20
192.5145394961317038
 30
0.0
  0
VERTEX
  5
2ECF
  8
0
 10
152.2445317415082968
 20
192.1492017935377987
 30
0.0
  0
VERTEX
  5
2ED0
  8
0
 10
152.1103993871111015
 20
191.7692244612402988
 30
0.0
  0
VERTEX
  5
2ED1
  8
0
 10
152.0281971079909908
 20
191.3732822315554927
 30
0.0
  0
VERTEX
  5
2ED2
  8
0
 10
152.0000000000001137
 20
190.9725232810581872
 30
0.0
  0
VERTEX
  5
2ED3
  8
0
 10
151.999984285696712
 20
190.9628132052015133
 30
0.0
  0
SEQEND
  5
2ED4
  8
0
  0
LINE
  5
25F5
  8
0
 10
151.999984285696712
 20
190.9628132052015133
 30
0.0
 11
151.999984285696712
 21
182.2128132052015133
 31
0.0
  0
LINE
  5
25FA
  8
0
 10
221.3051024613995139
 20
193.9628132052015133
 30
0.0
 11
221.3051024613995139
 21
192.5731823795127866
 31
0.0
  0
LINE
  5
25FC
  8
0
 10
221.3051024613995139
 20
167.3562563047015885
 30
0.0
 11
221.3051024613995139
 21
165.9628132052015133
 31
0.0
  0
LINE
  5
260A
  8
0
 10
202.4999842856965984
 20
181.9878132052014905
 30
0.0
 11
202.4999842856965984
 21
177.9378132052015076
 31
0.0
  0
LINE
  5
2611
  8
0
 10
247.9999842856967973
 20
199.7128132052015133
 30
0.0
 11
191.4421945110593981
 21
199.7128132052015133
 31
0.0
  0
LINE
  5
2612
  8
0
 10
191.4421202731867879
 20
160.2128132052015133
 30
0.0
 11
247.9999842856967973
 21
160.2128132052015133
 31
0.0
  0
LINE
  5
2613
  8
0
 10
247.9999842856967973
 20
199.7128132052015133
 30
0.0
 11
247.9999842856967973
 21
160.2128132052015133
 31
0.0
  0
ARC
  5
261A
  8
0
 10
183.499984285696712
 20
179.9628132052015133
 30
0.0
 40
15.0
 50
11.5369590328154601
 51
171.3730734413209973
  0
LINE
  5
261B
  8
0
 10
168.6696943357327996
 20
177.7128132052015133
 30
0.0
 11
151.999984285696712
 21
177.7128132052015133
 31
0.0
  0
ARC
  5
261C
  8
0
 10
183.499984285696712
 20
179.9628132052015133
 30
0.0
 40
15.0
 50
188.626926558678889
 51
348.4630409671844973
  0
LINE
  5
261D
  8
0
 10
199.249984285696712
 20
176.9628132052015133
 30
0.0
 11
198.1969227423957989
 21
176.9628132052015133
 31
0.0
  0
LINE
  5
261E
  8
0
 10
198.1969227423957989
 20
182.9628132052015133
 30
0.0
 11
199.249984285696712
 21
182.9628132052015133
 31
0.0
  0
LINE
  5
261F
  8
0
 10
151.999984285696712
 20
182.2128132052015133
 30
0.0
 11
168.6696943357327996
 21
182.2128132052015133
 31
0.0
  0
ARC
  5
2620
  8
0
 10
183.499984285696712
 20
179.9628132052015133
 30
0.0
 40
20.25
 50
186.3793702084429071
 51
354.2608295227331041
  0
LINE
  5
2621
  8
0
 10
199.249984285696712
 20
182.9628132052015133
 30
0.0
 11
199.249984285696712
 21
176.9628132052015133
 31
0.0
  0
LINE
  5
2626
  8
0
 10
224.8008102040379015
 20
178.4440632052015019
 30
0.0
 11
247.9999842856967973
 21
178.4440632052015019
 31
0.0
  0
LINE
  5
2627
  8
0
 10
202.4999842856965984
 20
177.9378132052015076
 30
0.0
 11
224.7692770343128075
 21
177.9378132052015076
 31
0.0
  0
LINE
  5
2629
  8
0
 10
224.7692770343128075
 20
177.9378132052015076
 30
0.0
 11
224.8008102040379015
 21
178.4440632052015019
 31
0.0
  0
LINE
  5
262A
  8
0
 10
247.9999842856967973
 20
181.4815632052014962
 30
0.0
 11
224.8008102040379015
 21
181.4815632052014962
 31
0.0
  0
LINE
  5
262B
  8
0
 10
224.7692770343128075
 20
181.9878132052014905
 30
0.0
 11
202.4999842856965984
 21
181.9878132052014905
 31
0.0
  0
LINE
  5
262C
  8
0
 10
224.8008102040379015
 20
181.4815632052014962
 30
0.0
 11
224.7692770343128075
 21
181.9878132052014905
 31
0.0
  0
LINE
  5
2640
  8
0
 10
247.9999842856967973
 20
165.9628132052015133
 30
0.0
 11
221.3051024613995139
 21
165.9628132052015133
 31
0.0
  0
LINE
  5
2643
  8
0
 10
247.9999842856967973
 20
193.9628132052015133
 30
0.0
 11
221.3051024613995139
 21
193.9628132052015133
 31
0.0
  0
LINE
  5
2644
  8
1
 10
146.999984285696712
 20
179.9628132052015133
 30
0.0
 11
252.999984285696712
 21
179.9628132052015133
 31
0.0
  0
LINE
  5
2646
  8
1
 10
236.9999842856965984
 20
159.6294798718681136
 30
0.0
 11
236.9999842856967973
 21
200.2961465385347992
 31
0.0
  0
LINE
  5
2647
  8
1
 10
183.499984285696712
 20
154.9628132052015133
 30
0.0
 11
183.499984285696712
 21
204.9628132052015133
 31
0.0
  0
LINE
  5
270F
  8
0
 10
313.5740260965924904
 20
61.2874400803645614
 30
0.0
 11
313.5596396113642754
 21
61.292396485808311
 31
0.0
  0
LINE
  5
2711
  8
0
 10
326.4403289600290918
 20
61.2923964858082968
 30
0.0
 11
326.4259424748007063
 21
61.2874400803645614
 31
0.0
  0
LINE
  5
2716
  8
0
 10
299.7499842856968257
 20
63.498485882639919
 30
0.0
 11
299.7499842856968257
 21
58.9628132052015701
 31
0.0
  0
LINE
  5
2719
  8
0
 10
340.2499842856968257
 20
58.9628132052015701
 30
0.0
 11
340.2499842856968257
 21
63.498485882639919
 31
0.0
  0
LINE
  5
271C
  8
0
 10
299.7499842856968257
 20
58.9628132052015417
 30
0.0
 11
340.2499842856968257
 21
58.9628132052015417
 31
0.0
  0
LINE
  5
2722
  8
0
 10
299.7499842856968257
 20
100.962813205201499
 30
0.0
 11
299.7499842856968257
 21
96.4271405277631857
 31
0.0
  0
LINE
  5
2723
  8
0
 10
340.2499842856968257
 20
96.4271405277631857
 30
0.0
 11
340.2499842856968257
 21
100.962813205201499
 31
0.0
  0
LINE
  5
2725
  8
0
 10
337.333317619030197
 20
100.962813205201499
 30
0.0
 11
340.2499842856968257
 21
100.962813205201499
 31
0.0
  0
LINE
  5
2727
  8
0
 10
299.7499842856968257
 20
100.962813205201499
 30
0.0
 11
302.6666509523635114
 21
100.962813205201499
 31
0.0
  0
POLYLINE
  5
272E
  8
0
 66
     1
 10
0.0
 20
0.0
 30
0.0
  0
VERTEX
  5
2ED5
  8
0
 10
337.333317619030197
 20
97.3730088233523361
 30
0.0
  0
VERTEX
  5
2ED6
  8
0
 10
337.9152506991570135
 20
97.2295746904286062
 30
0.0
  0
VERTEX
  5
2ED7
  8
0
 10
338.9599552802508242
 20
96.9197713913840033
 30
0.0
  0
VERTEX
  5
2ED8
  8
0
 10
339.8603630337327104
 20
96.5936264424784383
 30
0.0
  0
VERTEX
  5
2ED9
  8
0
 10
340.6096213129173975
 20
96.2536220037047059
 30
0.0
  0
VERTEX
  5
2EDA
  8
0
 10
341.2020278098859762
 20
95.9023457141421858
 30
0.0
  0
VERTEX
  5
2EDB
  8
0
 10
341.6330739534914755
 20
95.5424709984608853
 30
0.0
  0
VERTEX
  5
2EDC
  8
0
 10
341.8994792223084005
 20
95.1767367205454207
 30
0.0
  0
VERTEX
  5
2EDD
  8
0
 10
341.999216111381088
 20
94.8079263390871034
 30
0.0
  0
VERTEX
  5
2EDE
  8
0
 10
341.9999842856968257
 20
94.7725501911983201
 30
0.0
  0
SEQEND
  5
2EDF
  8
0
  0
POLYLINE
  5
2731
  8
0
 66
     1
 10
0.0
 20
0.0
 30
0.0
  0
VERTEX
  5
2EE0
  8
0
 10
331.9577543310932128
 20
61.5996871252579368
 30
0.0
  0
VERTEX
  5
2EE1
  8
0
 10
330.6628230471264942
 20
61.4671099666633225
 30
0.0
  0
VERTEX
  5
2EE2
  8
0
 10
329.314794256369396
 20
61.3776536802951895
 30
0.0
  0
VERTEX
  5
2EE3
  8
0
 10
327.8902393945584208
 20
61.3201297335897095
 30
0.0
  0
VERTEX
  5
2EE4
  8
0
 10
326.4259424748007063
 20
61.2874400803645614
 30
0.0
  0
SEQEND
  5
2EE5
  8
0
  0
LINE
  5
2734
  8
0
 10
341.9999842856968257
 20
65.1530762192047632
 30
0.0
 11
341.9999842856968257
 21
94.7725501911983201
 31
0.0
  0
POLYLINE
  5
2736
  8
0
 66
     1
 10
0.0
 20
0.0
 30
0.0
  0
VERTEX
  5
2EE6
  8
0
 10
341.9999842856968257
 20
65.1530762192047632
 30
0.0
  0
VERTEX
  5
2EE7
  8
0
 10
341.9162676437151731
 20
64.7841183379157712
 30
0.0
  0
VERTEX
  5
2EE8
  8
0
 10
341.6657548519652892
 20
64.4179684488862279
 30
0.0
  0
VERTEX
  5
2EE9
  8
0
 10
341.2503524640562773
 20
64.0574131738590324
 30
0.0
  0
VERTEX
  5
2EEA
  8
0
 10
340.6732219429866859
 20
63.7051965561863511
 30
0.0
  0
VERTEX
  5
2EEB
  8
0
 10
339.9387556005031001
 20
63.3639991770028814
 30
0.0
  0
VERTEX
  5
2EEC
  8
0
 10
339.0525431689545144
 20
63.0364177543848214
 30
0.0
  0
VERTEX
  5
2EED
  8
0
 10
338.0213292600545856
 20
62.7249453807573616
 30
0.0
  0
VERTEX
  5
2EEE
  8
0
 10
336.8529620343143165
 20
62.4319525489559695
 30
0.0
  0
VERTEX
  5
2EEF
  8
0
 10
335.5563334718008264
 20
62.1596691113445701
 30
0.0
  0
VERTEX
  5
2EF0
  8
0
 10
334.1413116988006777
 20
61.9101673092926177
 30
0.0
  0
VERTEX
  5
2EF1
  8
0
 10
332.6186658854197731
 20
61.6853460021670372
 30
0.0
  0
VERTEX
  5
2EF2
  8
0
 10
331.9577543310932128
 20
61.5996871252579368
 30
0.0
  0
SEQEND
  5
2EF3
  8
0
  0
POLYLINE
  5
2739
  8
0
 66
     1
 10
0.0
 20
0.0
 30
0.0
  0
VERTEX
  5
2EF4
  8
0
 10
308.0422142403003818
 20
61.5996871252579368
 30
0.0
  0
VERTEX
  5
2EF5
  8
0
 10
306.47825537467412
 20
61.8137503663256567
 30
0.0
  0
VERTEX
  5
2EF6
  8
0
 10
305.0172050307036784
 20
62.0532278934738599
 30
0.0
  0
VERTEX
  5
2EF7
  8
0
 10
303.6701826837133922
 20
62.3162971381204827
 30
0.0
  0
VERTEX
  5
2EF8
  8
0
 10
302.4474399871178889
 20
62.6009559844681789
 30
0.0
  0
VERTEX
  5
2EF9
  8
0
 10
301.3582827511506821
 20
62.9050380068145571
 30
0.0
  0
VERTEX
  5
2EFA
  8
0
 10
300.4110001200285751
 20
63.2262289573598224
 30
0.0
  0
VERTEX
  5
2EFB
  8
0
 10
299.6128014865590785
 20
63.5620843790299119
 30
0.0
  0
VERTEX
  5
2EFC
  8
0
 10
298.9697616243086031
 20
63.9100482092708617
 30
0.0
  0
VERTEX
  5
2EFD
  8
0
 10
298.4867744549069926
 20
64.2674722332282471
 30
0.0
  0
VERTEX
  5
2EFE
  8
0
 10
298.1675158023489871
 20
64.6316362382612226
 30
0.0
  0
VERTEX
  5
2EFF
  8
0
 10
298.0144154177539804
 20
64.9997687164032385
 30
0.0
  0
VERTEX
  5
2F00
  8
0
 10
297.999984285696712
 20
65.1530762192047632
 30
0.0
  0
SEQEND
  5
2F01
  8
0
  0
POLYLINE
  5
273A
  8
0
 66
     1
 10
0.0
 20
0.0
 30
0.0
  0
VERTEX
  5
2F02
  8
0
 10
313.5740260965924904
 20
61.2874400803645614
 30
0.0
  0
VERTEX
  5
2F03
  8
0
 10
312.3080194888347023
 20
61.3144339031563419
 30
0.0
  0
VERTEX
  5
2F04
  8
0
 10
311.0661143357614264
 20
61.3591411806552074
 30
0.0
  0
VERTEX
  5
2F05
  8
0
 10
310.2882601378885852
 20
61.3998339417377892
 30
0.0
  0
VERTEX
  5
2F06
  8
0
 10
309.5257515549575942
 20
61.4520216982036089
 30
0.0
  0
VERTEX
  5
2F07
  8
0
 10
308.7747820047214873
 20
61.5180781513599086
 30
0.0
  0
VERTEX
  5
2F08
  8
0
 10
308.0422142403003818
 20
61.5996871252579368
 30
0.0
  0
SEQEND
  5
2F09
  8
0
  0
LINE
  5
2740
  8
0
 10
297.999984285696712
 20
94.7725501911983201
 30
0.0
 11
297.999984285696712
 21
65.1530762192047632
 31
0.0
  0
POLYLINE
  5
2743
  8
0
 66
     1
 10
0.0
 20
0.0
 30
0.0
  0
VERTEX
  5
2F0A
  8
0
 10
297.999984285696712
 20
94.7725501911983201
 30
0.0
  0
VERTEX
  5
2F0B
  8
0
 10
298.0837009276783078
 20
95.1415080724872979
 30
0.0
  0
VERTEX
  5
2F0C
  8
0
 10
298.3342137194280781
 20
95.5076579615168555
 30
0.0
  0
VERTEX
  5
2F0D
  8
0
 10
298.7496161073373173
 20
95.8682132365440509
 30
0.0
  0
VERTEX
  5
2F0E
  8
0
 10
299.326746628406795
 20
96.2204298542167322
 30
0.0
  0
VERTEX
  5
2F0F
  8
0
 10
300.0612129708903808
 20
96.5616272334002019
 30
0.0
  0
VERTEX
  5
2F10
  8
0
 10
300.9474254024390802
 20
96.889208656018269
 30
0.0
  0
VERTEX
  5
2F11
  8
0
 10
301.9786393113390091
 20
97.200681029645736
 30
0.0
  0
VERTEX
  5
2F12
  8
0
 10
302.6666509523635114
 20
97.3732145230329422
 30
0.0
  0
SEQEND
  5
2F13
  8
0
  0
LINE
  5
2752
  8
0
 10
333.9999842856968257
 20
93.8934449209565685
 30
0.0
 11
333.9999842856968257
 21
111.962813205201499
 31
0.0
  0
LINE
  5
2754
  8
0
 10
333.9999842856968257
 20
111.962813205201499
 30
0.0
 11
321.5187342856967234
 21
111.962813205201499
 31
0.0
  0
LINE
  5
2755
  8
0
 10
321.5187342856967234
 20
111.962813205201499
 30
0.0
 11
321.5187342856967234
 21
100.155779763820405
 31
0.0
  0
LINE
  5
2756
  8
0
 10
318.4812342856967007
 20
100.155779763820405
 30
0.0
 11
318.4812342856967007
 21
111.962813205201499
 31
0.0
  0
LINE
  5
2758
  8
0
 10
305.9999842856968257
 20
93.8934449209565685
 30
0.0
 11
305.9999842856968257
 21
111.962813205201499
 31
0.0
  0
LINE
  5
2759
  8
0
 10
318.4812342856967007
 20
111.962813205201499
 30
0.0
 11
305.9999842856968257
 21
111.962813205201499
 31
0.0
  0
LINE
  5
275A
  8
0
 10
317.9749842856967916
 20
94.8254971821957326
 30
0.0
 11
317.9749842856967916
 21
100.1113088066105945
 31
0.0
  0
ARC
  5
275B
  8
0
 10
319.9999842856857981
 20
79.9628132053265404
 30
0.0
 40
20.2499999998745288
 50
94.3012223046664531
 51
95.7391704772713439
  0
LINE
  5
275D
  8
0
 10
322.024984285696803
 20
100.1113088066105945
 30
0.0
 11
322.024984285696803
 21
94.8254971821957326
 31
0.0
  0
ARC
  5
275E
  8
0
 10
319.9999842857060912
 20
79.9628132053084641
 30
0.0
 40
20.249999999892669
 50
84.2608295227286419
 51
85.6987776953335612
  0
ARC
  5
2760
  8
0
 10
319.9999842856968257
 20
79.9628132052015417
 30
0.0
 40
15.0
 50
281.5369590328152754
 51
82.2413801114137044
  0
LINE
  5
2761
  8
0
 10
322.9999842856968257
 20
64.2128132052015417
 30
0.0
 11
322.9999842856968257
 21
65.2658747485024691
 31
0.0
  0
LINE
  5
2762
  8
0
 10
316.9999842856968257
 20
64.2128132052015417
 30
0.0
 11
322.9999842856968257
 21
64.2128132052015417
 31
0.0
  0
LINE
  5
2763
  8
0
 10
316.9999842856968257
 20
65.2658747485024691
 30
0.0
 11
316.9999842856968257
 21
64.2128132052015417
 31
0.0
  0
ARC
  5
2764
  8
0
 10
319.9999842856968257
 20
79.9628132052015417
 30
0.0
 40
15.0
 50
97.7586198885862956
 51
258.4630409671844973
  0
LINE
  5
2765
  8
1
 10
319.9999842856968257
 20
53.962813205201563
 30
0.0
 11
319.9999842856968257
 21
116.962813205201499
 31
0.0
  0
LINE
  5
2767
  8
1
 10
292.999984285696712
 20
79.9628132052015417
 30
0.0
 11
346.9999842856968257
 21
79.9628132052015417
 31
0.0
  0
ARC
  5
2768
  8
0
 10
319.9999842856965984
 20
79.962813205202778
 30
0.0
 40
19.7499999999987601
 50
135.1422990281058105
 51
44.8577009718938413
  0
ARC
  5
2B1B
  8
0
 10
63.3166666666665989
 20
74.1499999999998636
 30
0.0
 40
0.6499999999998565
 50
179.9999999999836859
 51
270.0000000000130171
  0
ARC
  5
2B1C
  8
0
 10
63.3166666666666629
 20
85.8500000000001933
 30
0.0
 40
0.6499999999998494
 50
89.9999999999837144
 51
180.0000000000163141
  0
LINE
  5
2B1D
  8
0
 10
63.3166666666667695
 20
73.5
 30
0.0
 11
66.0000000000001137
 21
73.5
 31
0.0
  0
LINE
  5
2B1E
  8
0
 10
66.0000000000001137
 20
86.5
 30
0.0
 11
63.3166666666668334
 21
86.5
 31
0.0
  0
LINE
  5
2B1F
  8
0
 10
77.7499999999999432
 20
76.0
 30
0.0
 11
82.2499999999999432
 21
76.0
 31
0.0
  0
LINE
  5
2B20
  8
0
 10
82.2499999999999858
 20
83.9999999999999432
 30
0.0
 11
77.75
 21
84.0
 31
0.0
  0
ARC
  5
2B21
  8
0
 10
63.3166666666666629
 20
106.8500000000000938
 30
0.0
 40
0.6499999999998565
 50
89.9999999999869686
 51
180.0000000000129887
  0
LINE
  5
2B22
  8
0
 10
66.0000000000001705
 20
107.5
 30
0.0
 11
63.3166666666667695
 21
107.5
 31
0.0
  0
LINE
  5
2B23
  8
0
 10
81.5187500000001819
 20
105.0
 30
0.0
 11
78.481250000000216
 21
105.0
 31
0.0
  0
LINE
  5
2B24
  8
0
 10
94.5333333333333599
 20
73.4999999999998863
 30
0.0
 11
97.3333333333333712
 21
74.2502577388070222
 31
0.0
  0
LINE
  5
2B25
  8
0
 10
97.3333333333334281
 20
85.7497422611927931
 30
0.0
 11
94.5333333333334167
 21
86.4999999999999432
 31
0.0
  0
LINE
  5
2B26
  8
0
 10
94.0000000000001137
 20
72.5762395692966038
 30
0.0
 11
94.5333333333333599
 21
73.4999999999998863
 31
0.0
  0
LINE
  5
2B27
  8
0
 10
94.5333333333334167
 20
86.4999999999999432
 30
0.0
 11
94.0000000000001137
 21
87.4237604307032683
 31
0.0
  0
LINE
  5
2B28
  8
0
 10
97.3333333333334849
 20
106.7497422611929068
 30
0.0
 11
94.5333333333335162
 21
107.5
 31
0.0
  0
LINE
  5
2B29
  8
0
 10
100.2500000000000995
 20
95.1465496399316635
 30
0.0
 11
100.2500000000000995
 21
100.9999999999999005
 31
0.0
  0
LINE
  5
2B2A
  8
0
 10
59.7500000000001705
 20
101.0
 30
0.0
 11
59.7500000000001705
 21
95.1462771927844955
 31
0.0
  0
LINE
  5
2B2B
  8
0
 10
100.25
 20
58.9999999999998792
 30
0.0
 11
100.25
 21
64.8537230197199506
 31
0.0
  0
LINE
  5
2B2C
  8
0
 10
59.7500000000000497
 20
64.8534503600682228
 30
0.0
 11
59.75
 21
59.0000000000001421
 31
0.0
  0
LINE
  5
2B2D
  8
0
 10
102.0
 20
65.1903788712314736
 30
0.0
 11
102.0000000000000995
 21
94.8096024696436643
 31
0.0
  0
LINE
  5
2B2E
  8
0
 10
58.0000000000001705
 20
94.8096211276974827
 30
0.0
 11
58.0000000000000568
 21
65.1903975323551634
 31
0.0
  0
LINE
  5
2B2F
  8
0
 10
78.481250000000216
 20
112.0
 30
0.0
 11
66.0000000000001137
 21
112.0
 31
0.0
  0
LINE
  5
2B30
  8
0
 10
94.0000000000001137
 20
112.0
 30
0.0
 11
81.5187500000001819
 21
112.0
 31
0.0
  0
LINE
  5
2B31
  8
0
 10
62.6666666666667425
 20
74.1500000000000341
 30
0.0
 11
62.6666666666667922
 21
85.8500000000000227
 31
0.0
  0
LINE
  5
2B32
  8
0
 10
62.6666666666667922
 20
101.0
 30
0.0
 11
62.6666666666667922
 21
106.8499999771757984
 31
0.0
  0
LINE
  5
2B35
  8
0
 10
94.5333333333334167
 20
85.6291649870200757
 30
0.0
 11
94.5333333333334167
 21
80.0000000512105629
 31
0.0
  0
LINE
  5
2B37
  8
0
 10
94.5333333333334167
 20
80.0000000512105629
 30
0.0
 11
94.5333333333333599
 21
74.3708349484671629
 31
0.0
  0
LINE
  5
2B39
  8
0
 10
94.5333333333333599
 20
74.3708349484671629
 30
0.0
 11
94.5333333333333599
 21
73.4999999999998863
 31
0.0
  0
LINE
  5
2B3A
  8
0
 10
94.5333333333334167
 20
86.4999999999999432
 30
0.0
 11
94.5333333333334167
 21
85.6291649870200757
 31
0.0
  0
LINE
  5
2B3B
  8
0
 10
97.3333333333334281
 20
85.7497422611927931
 30
0.0
 11
97.3333333333333712
 21
74.2502577388070222
 31
0.0
  0
LINE
  5
2B43
  8
0
 10
97.3333333333334849
 20
106.7497422611927931
 30
0.0
 11
97.3333333333334849
 21
100.9999999999999005
 31
0.0
  0
LINE
  5
2B46
  8
0
 10
66.0000000000001137
 20
87.5498344352706539
 30
0.0
 11
66.0000000000001137
 21
72.4501655647297866
 31
0.0
  0
LINE
  5
2B47
  8
0
 10
77.7500000000000568
 20
69.1981611294449834
 30
0.0
 11
66.0000000000001137
 21
69.1981611294449834
 31
0.0
  0
LINE
  5
2B48
  8
0
 10
66.0000000000001137
 20
72.4501655647299003
 30
0.0
 11
66.0000000000001137
 21
69.1981611294449834
 31
0.0
  0
LINE
  5
2B49
  8
0
 10
66.0000000000001137
 20
90.801838870555116
 30
0.0
 11
66.0000000000001137
 21
87.5498344352706539
 31
0.0
  0
LINE
  5
2B4A
  8
0
 10
77.7500000000001137
 20
90.8018388705550024
 30
0.0
 11
66.0000000000001137
 21
90.8018388705550024
 31
0.0
  0
LINE
  5
2B4B
  8
0
 10
77.7500000000001137
 20
90.8018388705550024
 30
0.0
 11
77.7500000000000568
 21
69.1981611294449408
 31
0.0
  0
LINE
  5
2B4C
  8
0
 10
94.0000000000001137
 20
87.5498344352706539
 30
0.0
 11
94.0000000000001137
 21
90.8018388705550024
 31
0.0
  0
LINE
  5
2B4F
  8
0
 10
94.0000000000001137
 20
69.198161129444884
 30
0.0
 11
94.0000000000001137
 21
72.4501655647292182
 31
0.0
  0
LINE
  5
2B50
  8
0
 10
94.0000000000001137
 20
69.1981611294449408
 30
0.0
 11
82.2500000000000568
 21
69.1981611294449834
 31
0.0
  0
LINE
  5
2B51
  8
0
 10
82.2500000000000568
 20
69.1981611294449408
 30
0.0
 11
82.2500000000001137
 21
90.8018388705550024
 31
0.0
  0
LINE
  5
2B52
  8
0
 10
94.0000000000001137
 20
90.8018388705548745
 30
0.0
 11
82.2500000000001137
 21
90.8018388705550024
 31
0.0
  0
LINE
  5
2B53
  8
0
 10
94.0000000000001137
 20
87.5498344352706539
 30
0.0
 11
94.0000000000001137
 21
72.4501655647292182
 31
0.0
  0
LINE
  5
2B57
  8
0
 10
66.0000000000001137
 20
91.3503927641181122
 30
0.0
 11
66.0000000000001137
 21
90.8018388705550024
 31
0.0
  0
LINE
  5
2B58
  8
0
 10
77.7499999004539291
 20
91.2740299358295033
 30
0.0
 11
77.7500000000001137
 21
90.8018388705550024
 31
0.0
  0
LINE
  5
2B5C
  8
0
 10
66.0000000000001137
 20
69.1981611294449834
 30
0.0
 11
66.0000000000001137
 21
68.6496072359240088
 31
0.0
  0
LINE
  5
2B5D
  8
0
 10
77.7500000000000568
 20
69.1981611294449834
 30
0.0
 11
77.7499997071344069
 21
68.7259700621531238
 31
0.0
  0
LINE
  5
2B61
  8
0
 10
94.0000000000001137
 20
68.6496072359111622
 30
0.0
 11
94.0000000000001137
 21
69.1981611294449408
 31
0.0
  0
LINE
  5
2B62
  8
0
 10
82.2499999999745341
 20
68.7259700684547852
 30
0.0
 11
82.2500000000000568
 21
69.1981611294449834
 31
0.0
  0
LINE
  5
2B66
  8
0
 10
94.0000000000001137
 20
90.8018388705548745
 30
0.0
 11
94.0000000000001137
 21
91.3503927640886531
 31
0.0
  0
LINE
  5
2B67
  8
0
 10
82.2500000000001137
 20
90.8018388705550024
 30
0.0
 11
82.2500002928658063
 21
91.2740299378468762
 31
0.0
  0
LINE
  5
2B6F
  8
0
 10
94.7272743408076963
 20
73.5374757167974167
 30
0.0
 11
94.7755560332110463
 21
73.5649033768205953
 31
0.0
  0
LINE
  5
2B71
  8
0
 10
94.7272743408085489
 20
73.5374757167974167
 30
0.0
 11
94.4534281822853359
 21
73.3616002185982552
 31
0.0
  0
LINE
  5
2B72
  8
0
 10
94.4534281864001741
 20
86.6383997742744754
 30
0.0
 11
94.7272727272732453
 21
86.4625251226561744
 31
0.0
  0
LINE
  5
2B74
  8
0
 10
94.7755557790684975
 20
86.4350966912764989
 30
0.0
 11
94.7272727272732453
 21
86.4625251226566434
 31
0.0
  0
LINE
  5
2B76
  8
0
 10
59.7500000000001705
 20
101.0
 30
0.0
 11
100.2500000000000995
 21
100.9999999999999005
 31
0.0
  0
LINE
  5
2B78
  8
0
 10
82.2500002928658063
 20
91.2740299378468762
 30
0.0
 11
82.2500000000001705
 21
101.0
 31
0.0
  0
LINE
  5
2B79
  8
0
 10
77.7500000000001705
 20
101.0
 30
0.0
 11
77.7499998992249743
 21
91.2740299358295033
 31
0.0
  0
LINE
  5
2B7A
  8
0
 10
59.75
 20
59.0000000000001421
 30
0.0
 11
100.25
 21
58.9999999999998792
 31
0.0
  0
LINE
  5
2B7C
  8
0
 10
82.2499999999999858
 20
59.0
 30
0.0
 11
82.2499999999741931
 21
68.7259700684547852
 31
0.0
  0
LINE
  5
2B7D
  8
0
 10
77.7499997071344069
 20
68.7259700621531238
 30
0.0
 11
77.75
 21
59.0
 31
0.0
  0
LINE
  5
2B85
  8
0
 10
78.4812500000001592
 20
102.225519198300006
 30
0.0
 11
78.4812500000001592
 21
101.0
 31
0.0
  0
LINE
  5
2B86
  8
0
 10
66.0000000000001137
 20
101.0
 30
0.0
 11
66.0000000000001137
 21
102.225519198300006
 31
0.0
  0
LINE
  5
2B87
  8
0
 10
81.5187500000001819
 20
101.0
 30
0.0
 11
81.5187500000001819
 21
102.225519198300006
 31
0.0
  0
LINE
  5
2B8A
  8
0
 10
78.4812500000001592
 20
102.225519198300006
 30
0.0
 11
78.481250000000216
 21
112.0
 31
0.0
  0
LINE
  5
2B8B
  8
0
 10
66.0000000000001137
 20
112.0
 30
0.0
 11
66.0000000000001137
 21
102.225519198300006
 31
0.0
  0
LINE
  5
2B8C
  8
0
 10
81.5187500000001819
 20
112.0
 30
0.0
 11
81.5187500000001819
 21
102.225519198300006
 31
0.0
  0
LINE
  5
2B8D
  8
0
 10
94.0000000000001137
 20
112.0
 30
0.0
 11
94.0000000000001137
 21
102.2255191982999065
 31
0.0
  0
LINE
  5
2B94
  8
0
 10
92.8996666666668602
 20
80.0
 30
0.0
 11
97.6666666666668704
 21
80.0
 31
0.0
  0
LINE
  5
2BDA
  8
0
 10
230.499984285696712
 20
196.6461465385347935
 30
0.0
 11
230.499984285696712
 21
193.9628132052013996
 31
0.0
  0
LINE
  5
2BDB
  8
0
 10
243.499984285696712
 20
193.9628132052013996
 30
0.0
 11
243.499984285696712
 21
196.6461465385347935
 31
0.0
  0
ARC
  5
2BDC
  8
0
 10
231.149984285696604
 20
196.6461465385349925
 30
0.0
 40
0.6499999999998352
 50
89.9999999999837144
 51
180.0000000000162004
  0
ARC
  5
2BDD
  8
0
 10
242.8499842856969053
 20
196.6461465385349925
 30
0.0
 40
0.6499999999998068
 50
359.9999999999836859
 51
90.0000000000130314
  0
LINE
  5
2BDE
  8
0
 10
232.999984285696712
 20
181.4815632052014109
 30
0.0
 11
232.999984285696712
 21
178.4440632052013029
 31
0.0
  0
LINE
  5
2BDF
  8
0
 10
240.999984285696712
 20
178.4440632052013029
 30
0.0
 11
240.999984285696712
 21
181.4815632052014109
 31
0.0
  0
LINE
  5
2BE0
  8
0
 10
230.499984285696712
 20
165.4294798718680966
 30
0.0
 11
231.2502420245037911
 21
162.6294798718681136
 31
0.0
  0
LINE
  5
2BE1
  8
0
 10
242.7497265468896046
 20
162.6294798718681136
 30
0.0
 11
243.499984285696712
 21
165.4294798718680966
 31
0.0
  0
LINE
  5
2BE4
  8
0
 10
231.1499842856966893
 20
197.2961465385347992
 30
0.0
 11
242.8499842856967916
 21
197.2961465385347992
 31
0.0
  0
LINE
  5
2BEF
  8
0
 10
242.7497265468896046
 20
162.6294798718681136
 30
0.0
 11
231.2502420245037911
 21
162.6294798718681136
 31
0.0
  0
ARC
  5
2CCE
  8
0
 10
336.6833176190302765
 20
106.812813205201607
 30
0.0
 40
0.6499999999998636
 50
359.9999999999869829
 51
90.0000000000097771
  0
ARC
  5
2CCF
  8
0
 10
336.6833176190302765
 20
95.1128132052013484
 30
0.0
 40
0.6499999999998636
 50
269.9999999999902229
 51
0.0000000000130276
  0
LINE
  5
2CD0
  8
0
 10
336.6833176190302197
 20
107.462813205201499
 30
0.0
 11
333.9999842856968257
 21
107.462813205201499
 31
0.0
  0
LINE
  5
2CD1
  8
0
 10
333.9999842856968257
 20
94.4628132052014848
 30
0.0
 11
336.6833176190302197
 21
94.4628132052014848
 31
0.0
  0
LINE
  5
2CD2
  8
0
 10
321.5187342856967234
 20
104.962813205201499
 30
0.0
 11
318.4812342856967007
 21
104.962813205201499
 31
0.0
  0
LINE
  5
2CD3
  8
0
 10
317.9749842856967916
 20
96.9628132052014848
 30
0.0
 11
322.0249842856969167
 21
96.9628132052014848
 31
0.0
  0
LINE
  5
2CD4
  8
0
 10
305.4666509523635227
 20
107.462813205201499
 30
0.0
 11
302.6666509523635114
 21
106.7125554663943063
 31
0.0
  0
LINE
  5
2CD5
  8
0
 10
302.6666509523635114
 20
95.2130709440086207
 30
0.0
 11
305.4666509523635227
 21
94.4628132052014848
 31
0.0
  0
LINE
  5
2CD6
  8
0
 10
337.333317619030197
 20
106.812813182377198
 30
0.0
 11
337.333317619030197
 21
95.1128132052014479
 31
0.0
  0
LINE
  5
2CD7
  8
0
 10
302.6666509523635114
 20
95.213070944008507
 30
0.0
 11
302.6666509523635114
 21
106.7125554663943063
 31
0.0
  0
LINE
  5
2CDD
  8
0
 10
244.5055377851618914
 20
100.9628132052015985
 30
0.0
 11
240.7527610354293017
 21
107.4628132052015985
 31
0.0
  0
LINE
  5
2CDE
  8
0
 10
240.7527610354293017
 20
94.4628132052015985
 30
0.0
 11
244.5055377851618914
 21
100.9628132052015985
 31
0.0
  0
LINE
  5
2CDF
  8
0
 10
240.7527610354293017
 20
107.4628132052015985
 30
0.0
 11
233.2472075359642076
 21
107.4628132052015985
 31
0.0
  0
CIRCLE
  5
2CE0
  8
0
 10
236.999984285696712
 20
100.9628132052015985
 30
0.0
 40
3.3235000000000001
  0
LINE
  5
2CE1
  8
0
 10
233.2472075359642076
 20
107.4628132052015985
 30
0.0
 11
229.4944307862315895
 21
100.9628132052015985
 31
0.0
  0
LINE
  5
2CE2
  8
0
 10
229.4944307862315895
 20
100.9628132052015985
 30
0.0
 11
233.2472075359642076
 21
94.4628132052015985
 31
0.0
  0
LINE
  5
2CE3
  8
0
 10
233.2472075359642076
 20
94.4628132052015985
 30
0.0
 11
240.7527610354293017
 21
94.4628132052015985
 31
0.0
  0
CIRCLE
  5
2CE4
  8
0
 10
236.999984285696712
 20
100.962813205201499
 30
0.0
 40
6.4999999999999583
  0
CIRCLE
  5
2CE5
  8
3
 10
236.9999842856967973
 20
100.962813205201499
 30
0.0
 40
4.0
  0
LINE
  5
2CE6
  8
0
 10
162.999984285695291
 20
87.4683667046666642
 30
0.0
 11
156.4999842856954047
 21
83.7155899549341029
 31
0.0
  0
LINE
  5
2CE7
  8
0
 10
169.499984285695291
 20
83.7155899549341029
 30
0.0
 11
162.999984285695291
 21
87.4683667046666642
 31
0.0
  0
LINE
  5
2CE8
  8
0
 10
156.4999842856954047
 20
83.7155899549341029
 30
0.0
 11
156.4999842856954047
 21
76.2100364554689804
 31
0.0
  0
CIRCLE
  5
2CE9
  8
0
 10
162.999984285695291
 20
79.9628132052015417
 30
0.0
 40
3.3235000000000001
  0
LINE
  5
2CEA
  8
0
 10
156.4999842856954047
 20
76.2100364554689804
 30
0.0
 11
162.999984285695291
 21
72.4572597057364192
 31
0.0
  0
LINE
  5
2CEB
  8
0
 10
162.999984285695291
 20
72.4572597057364192
 30
0.0
 11
169.499984285695291
 21
76.2100364554689804
 31
0.0
  0
LINE
  5
2CEC
  8
0
 10
169.499984285695291
 20
76.2100364554689804
 30
0.0
 11
169.499984285695291
 21
83.7155899549341029
 31
0.0
  0
CIRCLE
  5
2CED
  8
0
 10
162.9999842856954047
 20
79.9628132052015417
 30
0.0
 40
6.4999999999999583
  0
CIRCLE
  5
2CEE
  8
3
 10
162.9999842856954047
 20
79.9628132052015417
 30
0.0
 40
4.0
  0
LINE
  5
2CF0
  8
0
 10
243.499984285696712
 20
165.4294798718680966
 30
0.0
 11
244.4237447164001935
 21
165.9628132052015133
 31
0.0
  0
LINE
  5
2CF1
  8
0
 10
229.5762238549932022
 20
165.9628132052015133
 30
0.0
 11
230.499984285696712
 21
165.4294798718682102
 31
0.0
  0
LINE
  5
2CF6
  8
0
 10
243.499984285696712
 20
165.4294798718680966
 30
0.0
 11
230.499984285696712
 21
165.4294798718682102
 31
0.0
  0
LINE
  5
2CF7
  8
0
 10
242.7497265468894909
 20
162.6294798718681136
 30
0.0
 11
243.499984285696712
 21
165.4294798718682102
 31
0.0
  0
LINE
  5
2CF8
  8
0
 10
230.499984285696712
 20
165.4294798718682102
 30
0.0
 11
231.2502420245039048
 21
162.6294798718681136
 31
0.0
  0
ARC
  5
2CF9
  8
0
 10
231.3708191610978133
 20
168.7520494448199031
 30
0.0
 40
3.3225695729515041
 50
244.3842474680274108
 51
302.9145747864919826
  0
ARC
  5
2CFA
  8
0
 10
236.999984285696712
 20
177.8492304338323038
 30
0.0
 40
12.4197362045516098
 50
253.148388436207
 51
286.8516115637930284
  0
ARC
  5
2CFB
  8
0
 10
242.6291494102956108
 20
168.7520494448199031
 30
0.0
 40
3.3225695729515041
 50
237.08542521350779
 51
295.6157525319732144
  0
ARC
  5
2CFC
  8
0
 10
157.149984285696604
 20
196.6461465385351062
 30
0.0
 40
0.6499999999998636
 50
89.9999999999869686
 51
180.0000000000162004
  0
LINE
  5
2CFD
  8
0
 10
156.499984285696712
 20
196.6461465385349072
 30
0.0
 11
156.499984285696712
 21
193.9628132052013996
 31
0.0
  0
LINE
  5
2CFE
  8
0
 10
156.499984285696712
 20
165.4294798718682955
 30
0.0
 11
157.2502420245037911
 21
162.6294798718683126
 31
0.0
  0
LINE
  5
2CFF
  8
0
 10
157.1499842856966893
 20
197.2961465385347992
 30
0.0
 11
168.2933681551737948
 21
197.2961465385347992
 31
0.0
  0
LINE
  5
2D00
  8
0
 10
168.275522664351314
 20
162.6294798718681989
 30
0.0
 11
157.2502420245037911
 21
162.6294798718683126
 31
0.0
  0
LINE
  5
2D02
  8
2
 10
202.499984285696712
 20
164.9628132052015133
 30
0.0
 11
247.9999842856967973
 21
164.9628132052015133
 31
0.0
  0
LINE
  5
2D03
  8
2
 10
202.499984285696712
 20
164.9628132052015133
 30
0.0
 11
202.499984285696712
 21
194.9628132052015133
 31
0.0
  0
LINE
  5
2D04
  8
2
 10
247.9999842856967973
 20
194.9628132052015133
 30
0.0
 11
202.499984285696712
 21
194.9628132052015133
 31
0.0
  0
LINE
  5
2D0B
  8
0
 10
156.499984285696712
 20
165.9628132052015133
 30
0.0
 11
156.499984285696712
 21
165.4294798718682102
 31
0.0
  0
LINE
  5
2D0D
  8
0
 10
165.2050766150071013
 20
165.4294798718682102
 30
0.0
 11
156.499984285696712
 21
165.4294798718682102
 31
0.0
  0
ARC
  5
2D0F
  8
0
 10
166.249984285696712
 20
174.8307226127859906
 30
0.0
 40
9.4003725610149864
 50
250.6232260007166985
 51
263.1242869446277837
  0
ARC
  5
2D10
  8
0
 10
159.749984285696712
 20
174.8307226127859906
 30
0.0
 40
9.4003725610149864
 50
250.6232260007168975
 51
289.3767739992832162
  0
LINE
  5
2D14
  8
1
 10
162.999984285696712
 20
159.6294798718681989
 30
0.0
 11
162.999984285696712
 21
200.2961465385349129
 31
0.0
  0
LINE
  5
2D17
  8
2
 10
198.499984285696712
 20
100.962813205201499
 30
0.0
 11
198.499984285696712
 21
58.9628132052015417
 31
0.0
  0
LINE
  5
2D19
  8
3
 10
166.2329842856966877
 20
177.7128132052015133
 30
0.0
 11
166.2329842856966877
 21
182.2128132052015133
 31
0.0
  0
LINE
  5
2D1A
  8
3
 10
159.766984285696708
 20
177.7128132052015133
 30
0.0
 11
159.766984285696708
 21
182.2128132052015133
 31
0.0
  0
LINE
  5
2D1B
  8
0
 10
166.999984285696712
 20
177.7128132052015133
 30
0.0
 11
166.999984285696712
 21
182.2128132052015133
 31
0.0
  0
LINE
  5
2D1C
  8
0
 10
158.999984285696712
 20
182.2128132052015133
 30
0.0
 11
158.999984285696712
 21
177.7128132052015133
 31
0.0
  0
LINE
  5
2D1D
  8
3
 10
240.2329842856968014
 20
178.4440632052015019
 30
0.0
 11
240.2329842856968014
 21
181.4815632052014962
 31
0.0
  0
LINE
  5
2D1E
  8
3
 10
233.7669842856967932
 20
178.4440632052015019
 30
0.0
 11
233.766984285696708
 21
181.4815632052014962
 31
0.0
  0
LINE
  5
2D2B
  8
0
 10
305.9999842856968257
 20
107.462813205201499
 30
0.0
 11
305.4666509523635227
 21
107.462813205201499
 31
0.0
  0
LINE
  5
2D2C
  8
0
 10
305.4666509523635227
 20
94.4628132052014848
 30
0.0
 11
305.9999842856968257
 21
94.4628132052014848
 31
0.0
  0
LINE
  5
2D2D
  8
0
 10
305.4666509523635227
 20
94.4628132052014848
 30
0.0
 11
305.4666509523635227
 21
107.462813205201499
 31
0.0
  0
ARC
  5
2D2F
  8
0
 10
314.8678936932811894
 20
97.7128132052014848
 30
0.0
 40
9.4003725610149864
 50
160.6232260007163006
 51
199.3767739992835004
  0
ARC
  5
2D30
  8
0
 10
314.8678936932811894
 20
104.212813205201499
 30
0.0
 40
9.4003725610149864
 50
160.6232260007163006
 51
199.3767739992835004
  0
LINE
  5
2D33
  8
1
 10
227.4999842856967973
 20
100.962813205201499
 30
0.0
 11
246.499984285696712
 21
100.962813205201499
 31
0.0
  0
LINE
  5
2D34
  8
1
 10
236.999984285696712
 20
110.462813205201499
 30
0.0
 11
236.999984285696712
 21
91.4628132052015843
 31
0.0
  0
LINE
  5
2D35
  8
1
 10
153.4999842856954899
 20
79.9628132052015417
 30
0.0
 11
172.499984285695291
 21
79.9628132052015417
 31
0.0
  0
LINE
  5
2D36
  8
1
 10
162.9999842856954047
 20
89.4628132052014848
 30
0.0
 11
162.9999842856954047
 21
70.4628132052015843
 31
0.0
  0
LINE
  5
2D39
  8
1
 10
59.6666666666667709
 20
80.0000000000011084
 30
0.0
 11
100.3333333333333997
 21
80.0000000000411546
 31
0.0
  0
LINE
  5
2D49
  8
0
 10
94.5333333333334878
 20
107.5
 30
0.0
 11
94.0000000000001137
 21
107.5
 31
0.0
  0
LINE
  5
2D4A
  8
0
 10
94.5333333333334878
 20
107.5
 30
0.0
 11
94.5333333333334878
 21
100.9999999999999005
 31
0.0
  0
ARC
  5
2D4C
  8
0
 10
85.1320905924157358
 20
104.25
 30
0.0
 40
9.4003725610149864
 50
339.7735762333489902
 51
19.3767739992847794
  0
LINE
  5
2D4E
  8
3
 10
321.5187342856967234
 20
104.1958132052014037
 30
0.0
 11
318.4812342856968144
 21
104.1958132052014037
 31
0.0
  0
LINE
  5
2D4F
  8
3
 10
322.024984285696803
 20
97.7298132052014239
 30
0.0
 11
317.9749842856967916
 21
97.7298132052014239
 31
0.0
  0
LINE
  5
2D50
  8
1
 10
59.6666666666668206
 20
101.0000000000011937
 30
0.0
 11
100.3333333333333997
 21
101.0000000000412967
 31
0.0
  0
LINE
  5
2D51
  8
1
 10
299.6666509523633977
 20
100.962813205202707
 30
0.0
 11
340.3333176190300264
 21
100.9628132052427958
 31
0.0
  0
LINE
  5
2D53
  8
3
 10
81.5187500000001535
 20
104.2329999999999046
 30
0.0
 11
78.4812500000001876
 21
104.2329999999999046
 31
0.0
  0
LINE
  5
2D55
  8
1
 10
80.0
 20
54.0000000000000213
 30
0.0
 11
80.0
 21
117.0
 31
0.0
  0
ARC
  5
2D7B
  8
0
 10
221.7923711177344046
 20
103.3894367305186961
 30
0.0
 40
4.4000000000000004
 50
320.0
 51
350.9339501083405253
1001
GENIUS_GENODEF_13
1002
{
1000
HIER
1070
     0
1002
}
1002
{
1000
MANEDIT
1070
     0
1002
}
1002
{
1000
NOSEL
1070
     0
1002
}
1002
{
1000
BEHIND
1070
     0
1002
}
1002
{
1000
OTHER
1070
     0
1002
}
1002
{
1000
REACTOR
1002
}
1001
GENIUS_GENOBJ-N-FIL_13
1002
{
1000
OWNER
1000
GEN
1002
}
  0
ARC
  5
2D7E
  8
0
 10
181.749984285696712
 20
179.9628132052015133
 30
0.0
 40
22.0
 50
222.0224306291704011
 51
354.7187084454614023
  0
ARC
  5
2D7F
  8
0
 10
163.7722202423013016
 20
196.1628132052015019
 30
0.0
 40
2.2000000000000002
 50
270.0
 51
317.9775693708294853
1001
GENIUS_GENOBJ-N-FIL_13
1002
{
1000
OWNER
1000
GEN
1002
}
1001
GENIUS_GENODEF_13
1002
{
1000
HIER
1070
     0
1002
}
1002
{
1000
MANEDIT
1070
     0
1002
}
1002
{
1000
NOSEL
1070
     0
1002
}
1002
{
1000
BEHIND
1070
     0
1002
}
1002
{
1000
OTHER
1070
     0
1002
}
1002
{
1000
REACTOR
1002
}
  0
ARC
  5
2D80
  8
0
 10
163.7722202423013016
 20
163.7628132052014962
 30
0.0
 40
2.2000000000000002
 50
42.0224306291705076
 51
90.0
1001
GENIUS_GENODEF_13
1002
{
1000
HIER
1070
     0
1002
}
1002
{
1000
MANEDIT
1070
     0
1002
}
1002
{
1000
NOSEL
1070
     0
1002
}
1002
{
1000
BEHIND
1070
     0
1002
}
1002
{
1000
OTHER
1070
     0
1002
}
1002
{
1000
REACTOR
1002
}
1001
GENIUS_GENOBJ-N-FIL_13
1002
{
1000
OWNER
1000
GEN
1002
}
  0
ARC
  5
2D82
  8
0
 10
201.3704515350013082
 20
179.9290599109368998
 30
0.0
 40
23.0853017002840915
 50
5.1164500299610518
 51
27.6477676974247188
  0
ARC
  5
2D83
  8
0
 10
201.3044446758327126
 20
180.0159709800009011
 30
0.0
 40
23.1527799532427103
 50
332.3854936565430762
 51
354.8502886160711114
  0
ARC
  5
2D84
  8
0
 10
225.9715423342119891
 20
192.7820900465337957
 30
0.0
 40
4.6711137322821088
 50
182.5633118996431961
 51
207.2757739527255865
  0
ARC
  5
2D85
  8
0
 10
225.6699040252518103
 20
167.2236483527844939
 30
0.0
 40
4.3668154942382342
 50
151.8447290033911088
 51
178.2598201776523865
  0
ARC
  5
2D88
  8
0
 10
181.749984285696712
 20
179.9628132052015133
 30
0.0
 40
22.0
 50
5.2812915545384156
 51
137.9775693708295137
  0
ARC
  5
2D89
  8
0
 10
183.499984285696712
 20
179.9628132052015133
 30
0.0
 40
20.25
 50
5.7391704772666658
 51
173.6206297915570076
  0
POLYLINE
  5
2D99
  8
0
 66
     1
 10
0.0
 20
0.0
 30
0.0
  0
VERTEX
  5
2F14
  8
0
 10
65.2727270981397965
 20
68.3351213672834206
 30
0.0
  0
VERTEX
  5
2F15
  8
0
 10
64.0532837131178638
 20
68.1040283919621316
 30
0.0
  0
VERTEX
  5
2F16
  8
0
 10
63.4700218682736406
 20
67.9839416303713193
 30
0.0
  0
VERTEX
  5
2F17
  8
0
 10
62.9162536329837465
 20
67.8588698328483844
 30
0.0
  0
VERTEX
  5
2F18
  8
0
 10
62.3920327877047072
 20
67.7291572520483385
 30
0.0
  0
VERTEX
  5
2F19
  8
0
 10
61.8955196083847312
 20
67.5955366105742286
 30
0.0
  0
VERTEX
  5
2F1A
  8
0
 10
61.4254808276975623
 20
67.4586122805310993
 30
0.0
  0
VERTEX
  5
2F1B
  8
0
 10
60.9827497186961693
 20
67.3185512714302803
 30
0.0
  0
VERTEX
  5
2F1C
  8
0
 10
60.5685993011669979
 20
67.1754275235937826
 30
0.0
  0
VERTEX
  5
2F1D
  8
0
 10
60.1840955522395902
 20
67.0293524836115182
 30
0.0
  0
VERTEX
  5
2F1E
  8
0
 10
59.829614023364492
 20
66.8805626703210265
 30
0.0
  0
VERTEX
  5
2F1F
  8
0
 10
59.5053865269385724
 20
66.7293206411208502
 30
0.0
  0
VERTEX
  5
2F20
  8
0
 10
59.2116884078490386
 20
66.5758792286651016
 30
0.0
  0
VERTEX
  5
2F21
  8
0
 10
58.9489492117191176
 20
66.4204568186296029
 30
0.0
  0
VERTEX
  5
2F22
  8
0
 10
58.7176326081946485
 20
66.2632641734326739
 30
0.0
  0
VERTEX
  5
2F23
  8
0
 10
58.5181596433845712
 20
66.104517092476442
 30
0.0
  0
VERTEX
  5
2F24
  8
0
 10
58.3508005956127604
 20
65.9444491919596345
 30
0.0
  0
VERTEX
  5
2F25
  8
0
 10
58.2157924028112674
 20
65.7832980246253811
 30
0.0
  0
VERTEX
  5
2F26
  8
0
 10
58.1133176505103108
 20
65.6212987370629293
 30
0.0
  0
VERTEX
  5
2F27
  8
0
 10
58.0433869128352029
 20
65.4586788610018857
 30
0.0
  0
VERTEX
  5
2F28
  8
0
 10
58.0059769829154135
 20
65.2956644427537469
 30
0.0
  0
VERTEX
  5
2F29
  8
0
 10
58.0000000000000568
 20
65.1903975323551634
 30
0.0
  0
VERTEX
  5
2F2A
  8
0
 10
58.0291959427017474
 20
64.9694158750027952
 30
0.0
  0
VERTEX
  5
2F2B
  8
0
 10
58.09043511812893
 20
64.806702814019161
 30
0.0
  0
VERTEX
  5
2F2C
  8
0
 10
58.1846236972105331
 20
64.6445722182679248
 30
0.0
  0
VERTEX
  5
2F2D
  8
0
 10
58.3103292273193929
 20
64.4831579078701651
 30
0.0
  0
VERTEX
  5
2F2E
  8
0
 10
58.4660028572659769
 20
64.3225853017263205
 30
0.0
  0
VERTEX
  5
2F2F
  8
0
 10
58.6524571711844018
 20
64.1631617975448307
 30
0.0
  0
VERTEX
  5
2F30
  8
0
 10
58.874388141459832
 20
64.0054940577895337
 30
0.0
  0
VERTEX
  5
2F31
  8
0
 10
59.1366002667479904
 20
63.8501971039698901
 30
0.0
  0
VERTEX
  5
2F32
  8
0
 10
59.4342382464512085
 20
63.6971413826061479
 30
0.0
  0
VERTEX
  5
2F33
  8
0
 10
59.7500000000000497
 20
63.5452379454297898
 30
0.0
  0
SEQEND
  5
2F34
  8
0
  0
POLYLINE
  5
2D9A
  8
0
 66
     1
 10
0.0
 20
0.0
 30
0.0
  0
VERTEX
  5
2F35
  8
0
 10
77.7499997071344069
 20
68.7259700621531238
 30
0.0
  0
VERTEX
  5
2F36
  8
0
 10
76.8272657250267486
 20
68.6999661195335278
 30
0.0
  0
VERTEX
  5
2F37
  8
0
 10
75.9093557475087692
 20
68.66937000272641
 30
0.0
  0
VERTEX
  5
2F38
  8
0
 10
75.0008224182375756
 20
68.6300350122457132
 30
0.0
  0
VERTEX
  5
2F39
  8
0
 10
74.1039754019231935
 20
68.5814965938847365
 30
0.0
  0
VERTEX
  5
2F3A
  8
0
 10
73.2200394689040763
 20
68.5250680043018292
 30
0.0
  0
VERTEX
  5
2F3B
  8
0
 10
72.3506618165165634
 20
68.4613052258172701
 30
0.0
  0
VERTEX
  5
2F3C
  8
0
 10
71.497885526563465
 20
68.3900547186546959
 30
0.0
  0
VERTEX
  5
2F3D
  8
0
 10
70.6636401346437708
 20
68.3112917080891293
 30
0.0
  0
VERTEX
  5
2F3E
  8
0
 10
69.849633560000342
 20
68.2252596127512305
 30
0.0
  0
VERTEX
  5
2F3F
  8
0
 10
69.057538352091953
 20
68.1322166580728066
 30
0.0
  0
VERTEX
  5
2F40
  8
0
 10
68.2889831957325555
 20
68.0323825807520279
 30
0.0
  0
VERTEX
  5
2F41
  8
0
 10
67.914038181134174
 20
67.9799853392266442
 30
0.0
  0
VERTEX
  5
2F42
  8
0
 10
67.5455713297191664
 20
67.9259730186557533
 30
0.0
  0
VERTEX
  5
2F43
  8
0
 10
67.183764699515379
 20
67.870376754039043
 30
0.0
  0
VERTEX
  5
2F44
  8
0
 10
66.8288002464482673
 20
67.8132277036400666
 30
0.0
  0
VERTEX
  5
2F45
  8
0
 10
66.4808598781315823
 20
67.7545570334128371
 30
0.0
  0
VERTEX
  5
2F46
  8
0
 10
66.1401193727998162
 20
67.694396885027146
 30
0.0
  0
VERTEX
  5
2F47
  8
0
 10
65.8067424488204296
 20
67.6327813199233532
 30
0.0
  0
VERTEX
  5
2F48
  8
0
 10
65.4808914169789915
 20
67.5697446236102053
 30
0.0
  0
VERTEX
  5
2F49
  8
0
 10
65.1627285880610714
 20
67.5053210815963922
 30
0.0
  0
VERTEX
  5
2F4A
  8
0
 10
64.8524145957395604
 20
67.4395451800876913
 30
0.0
  0
VERTEX
  5
2F4B
  8
0
 10
64.5500977817194439
 20
67.3724528762474932
 30
0.0
  0
VERTEX
  5
2F4C
  8
0
 10
64.255921018435231
 20
67.3040807817369426
 30
0.0
  0
VERTEX
  5
2F4D
  8
0
 10
63.9700271533690383
 20
67.2344655112031688
 30
0.0
  0
VERTEX
  5
2F4E
  8
0
 10
63.6925588522896007
 20
67.1636437053681448
 30
0.0
  0
VERTEX
  5
2F4F
  8
0
 10
63.4236491054827525
 20
67.0916533933298496
 30
0.0
  0
VERTEX
  5
2F50
  8
0
 10
63.1634165723516929
 20
67.0185346605851748
 30
0.0
  0
VERTEX
  5
2F51
  8
0
 10
62.9119787542311002
 20
66.9443277588071908
 30
0.0
  0
VERTEX
  5
2F52
  8
0
 10
62.6694531524556382
 20
66.8690729396689818
 30
0.0
  0
VERTEX
  5
2F53
  8
0
 10
62.4359567714168691
 20
66.7928101887856513
 30
0.0
  0
VERTEX
  5
2F54
  8
0
 10
62.2116037945575471
 20
66.7155779814668364
 30
0.0
  0
VERTEX
  5
2F55
  8
0
 10
61.9965074111831527
 20
66.637414260771763
 30
0.0
  0
VERTEX
  5
2F56
  8
0
 10
61.7907808094831594
 20
66.5583569691622188
 30
0.0
  0
VERTEX
  5
2F57
  8
0
 10
61.5945359818005684
 20
66.478444098219299
 30
0.0
  0
VERTEX
  5
2F58
  8
0
 10
61.4078479647336266
 20
66.3977151574802491
 30
0.0
  0
VERTEX
  5
2F59
  8
0
 10
61.2307486728692325
 20
66.3162114277177892
 30
0.0
  0
VERTEX
  5
2F5A
  8
0
 10
61.0632675824813305
 20
66.2339742898582386
 30
0.0
  0
VERTEX
  5
2F5B
  8
0
 10
60.9054341701031916
 20
66.1510451248303326
 30
0.0
  0
VERTEX
  5
2F5C
  8
0
 10
60.7573157793542791
 20
66.067465667404818
 30
0.0
  0
VERTEX
  5
2F5D
  8
0
 10
60.6191226800933904
 20
65.9832789879000927
 30
0.0
  0
VERTEX
  5
2F5E
  8
0
 10
60.4910988573592618
 20
65.8985284716798816
 30
0.0
  0
VERTEX
  5
2F5F
  8
0
 10
60.3734882961906933
 20
65.8132575041078667
 30
0.0
  0
VERTEX
  5
2F60
  8
0
 10
60.2665010816549298
 20
65.7275094595143656
 30
0.0
  0
VERTEX
  5
2F61
  8
0
 10
60.1698584207519787
 20
65.6413275531157439
 30
0.0
  0
VERTEX
  5
2F62
  8
0
 10
60.0829143586502497
 20
65.5547548806291331
 30
0.0
  0
VERTEX
  5
2F63
  8
0
 10
60.0050140110575185
 20
65.4678345348652613
 30
0.0
  0
VERTEX
  5
2F64
  8
0
 10
59.9355068914893181
 20
65.380609615004758
 30
0.0
  0
VERTEX
  5
2F65
  8
0
 10
59.8746640038256501
 20
65.2931245549018655
 30
0.0
  0
VERTEX
  5
2F66
  8
0
 10
59.8248070181897091
 20
65.2054267585672989
 30
0.0
  0
VERTEX
  5
2F67
  8
0
 10
59.7885342536669029
 20
65.1175640307061627
 30
0.0
  0
VERTEX
  5
2F68
  8
0
 10
59.7684440293425965
 20
65.029584176023647
 30
0.0
  0
VERTEX
  5
2F69
  8
0
 10
59.7500000000000497
 20
64.8534503600682228
 30
0.0
  0
SEQEND
  5
2F6A
  8
0
  0
POLYLINE
  5
2D9B
  8
0
 66
     1
 10
0.0
 20
0.0
 30
0.0
  0
VERTEX
  5
2F6B
  8
0
 10
100.25
 20
64.8510728310331928
 30
0.0
  0
VERTEX
  5
2F6C
  8
0
 10
100.2355183462307053
 20
65.0298293665142353
 30
0.0
  0
VERTEX
  5
2F6D
  8
0
 10
100.2133626480840007
 20
65.1177846069252126
 30
0.0
  0
VERTEX
  5
2F6E
  8
0
 10
100.1752901279821941
 20
65.2056155737650016
 30
0.0
  0
VERTEX
  5
2F6F
  8
0
 10
100.1242663504770007
 20
65.2932771268939405
 30
0.0
  0
VERTEX
  5
2F70
  8
0
 10
100.0632537614697952
 20
65.3807241278156113
 30
0.0
  0
VERTEX
  5
2F71
  8
0
 10
99.9942326845487912
 20
65.467911955505528
 30
0.0
  0
VERTEX
  5
2F72
  8
0
 10
99.9168085197505462
 20
65.5547972402663532
 30
0.0
  0
VERTEX
  5
2F73
  8
0
 10
99.8302347830806838
 20
65.6413367978054936
 30
0.0
  0
VERTEX
  5
2F74
  8
0
 10
99.7337649905448131
 20
65.7274874438303698
 30
0.0
  0
VERTEX
  5
2F75
  8
0
 10
99.6267120221522333
 20
65.813206048878655
 30
0.0
  0
VERTEX
  5
2F76
  8
0
 10
99.5089901449458125
 20
65.8984500389464358
 30
0.0
  0
VERTEX
  5
2F77
  8
0
 10
99.3808632632367051
 20
65.98317716296485
 30
0.0
  0
VERTEX
  5
2F78
  8
0
 10
99.2425996047706462
 20
66.0673451738582713
 30
0.0
  0
VERTEX
  5
2F79
  8
0
 10
99.0944667183236447
 20
66.1509118262285938
 30
0.0
  0
VERTEX
  5
2F7A
  8
0
 10
98.936653502956915
 20
66.2338350689944093
 30
0.0
  0
VERTEX
  5
2F7B
  8
0
 10
98.7691979583946136
 20
66.3160732238953585
 30
0.0
  0
VERTEX
  5
2F7C
  8
0
 10
98.5921210024356469
 20
66.3975846548746631
 30
0.0
  0
VERTEX
  5
2F7D
  8
0
 10
98.4054435528788929
 20
66.4783277258756158
 30
0.0
  0
VERTEX
  5
2F7E
  8
0
 10
98.209195241365677
 20
66.5582608603992014
 30
0.0
  0
VERTEX
  5
2F7F
  8
0
 10
98.0034650707252553
 20
66.6373428877391234
 30
0.0
  0
VERTEX
  5
2F80
  8
0
 10
97.7883668060420206
 20
66.7155328064352489
 30
0.0
  0
VERTEX
  5
2F81
  8
0
 10
97.5640142946481603
 20
66.7927896155895411
 30
0.0
  0
VERTEX
  5
2F82
  8
0
 10
97.3305214001256473
 20
66.8690723347619382
 30
0.0
  0
VERTEX
  5
2F83
  8
0
 10
97.0880025861191456
 20
66.9443407389698137
 30
0.0
  0
VERTEX
  5
2F84
  8
0
 10
96.8365730779454026
 20
67.0185555621484781
 30
0.0
  0
VERTEX
  5
2F85
  8
0
 10
96.5763481500701886
 20
67.0916776001100885
 30
0.0
  0
VERTEX
  5
2F86
  8
0
 10
96.3074430769592311
 20
67.1636676486668165
 30
0.0
  0
VERTEX
  5
2F87
  8
0
 10
96.0299773953636731
 20
67.2344869685030204
 30
0.0
  0
VERTEX
  5
2F88
  8
0
 10
95.7440879924455572
 20
67.3040987126502728
 30
0.0
  0
VERTEX
  5
2F89
  8
0
 10
95.4499161696133029
 20
67.3724665155861686
 30
0.0
  0
VERTEX
  5
2F8A
  8
0
 10
95.1476032282761963
 20
67.4395540117884451
 30
0.0
  0
VERTEX
  5
2F8B
  8
0
 10
94.8372910785474517
 20
67.5053249764358156
 30
0.0
  0
VERTEX
  5
2F8C
  8
0
 10
94.5191318590329672
 20
67.5697455490097809
 30
0.0
  0
VERTEX
  5
2F8D
  8
0
 10
94.193286197800191
 20
67.6327838313195144
 30
0.0
  0
VERTEX
  5
2F8E
  8
0
 10
93.8599149800237029
 20
67.6944079846042399
 30
0.0
  0
VERTEX
  5
2F8F
  8
0
 10
93.5191790980524189
 20
67.7545861675535548
 30
0.0
  0
VERTEX
  5
2F90
  8
0
 10
93.1712439302029765
 20
67.8132849446320876
 30
0.0
  0
VERTEX
  5
2F91
  8
0
 10
92.816286996134636
 20
67.870466565509588
 30
0.0
  0
VERTEX
  5
2F92
  8
0
 10
92.4544878494972693
 20
67.9260925570153802
 30
0.0
  0
VERTEX
  5
2F93
  8
0
 10
92.0860260439408336
 20
67.980124445978845
 30
0.0
  0
VERTEX
  5
2F94
  8
0
 10
91.7110822774963594
 20
68.0325246526830227
 30
0.0
  0
VERTEX
  5
2F95
  8
0
 10
91.3298498822800582
 20
68.0832654612319601
 30
0.0
  0
VERTEX
  5
2F96
  8
0
 10
90.9425300344603329
 20
68.1323252798238173
 30
0.0
  0
VERTEX
  5
2F97
  8
0
 10
90.5493240278153593
 20
68.1796826084783163
 30
0.0
  0
VERTEX
  5
2F98
  8
0
 10
90.1504331677265185
 20
68.2253159315717141
 30
0.0
  0
VERTEX
  5
2F99
  8
0
 10
89.3364177849749979
 20
68.3113033637118718
 30
0.0
  0
VERTEX
  5
2F9A
  8
0
 10
88.5021568922268642
 20
68.3900311031738255
 30
0.0
  0
VERTEX
  5
2F9B
  8
0
 10
87.649367232816644
 20
68.4612716686271341
 30
0.0
  0
VERTEX
  5
2F9C
  8
0
 10
86.78000086208813
 20
68.5250709350055018
 30
0.0
  0
VERTEX
  5
2F9D
  8
0
 10
85.8960829459306865
 20
68.5815451441055615
 30
0.0
  0
VERTEX
  5
2F9E
  8
0
 10
84.9992079964235785
 20
68.6300459976644532
 30
0.0
  0
VERTEX
  5
2F9F
  8
0
 10
84.0906079715047667
 20
68.6692799770849973
 30
0.0
  0
VERTEX
  5
2FA0
  8
0
 10
83.172689628662738
 20
68.69987627919798
 30
0.0
  0
VERTEX
  5
2FA1
  8
0
 10
82.2499999999741931
 20
68.7259700684547994
 30
0.0
  0
SEQEND
  5
2FA2
  8
0
  0
POLYLINE
  5
2D9C
  8
0
 66
     1
 10
0.0
 20
0.0
 30
0.0
  0
VERTEX
  5
2FA3
  8
0
 10
100.25
 20
63.5466581151560987
 30
0.0
  0
VERTEX
  5
2FA4
  8
0
 10
100.5664888206431016
 20
63.6984644437136467
 30
0.0
  0
VERTEX
  5
2FA5
  8
0
 10
100.8647765435944024
 20
63.8514282288337398
 30
0.0
  0
VERTEX
  5
2FA6
  8
0
 10
101.1274477507499938
 20
64.0066463784994539
 30
0.0
  0
VERTEX
  5
2FA7
  8
0
 10
101.3494504818019948
 20
64.1642630079548013
 30
0.0
  0
VERTEX
  5
2FA8
  8
0
 10
101.5355707161559025
 20
64.3236640693408361
 30
0.0
  0
VERTEX
  5
2FA9
  8
0
 10
101.6906259861125932
 20
64.4842330696916264
 30
0.0
  0
VERTEX
  5
2FAA
  8
0
 10
101.815848443492996
 20
64.6456296235220833
 30
0.0
  0
VERTEX
  5
2FAB
  8
0
 10
101.9097187877408004
 20
64.8077252326457938
 30
0.0
  0
VERTEX
  5
2FAC
  8
0
 10
101.970726953762707
 20
64.9703911122609696
 30
0.0
  0
VERTEX
  5
2FAD
  8
0
 10
102.0
 20
65.1903788712314736
 30
0.0
  0
VERTEX
  5
2FAE
  8
0
 10
101.9932262464458006
 20
65.2965523295605124
 30
0.0
  0
VERTEX
  5
2FAF
  8
0
 10
101.9554230582491954
 20
65.4595237482801053
 30
0.0
  0
VERTEX
  5
2FB0
  8
0
 10
101.8851793643195975
 20
65.6220963249572833
 30
0.0
  0
VERTEX
  5
2FB1
  8
0
 10
101.7825057048326016
 20
65.7840457512876355
 30
0.0
  0
VERTEX
  5
2FB2
  8
0
 10
101.6474252655194022
 20
65.9451472118469866
 30
0.0
  0
VERTEX
  5
2FB3
  8
0
 10
101.4800997131238063
 20
66.1051689385976431
 30
0.0
  0
VERTEX
  5
2FB4
  8
0
 10
101.2807662641371991
 20
66.2638753704317764
 30
0.0
  0
VERTEX
  5
2FB5
  8
0
 10
101.0496751765204948
 20
66.4210325334284448
 30
0.0
  0
VERTEX
  5
2FB6
  8
0
 10
100.7871694339949045
 20
66.5764187290888714
 30
0.0
  0
VERTEX
  5
2FB7
  8
0
 10
100.4936343676295962
 20
66.729817865032274
 30
0.0
  0
VERTEX
  5
2FB8
  8
0
 10
100.1694447634839946
 20
66.8810091952926911
 30
0.0
  0
VERTEX
  5
2FB9
  8
0
 10
99.8149086630316731
 20
67.029742935218863
 30
0.0
  0
VERTEX
  5
2FBA
  8
0
 10
99.4303085556824726
 20
67.1757581831778907
 30
0.0
  0
VERTEX
  5
2FBB
  8
0
 10
99.0160576654618154
 20
67.3188185411447506
 30
0.0
  0
VERTEX
  5
2FBC
  8
0
 10
98.5732607784364774
 20
67.4588172984810512
 30
0.0
  0
VERTEX
  5
2FBD
  8
0
 10
98.1032504119078084
 20
67.5956904505775356
 30
0.0
  0
VERTEX
  5
2FBE
  8
0
 10
97.6069086598874236
 20
67.7292798408579131
 30
0.0
  0
VERTEX
  5
2FBF
  8
0
 10
97.0829565850994101
 20
67.8589756067601826
 30
0.0
  0
VERTEX
  5
2FC0
  8
0
 10
96.5294681277134003
 20
67.9840326220021183
 30
0.0
  0
VERTEX
  5
2FC1
  8
0
 10
95.9464245172340355
 20
68.1040959822923355
 30
0.0
  0
VERTEX
  5
2FC2
  8
0
 10
94.7272730945680905
 20
68.3351213338686421
 30
0.0
  0
SEQEND
  5
2FC3
  8
0
  0
POLYLINE
  5
2DA3
  8
0
 66
     1
 10
0.0
 20
0.0
 30
0.0
  0
VERTEX
  5
2FC4
  8
0
 10
59.7500000000001705
 20
95.1462771927844955
 30
0.0
  0
VERTEX
  5
2FC5
  8
0
 10
59.7644816744034983
 20
94.9701708408563263
 30
0.0
  0
VERTEX
  5
2FC6
  8
0
 10
59.786637361429591
 20
94.8822155974260966
 30
0.0
  0
VERTEX
  5
2FC7
  8
0
 10
59.8247098716285421
 20
94.7943846272892756
 30
0.0
  0
VERTEX
  5
2FC8
  8
0
 10
59.8757336427043896
 20
94.7067230706420276
 30
0.0
  0
VERTEX
  5
2FC9
  8
0
 10
59.9367462309083621
 20
94.6192760660374574
 30
0.0
  0
VERTEX
  5
2FCA
  8
0
 10
60.0057673097377915
 20
94.5320882345430249
 30
0.0
  0
VERTEX
  5
2FCB
  8
0
 10
60.0831914764571877
 20
94.4452029458596485
 30
0.0
  0
VERTEX
  5
2FCC
  8
0
 10
60.1697652144467128
 20
94.3586633842765252
 30
0.0
  0
VERTEX
  5
2FCD
  8
0
 10
60.2662350070864719
 20
94.2725127340828948
 30
0.0
  0
VERTEX
  5
2FCE
  8
0
 10
60.3732879742179094
 20
94.186794124739194
 30
0.0
  0
VERTEX
  5
2FCF
  8
0
 10
60.4910098498816495
 20
94.1015501302592554
 30
0.0
  0
VERTEX
  5
2FD0
  8
0
 10
60.619136729995347
 20
94.0168230017274169
 30
0.0
  0
VERTEX
  5
2FD1
  8
0
 10
60.7574003869722219
 20
93.9326549862346951
 30
0.0
  0
VERTEX
  5
2FD2
  8
0
 10
60.9055332721824811
 20
93.8490883291946858
 30
0.0
  0
VERTEX
  5
2FD3
  8
0
 10
61.063346486400377
 20
93.7661650817023968
 30
0.0
  0
VERTEX
  5
2FD4
  8
0
 10
61.2308020297636233
 20
93.6839269220268847
 30
0.0
  0
VERTEX
  5
2FD5
  8
0
 10
61.407878984424471
 20
93.6024154862327435
 30
0.0
  0
VERTEX
  5
2FD6
  8
0
 10
61.5945564325351569
 20
93.5216724103846531
 30
0.0
  0
VERTEX
  5
2FD7
  8
0
 10
61.790804742453652
 20
93.4417392709899559
 30
0.0
  0
VERTEX
  5
2FD8
  8
0
 10
61.9965349114253073
 20
93.3626572387646121
 30
0.0
  0
VERTEX
  5
2FD9
  8
0
 10
62.2116331743769635
 20
93.2844673151784463
 30
0.0
  0
VERTEX
  5
2FDA
  8
0
 10
62.4359856839858125
 20
93.2072105011391017
 30
0.0
  0
VERTEX
  5
2FDB
  8
0
 10
62.6694785766792606
 20
93.1309277770964314
 30
0.0
  0
VERTEX
  5
2FDC
  8
0
 10
62.911997388817241
 20
93.0556593680434361
 30
0.0
  0
VERTEX
  5
2FDD
  8
0
 10
63.163426895079283
 20
92.9814445400530758
 30
0.0
  0
VERTEX
  5
2FDE
  8
0
 10
63.4236518209950475
 20
92.9083224973209241
 30
0.0
  0
VERTEX
  5
2FDF
  8
0
 10
63.6925568920942169
 20
92.836332444042597
 30
0.0
  0
VERTEX
  5
2FE0
  8
0
 10
63.9700225716354893
 20
92.7655131195430727
 30
0.0
  0
VERTEX
  5
2FE1
  8
0
 10
64.2559119724703294
 20
92.6959013708006836
 30
0.0
  0
VERTEX
  5
2FE2
  8
0
 10
64.5500837931910496
 20
92.6275335633463044
 30
0.0
  0
VERTEX
  5
2FE3
  8
0
 10
64.8523967323890673
 20
92.5604460627107528
 30
0.0
  0
VERTEX
  5
2FE4
  8
0
 10
65.1627088799547209
 20
92.4946750937241973
 30
0.0
  0
VERTEX
  5
2FE5
  8
0
 10
65.4808680972954136
 20
92.430254516913692
 30
0.0
  0
VERTEX
  5
2FE6
  8
0
 10
65.8067137563449904
 20
92.3672162304732467
 30
0.0
  0
VERTEX
  5
2FE7
  8
0
 10
66.1400849719285731
 20
92.3055920731665509
 30
0.0
  0
VERTEX
  5
2FE8
  8
0
 10
66.4808208516970041
 20
92.2454138863068067
 30
0.0
  0
VERTEX
  5
2FE9
  8
0
 10
66.8287560173423429
 20
92.1867151054292435
 30
0.0
  0
VERTEX
  5
2FEA
  8
0
 10
67.1837129492112837
 20
92.1295334808658453
 30
0.0
  0
VERTEX
  5
2FEB
  8
0
 10
67.5455120936544091
 20
92.0739074857909259
 30
0.0
  0
VERTEX
  5
2FEC
  8
0
 10
67.9139738970223164
 20
92.0198755933787567
 30
0.0
  0
VERTEX
  5
2FED
  8
0
 10
68.2889176612877407
 20
91.9674753833526921
 30
0.0
  0
VERTEX
  5
2FEE
  8
0
 10
68.6701500543451431
 20
91.9167345716215749
 30
0.0
  0
VERTEX
  5
2FEF
  8
0
 10
69.0574699000275558
 20
91.8676747499937534
 30
0.0
  0
VERTEX
  5
2FF0
  8
0
 10
69.4506759045574569
 20
91.8203174184555024
 30
0.0
  0
VERTEX
  5
2FF1
  8
0
 10
69.8495667625543746
 20
91.7746840926363205
 30
0.0
  0
VERTEX
  5
2FF2
  8
0
 10
70.6635821412052394
 20
91.68869665552117
 30
0.0
  0
VERTEX
  5
2FF3
  8
0
 10
71.4978430299755559
 20
91.6099689117276341
 30
0.0
  0
VERTEX
  5
2FF4
  8
0
 10
72.350632685561493
 20
91.5387283426239406
 30
0.0
  0
VERTEX
  5
2FF5
  8
0
 10
73.219999052657613
 20
91.4749290733137741
 30
0.0
  0
VERTEX
  5
2FF6
  8
0
 10
74.103916965353136
 20
91.418454861958665
 30
0.0
  0
VERTEX
  5
2FF7
  8
0
 10
75.0007919115205368
 20
91.369954006769504
 30
0.0
  0
VERTEX
  5
2FF8
  8
0
 10
75.9093919332722322
 20
91.3307200264967065
 30
0.0
  0
VERTEX
  5
2FF9
  8
0
 10
76.8273102732363213
 20
91.3001237244684063
 30
0.0
  0
VERTEX
  5
2FFA
  8
0
 10
77.7499998992249601
 20
91.2740299358294891
 30
0.0
  0
SEQEND
  5
2FFB
  8
0
  0
POLYLINE
  5
2DA4
  8
0
 66
     1
 10
0.0
 20
0.0
 30
0.0
  0
VERTEX
  5
2FFC
  8
0
 10
59.7500000000001705
 20
96.4533417367644006
 30
0.0
  0
VERTEX
  5
2FFD
  8
0
 10
59.4335112220965485
 20
96.3015354114183708
 30
0.0
  0
VERTEX
  5
2FFE
  8
0
 10
59.1352235405954403
 20
96.1485716297308102
 30
0.0
  0
VERTEX
  5
2FFF
  8
0
 10
58.8725523723304818
 20
95.9933534839312443
 30
0.0
  0
VERTEX
  5
3000
  8
0
 10
58.650549677043827
 20
95.8357368588234664
 30
0.0
  0
VERTEX
  5
3001
  8
0
 10
58.464429475535411
 20
95.6763358021669035
 30
0.0
  0
VERTEX
  5
3002
  8
0
 10
58.3093742357039986
 20
95.5157668068281254
 30
0.0
  0
VERTEX
  5
3003
  8
0
 10
58.1841518056278275
 20
95.3543702582461776
 30
0.0
  0
VERTEX
  5
3004
  8
0
 10
58.0902814856813805
 20
95.1922746545909177
 30
0.0
  0
VERTEX
  5
3005
  8
0
 10
58.0292733408019714
 20
95.0296087806459582
 30
0.0
  0
VERTEX
  5
3006
  8
0
 10
58.0000000000001705
 20
94.8096211276974827
 30
0.0
  0
VERTEX
  5
3007
  8
0
 10
58.0067740809146599
 20
94.7034475751457876
 30
0.0
  0
VERTEX
  5
3008
  8
0
 10
58.0445772808128382
 20
94.5404761624719754
 30
0.0
  0
VERTEX
  5
3009
  8
0
 10
58.1148209833288121
 20
94.3779035918884546
 30
0.0
  0
VERTEX
  5
300A
  8
0
 10
58.2174946483011624
 20
94.2159541716657571
 30
0.0
  0
VERTEX
  5
300B
  8
0
 10
58.3525750900196769
 20
94.0548527171941089
 30
0.0
  0
VERTEX
  5
300C
  8
0
 10
58.5199006417901586
 20
93.8948309964769123
 30
0.0
  0
VERTEX
  5
300D
  8
0
 10
58.71923408717673
 20
93.7361245705881032
 30
0.0
  0
VERTEX
  5
300E
  8
0
 10
58.9503251682782121
 20
93.5789674134155263
 30
0.0
  0
VERTEX
  5
300F
  8
0
 10
59.2128309014494931
 20
93.4235812234277745
 30
0.0
  0
VERTEX
  5
3010
  8
0
 10
59.5063659556986622
 20
93.270182092975773
 30
0.0
  0
VERTEX
  5
3011
  8
0
 10
59.8305555450447315
 20
93.11899076799493
 30
0.0
  0
VERTEX
  5
3012
  8
0
 10
60.1850916281107118
 20
92.970257033105554
 30
0.0
  0
VERTEX
  5
3013
  8
0
 10
60.5696917155946011
 20
92.82424178991144
 30
0.0
  0
VERTEX
  5
3014
  8
0
 10
60.9839425836032021
 20
92.6811814364148461
 30
0.0
  0
VERTEX
  5
3015
  8
0
 10
61.4267394462143486
 20
92.5411826832431643
 30
0.0
  0
VERTEX
  5
3016
  8
0
 10
61.8967497862385585
 20
92.4043095349914836
 30
0.0
  0
VERTEX
  5
3017
  8
0
 10
62.3930915096991399
 20
92.2707201482005672
 30
0.0
  0
VERTEX
  5
3018
  8
0
 10
62.917043553839882
 20
92.1410243853565873
 30
0.0
  0
VERTEX
  5
3019
  8
0
 10
63.4705319785277311
 20
92.0159673726726055
 30
0.0
  0
VERTEX
  5
301A
  8
0
 10
64.0535755545337651
 20
91.8959040144395232
 30
0.0
  0
VERTEX
  5
301B
  8
0
 10
65.2727269054321368
 20
91.6648786661312442
 30
0.0
  0
SEQEND
  5
301C
  8
0
  0
POLYLINE
  5
2DA5
  8
0
 66
     1
 10
0.0
 20
0.0
 30
0.0
  0
VERTEX
  5
301D
  8
0
 10
82.2500002928658063
 20
91.2740299378468762
 30
0.0
  0
VERTEX
  5
301E
  8
0
 10
83.1727342749734362
 20
91.3000338804664437
 30
0.0
  0
VERTEX
  5
301F
  8
0
 10
84.0906442524913871
 20
91.3306299972735474
 30
0.0
  0
VERTEX
  5
3020
  8
0
 10
84.999177581762595
 20
91.3699649877542157
 30
0.0
  0
VERTEX
  5
3021
  8
0
 10
85.8960245980770054
 20
91.4185034061152066
 30
0.0
  0
VERTEX
  5
3022
  8
0
 10
86.7799605310961084
 20
91.474931995698114
 30
0.0
  0
VERTEX
  5
3023
  8
0
 10
87.6493381834836214
 20
91.5386947741826731
 30
0.0
  0
VERTEX
  5
3024
  8
0
 10
88.502114473436734
 20
91.6099452813452615
 30
0.0
  0
VERTEX
  5
3025
  8
0
 10
89.3363598653564281
 20
91.6887082919108138
 30
0.0
  0
VERTEX
  5
3026
  8
0
 10
90.1503664399998428
 20
91.7747403872487268
 30
0.0
  0
VERTEX
  5
3027
  8
0
 10
90.9424616479082033
 20
91.8677833419271366
 30
0.0
  0
VERTEX
  5
3028
  8
0
 10
91.7110168042676008
 20
91.9676174192479436
 30
0.0
  0
VERTEX
  5
3029
  8
0
 10
92.0859618188659823
 20
92.0200146607732989
 30
0.0
  0
VERTEX
  5
302A
  8
0
 10
92.4544286702809899
 20
92.074026981344204
 30
0.0
  0
VERTEX
  5
302B
  8
0
 10
92.8162353004847915
 20
92.1296232459608717
 30
0.0
  0
VERTEX
  5
302C
  8
0
 10
93.1711997535519032
 20
92.1867722963598339
 30
0.0
  0
VERTEX
  5
302D
  8
0
 10
93.5191401218685598
 20
92.2454429665870919
 30
0.0
  0
VERTEX
  5
302E
  8
0
 10
93.8598806272003259
 20
92.3056031149727829
 30
0.0
  0
VERTEX
  5
302F
  8
0
 10
94.1932575511797268
 20
92.3672186800765331
 30
0.0
  0
VERTEX
  5
3030
  8
0
 10
94.5191085830211364
 20
92.4302553763896952
 30
0.0
  0
VERTEX
  5
3031
  8
0
 10
94.8372714119390565
 20
92.4946789184034799
 30
0.0
  0
VERTEX
  5
3032
  8
0
 10
95.1475854042605533
 20
92.5604548199121808
 30
0.0
  0
VERTEX
  5
3033
  8
0
 10
95.4499022182806556
 20
92.6275471237523789
 30
0.0
  0
VERTEX
  5
3034
  8
0
 10
95.7440789815648969
 20
92.6959192182629295
 30
0.0
  0
VERTEX
  5
3035
  8
0
 10
96.0299728466311109
 20
92.7655344887967033
 30
0.0
  0
VERTEX
  5
3036
  8
0
 10
96.3074411477105343
 20
92.8363562946317273
 30
0.0
  0
VERTEX
  5
3037
  8
0
 10
96.5763508945173896
 20
92.9083466066700367
 30
0.0
  0
VERTEX
  5
3038
  8
0
 10
96.8365834276484492
 20
92.9814653394147257
 30
0.0
  0
VERTEX
  5
3039
  8
0
 10
97.0880212457690561
 20
93.0556722411926955
 30
0.0
  0
VERTEX
  5
303A
  8
0
 10
97.330546847544511
 20
93.1309270603309187
 30
0.0
  0
VERTEX
  5
303B
  8
0
 10
97.5640432285833015
 20
93.207189811214235
 30
0.0
  0
VERTEX
  5
303C
  8
0
 10
97.7883962054426235
 20
93.2844220185330357
 30
0.0
  0
VERTEX
  5
303D
  8
0
 10
98.003492588817025
 20
93.3625857392281233
 30
0.0
  0
VERTEX
  5
303E
  8
0
 10
98.2092191905170182
 20
93.4416430308376817
 30
0.0
  0
VERTEX
  5
303F
  8
0
 10
98.4054640181996092
 20
93.5215559017806157
 30
0.0
  0
VERTEX
  5
3040
  8
0
 10
98.592152035266551
 20
93.6022848425196656
 30
0.0
  0
VERTEX
  5
3041
  8
0
 10
98.7692513271309736
 20
93.6837885722821113
 30
0.0
  0
VERTEX
  5
3042
  8
0
 10
98.9367324175188543
 20
93.7660257101416761
 30
0.0
  0
VERTEX
  5
3043
  8
0
 10
99.0945658298970073
 20
93.8489548751695537
 30
0.0
  0
VERTEX
  5
3044
  8
0
 10
99.242684220645927
 20
93.9325343325950683
 30
0.0
  0
VERTEX
  5
3045
  8
0
 10
99.3808773199068156
 20
94.0167210120997936
 30
0.0
  0
VERTEX
  5
3046
  8
0
 10
99.5089011426409371
 20
94.1014715283200047
 30
0.0
  0
VERTEX
  5
3047
  8
0
 10
99.6265117038095411
 20
94.1867424958920481
 30
0.0
  0
VERTEX
  5
3048
  8
0
 10
99.7334989183453047
 20
94.2724905404855491
 30
0.0
  0
VERTEX
  5
3049
  8
0
 10
99.8301415792482487
 20
94.3586724468841567
 30
0.0
  0
VERTEX
  5
304A
  8
0
 10
99.9170856413499706
 20
94.4452451193707816
 30
0.0
  0
VERTEX
  5
304B
  8
0
 10
99.9949859889427017
 20
94.5321654651346392
 30
0.0
  0
VERTEX
  5
304C
  8
0
 10
100.0644931085109022
 20
94.6193903849951568
 30
0.0
  0
VERTEX
  5
304D
  8
0
 10
100.1253359961744991
 20
94.7068754450980208
 30
0.0
  0
VERTEX
  5
304E
  8
0
 10
100.1751929818104969
 20
94.7945732414326159
 30
0.0
  0
VERTEX
  5
304F
  8
0
 10
100.2114657463333032
 20
94.8824359692937378
 30
0.0
  0
VERTEX
  5
3050
  8
0
 10
100.2315559706574959
 20
94.9704158239762535
 30
0.0
  0
VERTEX
  5
3051
  8
0
 10
100.2500000000000995
 20
95.1465496399316635
 30
0.0
  0
SEQEND
  5
3052
  8
0
  0
POLYLINE
  5
2DA6
  8
0
 66
     1
 10
0.0
 20
0.0
 30
0.0
  0
VERTEX
  5
3053
  8
0
 10
94.7272727161711146
 20
91.6648786005188754
 30
0.0
  0
VERTEX
  5
3054
  8
0
 10
95.9467162234565762
 20
91.8959715794493945
 30
0.0
  0
VERTEX
  5
3055
  8
0
 10
96.5299781252751927
 20
92.0160583439497231
 30
0.0
  0
VERTEX
  5
3056
  8
0
 10
97.0837464140462885
 20
92.1411301453588152
 30
0.0
  0
VERTEX
  5
3057
  8
0
 10
97.6079673101945957
 20
92.2708427307436239
 30
0.0
  0
VERTEX
  5
3058
  8
0
 10
98.104480537873485
 20
92.4044633773475681
 30
0.0
  0
VERTEX
  5
3059
  8
0
 10
98.5745193638220627
 20
92.5413877130687865
 30
0.0
  0
VERTEX
  5
305A
  8
0
 10
99.0172505142444237
 20
92.6814487284697464
 30
0.0
  0
VERTEX
  5
305B
  8
0
 10
99.4314009690519214
 20
92.8245724832169401
 30
0.0
  0
VERTEX
  5
305C
  8
0
 10
99.8159047511822735
 20
92.9706475306427222
 30
0.0
  0
VERTEX
  5
305D
  8
0
 10
100.1703863093987934
 20
93.1194373518074059
 30
0.0
  0
VERTEX
  5
305E
  8
0
 10
100.4946138313187021
 20
93.2706793892468937
 30
0.0
  0
VERTEX
  5
305F
  8
0
 10
100.7883119719517993
 20
93.4241208102655492
 30
0.0
  0
VERTEX
  5
3060
  8
0
 10
101.051051185474094
 20
93.5795432291596967
 30
0.0
  0
VERTEX
  5
3061
  8
0
 10
101.2823678020890981
 20
93.7367358834703168
 30
0.0
  0
VERTEX
  5
3062
  8
0
 10
101.4818407756501983
 20
93.8954829737413661
 30
0.0
  0
VERTEX
  5
3063
  8
0
 10
101.6491998278178954
 20
94.0555508837184533
 30
0.0
  0
VERTEX
  5
3064
  8
0
 10
101.7842080205659983
 20
94.2167020606123913
 30
0.0
  0
VERTEX
  5
3065
  8
0
 10
101.8866827683984013
 20
94.3787013577919538
 30
0.0
  0
VERTEX
  5
3066
  8
0
 10
101.9566134971258009
 20
94.5413212434758634
 30
0.0
  0
VERTEX
  5
3067
  8
0
 10
101.9940234134292041
 20
94.7043356712943307
 30
0.0
  0
VERTEX
  5
3068
  8
0
 10
102.0000000000000995
 20
94.8096024696436643
 30
0.0
  0
VERTEX
  5
3069
  8
0
 10
101.9708044116785999
 20
95.0305842577532758
 30
0.0
  0
VERTEX
  5
306A
  8
0
 10
101.9095652085032953
 20
95.1932973278067465
 30
0.0
  0
VERTEX
  5
306B
  8
0
 10
101.815376598790607
 20
95.355427932490187
 30
0.0
  0
VERTEX
  5
306C
  8
0
 10
101.6896710345149017
 20
95.5168422515948521
 30
0.0
  0
VERTEX
  5
306D
  8
0
 10
101.5339973648615057
 20
95.6774148660326063
 30
0.0
  0
VERTEX
  5
306E
  8
0
 10
101.3475429997664037
 20
95.8368383775684691
 30
0.0
  0
VERTEX
  5
306F
  8
0
 10
101.1256119699303042
 20
95.9945061238468469
 30
0.0
  0
VERTEX
  5
3070
  8
0
 10
100.8633997853897029
 20
96.1498030838963444
 30
0.0
  0
VERTEX
  5
3071
  8
0
 10
100.5657617714596057
 20
96.3028588130959378
 30
0.0
  0
VERTEX
  5
3072
  8
0
 10
100.250000000000199
 20
96.4547622591989153
 30
0.0
  0
SEQEND
  5
3073
  8
0
  0
ARC
  5
2DA7
  8
0
 10
91.287458546289912
 20
74.3705696400213583
 30
0.0
 40
3.2458747978862248
 50
326.6876366998013168
 51
33.3123633001987329
  0
ARC
  5
2DA8
  8
0
 10
82.3499946109511427
 20
79.9993705349493638
 30
0.0
 40
12.1833387386459098
 50
342.9842535887070767
 51
17.0157464112930796
  0
ARC
  5
2DA9
  8
0
 10
91.2879614909546149
 20
85.628925461047217
 30
0.0
 40
3.2453718512179188
 50
326.6849803320230876
 51
33.3150196679762374
  0
POLYLINE
  5
2DAA
  8
0
 66
     1
 10
0.0
 20
0.0
 30
0.0
  0
VERTEX
  5
3074
  8
0
 10
66.0000000000001705
 20
91.3503927641180553
 30
0.0
  0
VERTEX
  5
3075
  8
0
 10
65.9946719212184121
 20
91.3797980464946846
 30
0.0
  0
VERTEX
  5
3076
  8
0
 10
65.9787648215612563
 20
91.4090630475079848
 30
0.0
  0
VERTEX
  5
3077
  8
0
 10
65.9522901822998477
 20
91.4380573029939967
 30
0.0
  0
VERTEX
  5
3078
  8
0
 10
65.9153923917962032
 20
91.4666474024919438
 30
0.0
  0
VERTEX
  5
3079
  8
0
 10
65.8682151897626937
 20
91.4946980984100122
 30
0.0
  0
VERTEX
  5
307A
  8
0
 10
65.810961587481259
 20
91.5220737519187395
 30
0.0
  0
VERTEX
  5
307B
  8
0
 10
65.7438757738786848
 20
91.5486398009179965
 30
0.0
  0
VERTEX
  5
307C
  8
0
 10
65.6672480129279705
 20
91.574264212667174
 30
0.0
  0
VERTEX
  5
307D
  8
0
 10
65.5814142166403968
 20
91.5988190537242133
 30
0.0
  0
VERTEX
  5
307E
  8
0
 10
65.4867577851087788
 20
91.6221822483885404
 30
0.0
  0
VERTEX
  5
307F
  8
0
 10
65.3836997178475059
 20
91.6442369527562732
 30
0.0
  0
VERTEX
  5
3080
  8
0
 10
65.2727269054321368
 20
91.6648786661312585
 30
0.0
  0
SEQEND
  5
3081
  8
0
  0
POLYLINE
  5
2DAB
  8
0
 66
     1
 10
0.0
 20
0.0
 30
0.0
  0
VERTEX
  5
3082
  8
0
 10
94.7272727161711146
 20
91.664878600518918
 30
0.0
  0
VERTEX
  5
3083
  8
0
 10
94.6245613903885214
 20
91.6458762997972372
 30
0.0
  0
VERTEX
  5
3084
  8
0
 10
94.5285614590730461
 20
91.6256632759351817
 30
0.0
  0
VERTEX
  5
3085
  8
0
 10
94.4396615229935605
 20
91.6043206249166815
 30
0.0
  0
VERTEX
  5
3086
  8
0
 10
94.3581986663073451
 20
91.5819393015769236
 30
0.0
  0
VERTEX
  5
3087
  8
0
 10
94.284484588073596
 20
91.5586138965943235
 30
0.0
  0
VERTEX
  5
3088
  8
0
 10
94.2187959092222087
 20
91.5344436958859404
 30
0.0
  0
VERTEX
  5
3089
  8
0
 10
94.1613760008819582
 20
91.5095313504415344
 30
0.0
  0
VERTEX
  5
308A
  8
0
 10
94.1124354753019219
 20
91.4839818602502959
 30
0.0
  0
VERTEX
  5
308B
  8
0
 10
94.0721511584655872
 20
91.4579015986392392
 30
0.0
  0
VERTEX
  5
308C
  8
0
 10
94.0406710521029652
 20
91.4313972836762332
 30
0.0
  0
VERTEX
  5
308D
  8
0
 10
94.0180973848370911
 20
91.4045750431605342
 30
0.0
  0
VERTEX
  5
308E
  8
0
 10
94.004540321512593
 20
91.3775394361465345
 30
0.0
  0
VERTEX
  5
308F
  8
0
 10
94.0000000000001847
 20
91.3503927640887241
 30
0.0
  0
SEQEND
  5
3090
  8
0
  0
POLYLINE
  5
2DAC
  8
0
 66
     1
 10
0.0
 20
0.0
 30
0.0
  0
VERTEX
  5
3091
  8
0
 10
94.0000000000001137
 20
68.649607235911219
 30
0.0
  0
VERTEX
  5
3092
  8
0
 10
94.0053280787720951
 20
68.6202019535320602
 30
0.0
  0
VERTEX
  5
3093
  8
0
 10
94.0212351784213354
 20
68.5909369525159889
 30
0.0
  0
VERTEX
  5
3094
  8
0
 10
94.0477098176766901
 20
68.561942697027078
 30
0.0
  0
VERTEX
  5
3095
  8
0
 10
94.084607608176043
 20
68.5333525975261324
 30
0.0
  0
VERTEX
  5
3096
  8
0
 10
94.1317848102071366
 20
68.5053019016051508
 30
0.0
  0
VERTEX
  5
3097
  8
0
 10
94.1890384124878892
 20
68.4779262480935387
 30
0.0
  0
VERTEX
  5
3098
  8
0
 10
94.2561242260915435
 20
68.4513601990915106
 30
0.0
  0
VERTEX
  5
3099
  8
0
 10
94.3327519870451141
 20
68.4257357873397325
 30
0.0
  0
VERTEX
  5
309A
  8
0
 10
94.4185857833372353
 20
68.4011809462803484
 30
0.0
  0
VERTEX
  5
309B
  8
0
 10
94.5132422148749356
 20
68.3778177516140744
 30
0.0
  0
VERTEX
  5
309C
  8
0
 10
94.6163002821437686
 20
68.3557630472447926
 30
0.0
  0
VERTEX
  5
309D
  8
0
 10
94.7272730945681616
 20
68.3351213338687558
 30
0.0
  0
SEQEND
  5
309E
  8
0
  0
POLYLINE
  5
2DAD
  8
0
 66
     1
 10
0.0
 20
0.0
 30
0.0
  0
VERTEX
  5
309F
  8
0
 10
65.2727270981397965
 20
68.3351213672833637
 30
0.0
  0
VERTEX
  5
30A0
  8
0
 10
65.3754384485803968
 20
68.3541236701023251
 30
0.0
  0
VERTEX
  5
30A1
  8
0
 10
65.471438403463651
 20
68.3743366961070791
 30
0.0
  0
VERTEX
  5
30A2
  8
0
 10
65.5603383617486912
 20
68.3956793493382804
 30
0.0
  0
VERTEX
  5
30A3
  8
0
 10
65.6418012391292933
 20
68.4180606749603868
 30
0.0
  0
VERTEX
  5
30A4
  8
0
 10
65.7155153363542723
 20
68.4413860823034099
 30
0.0
  0
VERTEX
  5
30A5
  8
0
 10
65.7812040323406535
 20
68.4655562854506456
 30
0.0
  0
VERTEX
  5
30A6
  8
0
 10
65.8386239558173259
 20
68.4904686334104014
 30
0.0
  0
VERTEX
  5
30A7
  8
0
 10
65.8875644944136525
 20
68.5160181261876033
 30
0.0
  0
VERTEX
  5
30A8
  8
0
 10
65.9278488220399055
 20
68.5420983904463412
 30
0.0
  0
VERTEX
  5
30A9
  8
0
 10
65.9593289368878004
 20
68.5686027081065106
 30
0.0
  0
VERTEX
  5
30AA
  8
0
 10
65.9819026102474595
 20
68.5954249513541612
 30
0.0
  0
VERTEX
  5
30AB
  8
0
 10
65.9954596772754627
 20
68.6224605611177054
 30
0.0
  0
VERTEX
  5
30AC
  8
0
 10
66.0000000000000568
 20
68.6496072359238951
 30
0.0
  0
SEQEND
  5
30AD
  8
0
  0
ENDSEC
  0
EOF
