  0
SECTION
  2
HEADER
  9
$ACADVER
  1
AC1009
  9
$INSBASE
 10
0.0
 20
0.0
 30
0.0
  9
$EXTMIN
 10
0.0
 20
-2.960436562073669
 30
0.0
  9
$EXTMAX
 10
405.0761760934567
 20
257.0351234972515
 30
0.0
  9
$LIMMIN
 10
0.0
 20
0.0
  9
$LIMMAX
 10
420.0
 20
297.0
  9
$ORTHOMODE
 70
     1
  9
$REGENMODE
 70
     1
  9
$FILLMODE
 70
     1
  9
$QTEXTMODE
 70
     0
  9
$MIRRTEXT
 70
     0
  9
$DRAGMODE
 70
     2
  9
$LTSCALE
 40
10.0
  9
$OSMODE
 70
    55
  9
$ATTMODE
 70
     1
  9
$TEXTSIZE
 40
2.5
  9
$TRACEWID
 40
1.0
  9
$TEXTSTYLE
  7
STANDARD
  9
$CLAYER
  8
0
  9
$CELTYPE
  6
BYLAYER
  9
$CECOLOR
 62
   256
  9
$DIMSCALE
 40
1.0
  9
$DIMASZ
 40
2.5
  9
$DIMEXO
 40
0.625
  9
$DIMDLI
 40
3.75
  9
$DIMRND
 40
0.0
  9
$DIMDLE
 40
0.0
  9
$DIMEXE
 40
1.25
  9
$DIMTP
 40
0.0
  9
$DIMTM
 40
0.0
  9
$DIMTXT
 40
2.5
  9
$DIMCEN
 40
2.5
  9
$DIMTSZ
 40
0.0
  9
$DIMTOL
 70
     0
  9
$DIMLIM
 70
     0
  9
$DIMTIH
 70
     0
  9
$DIMTOH
 70
     0
  9
$DIMSE1
 70
     0
  9
$DIMSE2
 70
     0
  9
$DIMTAD
 70
     1
  9
$DIMZIN
 70
     8
  9
$DIMBLK
  1

  9
$DIMASO
 70
     1
  9
$DIMSHO
 70
     1
  9
$DIMPOST
  1

  9
$DIMAPOST
  1

  9
$DIMALT
 70
     0
  9
$DIMALTD
 70
     3
  9
$DIMALTF
 40
0.03937007874016
  9
$DIMLFAC
 40
1.0
  9
$DIMTOFL
 70
     1
  9
$DIMTVP
 40
0.0
  9
$DIMTIX
 70
     0
  9
$DIMSOXD
 70
     0
  9
$DIMSAH
 70
     0
  9
$DIMBLK1
  1

  9
$DIMBLK2
  1

  9
$DIMSTYLE
  2
ISO-25
  9
$DIMCLRD
 70
     0
  9
$DIMCLRE
 70
     0
  9
$DIMCLRT
 70
     0
  9
$DIMTFAC
 40
1.0
  9
$DIMGAP
 40
0.625
  9
$LUNITS
 70
     2
  9
$LUPREC
 70
     4
  9
$SKETCHINC
 40
1.0
  9
$FILLETRAD
 40
0.0
  9
$AUNITS
 70
     0
  9
$AUPREC
 70
     3
  9
$MENU
  1
.
  9
$ELEVATION
 40
0.0
  9
$PELEVATION
 40
0.0
  9
$THICKNESS
 40
0.0
  9
$LIMCHECK
 70
     0
  9
$BLIPMODE
 70
     0
  9
$CHAMFERA
 40
0.0
  9
$CHAMFERB
 40
0.0
  9
$SKPOLY
 70
     0
  9
$TDCREATE
 40
2454083.4444627082
  9
$TDUPDATE
 40
2456598.4295790512
  9
$TDINDWG
 40
2.2299332176000002
  9
$TDUSRTIMER
 40
2.2299332176000002
  9
$USRTIMER
 70
     1
  9
$ANGBASE
 50
0.0
  9
$ANGDIR
 70
     0
  9
$PDMODE
 70
     0
  9
$PDSIZE
 40
0.0
  9
$PLINEWID
 40
0.0
  9
$COORDS
 70
     1
  9
$SPLFRAME
 70
     0
  9
$SPLINETYPE
 70
     6
  9
$SPLINESEGS
 70
     8
  9
$ATTDIA
 70
     0
  9
$ATTREQ
 70
     1
  9
$HANDLING
 70
     1
  9
$HANDSEED
  5
15151
  9
$SURFTAB1
 70
     6
  9
$SURFTAB2
 70
     6
  9
$SURFTYPE
 70
     6
  9
$SURFU
 70
     6
  9
$SURFV
 70
     6
  9
$UCSNAME
  2

  9
$UCSORG
 10
0.0
 20
0.0
 30
0.0
  9
$UCSXDIR
 10
1.0
 20
0.0
 30
0.0
  9
$UCSYDIR
 10
0.0
 20
1.0
 30
0.0
  9
$PUCSNAME
  2

  9
$PUCSORG
 10
0.0
 20
0.0
 30
0.0
  9
$PUCSXDIR
 10
1.0
 20
0.0
 30
0.0
  9
$PUCSYDIR
 10
0.0
 20
1.0
 30
0.0
  9
$USERI1
 70
     0
  9
$USERI2
 70
     0
  9
$USERI3
 70
     0
  9
$USERI4
 70
     0
  9
$USERI5
 70
     0
  9
$USERR1
 40
0.0
  9
$USERR2
 40
0.0
  9
$USERR3
 40
0.0
  9
$USERR4
 40
0.0
  9
$USERR5
 40
0.0
  9
$WORLDVIEW
 70
     1
  9
$SHADEDGE
 70
     3
  9
$SHADEDIF
 70
    70
  9
$TILEMODE
 70
     1
  9
$MAXACTVP
 70
    64
  9
$PLIMCHECK
 70
     0
  9
$PEXTMIN
 10
0.0
 20
0.0
 30
0.0
  9
$PEXTMAX
 10
0.0
 20
0.0
 30
0.0
  9
$PLIMMIN
 10
0.0
 20
0.0
  9
$PLIMMAX
 10
12.0
 20
9.0
  9
$UNITMODE
 70
     0
  9
$VISRETAIN
 70
     1
  9
$PLINEGEN
 70
     0
  9
$PSLTSCALE
 70
     1
  0
ENDSEC
  0
SECTION
  2
TABLES
  0
TABLE
  2
VPORT
 70
     1
  0
VPORT
  2
*ACTIVE
 70
     0
 10
0.0
 20
0.0
 11
1.0
 21
1.0
 12
209.99359179753071
 22
216.8347166050676
 13
0.0
 23
0.0
 14
10.0
 24
10.0
 15
10.0
 25
10.0
 16
0.0
 26
0.0
 36
1.0
 17
0.0
 27
0.0
 37
0.0
 40
443.49497287230253
 41
1.7807262569832401
 42
50.0
 43
0.0
 44
0.0
 50
0.0
 51
0.0
 71
     0
 72
  1000
 73
     1
 74
     3
 75
     0
 76
     0
 77
     0
 78
     0
  0
ENDTAB
  0
TABLE
  2
LTYPE
 70
     2
  0
LTYPE
  2
CONTINUOUS
 70
     0
  3
Solid line
 72
    65
 73
     0
 40
0.0
  0
LTYPE
  2
CENTER
 70
     0
  3
____ _ ____ _ ____ _ ____ _ ____ _ ____ _ ____
 72
    65
 73
     4
 40
2.0
 49
1.25
 49
-0.25
 49
0.25
 49
-0.25
  0
ENDTAB
  0
TABLE
  2
LAYER
 70
     4
  0
LAYER
  2
0
 70
     0
 62
     7
  6
CONTINUOUS
  0
LAYER
  2
DEFPOINTS
 70
     0
 62
     7
  6
CONTINUOUS
  0
LAYER
  2
1
 70
     0
 62
     1
  6
CENTER
  0
LAYER
  2
3
 70
     0
 62
     3
  6
CONTINUOUS
  0
ENDTAB
  0
TABLE
  2
STYLE
 70
     2
  0
STYLE
  2
STANDARD
 70
     0
 40
0.0
 41
1.0
 50
0.0
 71
     0
 42
2.5
  3
txt
  4

  0
STYLE
  2
STANDARD1
 70
     0
 40
0.0
 41
1.0
 50
0.0
 71
     0
 42
3.0
  3
txt
  4

  0
ENDTAB
  0
TABLE
  2
VIEW
 70
     2
  0
VIEW
  2
OLE1
 70
     0
 40
17.336203194614189
 10
1078.262703908531
 20
377.67444865954309
 41
31.074911629702001
 11
0.0
 21
0.0
 31
1.0
 12
0.0
 22
0.0
 32
0.0
 42
50.0
 43
0.0
 44
0.0
 50
0.0
 71
     0
  0
VIEW
  2
OLE2
 70
     0
 40
50.523198253338478
 10
1031.767738941523
 20
579.92835671582054
 41
90.562155008667546
 11
0.0
 21
0.0
 31
1.0
 12
0.0
 22
0.0
 32
0.0
 42
50.0
 43
0.0
 44
0.0
 50
0.0
 71
     0
  0
ENDTAB
  0
TABLE
  2
UCS
 70
     0
  0
ENDTAB
  0
TABLE
  2
APPID
 70
    42
  0
APPID
  2
ACAD
 70
     0
  0
APPID
  2
_FTCNV
 70
     0
  0
APPID
  2
DCO15
 70
     0
  0
APPID
  2
GENIUS_GENOREF_13
 70
     0
  0
APPID
  2
GENIUS_GENOENT_13
 70
     0
  0
APPID
  2
GENIUS_GENBH_13
 70
     0
  0
APPID
  2
GENIUS_GENOBJ_13
 70
     0
  0
APPID
  2
GENIUS_GENODEF_13
 70
     0
  0
APPID
  2
GENIUS_GENOLIS_13
 70
     0
  0
APPID
  2
GENIUS_GENOBJ-NBEHI-BHF_13
 70
     0
  0
APPID
  2
GENIUS_GENOBJ-NBEHI-BHB_13
 70
     0
  0
APPID
  2
GENIUS_GENOBJ-F-PART_13
 70
     0
  0
APPID
  2
GENIUS_GEFSTDP_13
 70
     0
  0
APPID
  2
GENIUS_GENOBJ-N-RSSYM_13
 70
     0
  0
APPID
  2
GENIUS_GENSYMENT_13
 70
     0
  0
APPID
  2
GENIUS_GENOBJ-N-TIT_13
 70
     0
  0
APPID
  2
GENIUS_GENTITLE_13
 70
     0
  0
APPID
  2
GENIUS_GENZVEED_13
 70
     0
  0
APPID
  2
GENIUS_GENOBJ-N-LEADER_13
 70
     0
  0
APPID
  2
GENIUS_GENOBJ-N-FIL_13
 70
     0
  0
APPID
  2
GENIUS_GENOBJ-N-SEC_13
 70
     0
  0
APPID
  2
GENIUS_GENOBJ-N-CRS_13
 70
     0
  0
APPID
  2
GENIUS_GENOBJ-N-ZOO_13
 70
     0
  0
APPID
  2
GENIUS_GENZOO_13
 70
     0
  0
APPID
  2
GENIUS_GENOBJ-F-TOL_13
 70
     0
  0
APPID
  2
GENIUS_GENFIL_13
 70
     0
  0
APPID
  2
GENIUS_GENOBJ-N-CHA_13
 70
     0
  0
APPID
  2
_CALL_MAC$
 70
     0
  0
APPID
  2
ASM_BASE
 70
     0
  0
APPID
  2
ASM_EXPLO_VER_2_00
 70
     0
  0
APPID
  2
ASM_CADM_VER_12_00
 70
     0
  0
APPID
  2
ASM_BASEFORO
 70
     0
  0
APPID
  2
ASM_BASETRAVI
 70
     0
  0
APPID
  2
ASM_BASETRAVI1
 70
     0
  0
APPID
  2
ASM_GRUPPI
 70
     0
  0
APPID
  2
ASM_CADM_ALBERO
 70
     0
  0
APPID
  2
ASM_GOLE
 70
     0
  0
APPID
  2
ACAD_MLEADERVER
 70
     0
  0
APPID
  2
ACAD_EXEMPT_FROM_CAD_STANDARDS
 70
     0
  0
APPID
  2
ACAD_DSTYLE_DIMJAG
 70
     0
  0
APPID
  2
ACAD_DSTYLE_DIMTALN
 70
     0
  0
APPID
  2
ACAD_NAV_VCDISPLAY
 70
     0
  0
ENDTAB
  0
TABLE
  2
DIMSTYLE
 70
     2
  0
DIMSTYLE
  2
ISO-25
 70
     0
  3

  4

  5

  6

  7

 40
1.0
 41
2.5
 42
0.625
 43
3.75
 44
1.25
 45
0.0
 46
0.0
 47
0.0
 48
0.0
140
2.5
141
2.5
142
0.0
143
0.03937007874016
144
1.0
145
0.0
146
1.0
147
0.625
 71
     0
 72
     0
 73
     0
 74
     0
 75
     0
 76
     0
 77
     1
 78
     8
170
     0
171
     3
172
     1
173
     0
174
     0
175
     0
176
     0
177
     0
178
     0
  0
DIMSTYLE
  2
STANDARD
 70
     0
  3

  4

  5

  6

  7

 40
1.0
 41
0.18
 42
0.0625
 43
0.38
 44
0.18
 45
0.0
 46
0.0
 47
0.0
 48
0.0
140
0.18
141
0.09
142
0.0
143
25.399999999999999
144
1.0
145
0.0
146
1.0
147
0.09
 71
     0
 72
     0
 73
     1
 74
     1
 75
     0
 76
     0
 77
     0
 78
     0
170
     0
171
     2
172
     0
173
     0
174
     0
175
     0
176
     0
177
     0
178
     0
  0
ENDTAB
  0
ENDSEC
  0
SECTION
  2
BLOCKS
  0
BLOCK
  8
0
  2
$MODEL_SPACE
 70
     0
 10
0.0
 20
0.0
 30
0.0
  3
$MODEL_SPACE
  1

  0
ENDBLK
  5
21
  8
0
  0
BLOCK
 67
     1
  8
0
  2
$PAPER_SPACE
 70
     0
 10
0.0
 20
0.0
 30
0.0
  3
$PAPER_SPACE
  1

  0
ENDBLK
  5
53
 67
     1
  8
0
  0
ENDSEC
  0
SECTION
  2
ENTITIES
  0
LINE
  5
108DA
  8
1
 10
131.10617609345641
 20
226.2415819434529
 30
0.0
 11
131.10617609345641
 21
244.441581943453
 31
0.0
  0
LINE
  5
108DB
  8
1
 10
163.10617609345641
 20
241.39158194345291
 30
0.0
 11
163.10617609345641
 21
229.2915819434528
 31
0.0
  0
LINE
  5
10934
  8
1
 10
202.65617609345821
 20
165.09073805016709
 30
0.0
 11
192.6561760934546
 21
165.09073805016709
 31
0.0
  0
LINE
  5
10935
  8
1
 10
197.65617609345639
 20
170.09073805016891
 30
0.0
 11
197.65617609345639
 21
160.0907380501653
 31
0.0
  0
LINE
  5
1411E
  8
0
 10
190.65617609345631
 20
230.74158194345279
 30
0.0
 11
190.65617609345631
 21
228.29158194345291
 31
0.0
  0
LINE
  5
1411F
  8
0
 10
190.65617609345631
 20
242.39158194345279
 30
0.0
 11
190.65617609345631
 21
239.94158194345249
 31
0.0
  0
ARC
  5
14120
  8
0
 10
197.65617609345631
 20
286.79158194346428
 30
0.0
 40
60.00000000001188
 50
266.1774462707225
 51
270.0
  0
ARC
  5
14121
  8
0
 10
197.65617609345631
 20
286.79158194346428
 30
0.0
 40
60.00000000001188
 50
270.0
 51
273.8225537292775
  0
ARC
  5
14122
  8
0
 10
197.65617609345631
 20
183.89158194343321
 30
0.0
 40
60.000000000021707
 50
91.910213171708165
 51
93.822553729290476
  0
ARC
  5
14123
  8
0
 10
197.65617609345631
 20
183.89158194343321
 30
0.0
 40
60.000000000021707
 50
86.177446270709524
 51
88.089786828291835
  0
LINE
  5
14124
  8
0
 10
193.65617609345631
 20
243.75810013183579
 30
0.0
 11
193.65617609345631
 21
242.39158194345279
 31
0.0
  0
LINE
  5
14125
  8
0
 10
201.65617609345639
 20
242.39158194345279
 30
0.0
 11
201.65617609345639
 21
243.75810013183579
 31
0.0
  0
LINE
  5
14126
  8
0
 10
193.65617609345631
 20
228.29158194345291
 30
0.0
 11
193.65617609345631
 21
226.92506375506991
 31
0.0
  0
LINE
  5
14127
  8
0
 10
201.65617609345639
 20
226.92506375506991
 30
0.0
 11
201.65617609345639
 21
228.29158194345291
 31
0.0
  0
ARC
  5
1412A
  8
0
 10
213.40617609345631
 20
286.79158194346428
 30
0.0
 40
60.00000000001188
 50
266.1774462707225
 51
270.0
  0
ARC
  5
1412B
  8
0
 10
213.40617609345631
 20
286.79158194346428
 30
0.0
 40
60.00000000001188
 50
270.0
 51
273.8225537292775
  0
ARC
  5
1412C
  8
0
 10
213.40617609345631
 20
183.89158194343321
 30
0.0
 40
60.000000000021707
 50
91.910213171708165
 51
93.822553729290476
  0
ARC
  5
1412D
  8
0
 10
213.40617609345631
 20
183.89158194343321
 30
0.0
 40
60.000000000021707
 50
86.177446270709524
 51
88.089786828291835
  0
LINE
  5
1412E
  8
0
 10
209.40617609345631
 20
243.75810013183579
 30
0.0
 11
209.40617609345631
 21
242.39158194345279
 31
0.0
  0
LINE
  5
1412F
  8
0
 10
217.40617609345631
 20
242.39158194345279
 30
0.0
 11
217.40617609345631
 21
243.75810013183579
 31
0.0
  0
LINE
  5
14130
  8
0
 10
209.40617609345631
 20
228.29158194345291
 30
0.0
 11
209.40617609345631
 21
226.92506375506991
 31
0.0
  0
LINE
  5
14131
  8
0
 10
217.40617609345631
 20
226.92506375506991
 30
0.0
 11
217.40617609345631
 21
228.29158194345291
 31
0.0
  0
ARC
  5
14135
  8
0
 10
277.35617609345587
 20
200.5091077394768
 30
0.0
 40
55.832474203975949
 50
90.0
 51
108.26652242091581
  0
ARC
  5
14136
  8
0
 10
277.35617609345638
 20
270.17405614743069
 30
0.0
 40
55.832474203977881
 50
251.73347757908411
 51
270.0
  0
ARC
  5
14138
  8
0
 10
277.35617609345587
 20
200.5091077394745
 30
0.0
 40
55.832474203978229
 50
71.733477579084166
 51
90.0
  0
ARC
  5
14139
  8
0
 10
277.35617609345638
 20
270.17405614742711
 30
0.0
 40
55.832474203974122
 50
270.0
 51
288.26652242091592
  0
ARC
  5
1413B
  8
0
 10
269.70999171522487
 20
222.58608170319579
 30
0.0
 40
32.473175591874814
 50
107.66462258713101
 51
134.2628904770182
  0
ARC
  5
1413C
  8
0
 10
269.70999171522561
 20
248.09708218371091
 30
0.0
 40
32.47317559187627
 50
225.73710952298299
 51
252.33537741286901
  0
ARC
  5
1413D
  8
0
 10
285.00421819298862
 20
222.58917790536401
 30
0.0
 40
32.469661673448492
 50
45.73564384824094
 51
72.336843087615151
  0
ARC
  5
1413F
  8
0
 10
285.00421819299078
 20
248.09398598153851
 30
0.0
 40
32.469661673444662
 50
287.66315691238492
 51
314.26435615176831
  0
ARC
  5
14140
  8
0
 10
257.53745123040028
 20
235.82422974000201
 30
0.0
 40
15.18894544328545
 50
187.9785818592226
 51
226.30840497073299
  0
ARC
  5
14141
  8
0
 10
233.6404648676413
 20
235.34158194345261
 30
0.0
 40
9.0030496803879192
 50
349.59741683429149
 51
10.402583165708499
  0
ARC
  5
14142
  8
0
 10
257.53745123040028
 20
234.85893414690369
 30
0.0
 40
15.18894544328545
 50
133.69159502926689
 51
172.0214181407774
  0
ARC
  5
14143
  8
0
 10
290.08017648514038
 20
238.9926058943775
 30
0.0
 40
22.573217192946139
 50
321.17863150998159
 51
350.69201171283697
  0
ARC
  5
14144
  8
0
 10
290.08017648513948
 20
231.6905579925274
 30
0.0
 40
22.573217192947091
 50
9.3079882871630595
 51
38.82136849001845
  0
ARC
  5
14145
  8
0
 10
276.45660036573543
 20
214.14880354711161
 30
0.0
 40
0.2000000000002159
 50
12.095498113908061
 51
89.080102963851743
  0
ARC
  5
14146
  8
0
 10
278.25575182117711
 20
214.14880354711161
 30
0.0
 40
0.200000000000259
 50
90.919897036135239
 51
167.9045018860788
  0
ARC
  5
14147
  8
0
 10
277.35617609345638
 20
214.34158194345261
 30
0.0
 40
0.7200000000000154
 50
192.09549811388121
 51
347.90450188611879
  0
ARC
  5
14148
  8
0
 10
278.25575182117711
 20
256.53436033979409
 30
0.0
 40
0.200000000000215
 50
192.09549811392111
 51
269.0801029638647
  0
ARC
  5
14149
  8
0
 10
276.45660036573543
 20
256.53436033979409
 30
0.0
 40
0.200000000000259
 50
270.9198970361482
 51
347.90450188607889
  0
ARC
  5
1414A
  8
0
 10
277.35617609345638
 20
256.34158194345258
 30
0.0
 40
0.7200000000000829
 50
12.09549811388122
 51
167.90450188611871
  0
ARC
  5
1414B
  8
0
 10
281.46547383739028
 20
214.29246850470739
 30
0.0
 40
0.2000000000028689
 50
17.221116703473331
 51
94.205818146384715
  0
ARC
  5
1414C
  8
0
 10
283.25743087955072
 20
214.45320405982281
 30
0.0
 40
0.2000000000002283
 50
96.045515625527074
 51
173.0301204754889
  0
ARC
  5
1414D
  8
0
 10
282.34422960468061
 20
214.5648437999516
 30
0.0
 40
0.7200000000000807
 50
197.22111670332339
 51
353.03012047551522
  0
ARC
  5
1414E
  8
0
 10
271.45492130736199
 20
256.22995982708289
 30
0.0
 40
0.2000000000001801
 50
276.0455156255336
 51
353.03012047548901
  0
ARC
  5
1414F
  8
0
 10
272.3681225822321
 20
256.11832008695359
 30
0.0
 40
0.7200000000000562
 50
17.221116703323428
 51
173.03012047551519
  0
ARC
  5
14150
  8
0
 10
271.45492130736199
 20
214.45320405982281
 30
0.0
 40
0.2000000000002343
 50
6.9698795245110672
 51
83.954484374453486
  0
ARC
  5
14151
  8
0
 10
272.3681225822321
 20
214.5648437999516
 30
0.0
 40
0.7200000000000562
 50
186.96987952448481
 51
342.77888329670378
  0
ARC
  5
14152
  8
0
 10
283.25743087955072
 20
256.22995982708289
 30
0.0
 40
0.2000000000002283
 50
186.9698795245373
 51
263.95448437447288
  0
ARC
  5
14153
  8
0
 10
281.46547383739261
 20
256.3906953821961
 30
0.0
 40
0.20000000000031
 50
265.79427844674598
 51
342.77888329669048
  0
ARC
  5
14154
  8
0
 10
282.34422960468061
 20
256.11832008695359
 30
0.0
 40
0.7200000000000172
 50
6.9698795244848091
 51
162.77888329670381
  0
ARC
  5
14155
  8
0
 10
288.25400156948729
 20
215.21156379752389
 30
0.0
 40
0.2000000000011009
 50
101.2150048801865
 51
178.19960972994349
  0
ARC
  5
14156
  8
0
 10
287.33445573080883
 20
215.24046795935919
 30
0.0
 40
0.720000000000161
 50
202.39060595787549
 51
358.19960973008699
  0
ARC
  5
14157
  8
0
 10
266.45835061742531
 20
215.21156379752389
 30
0.0
 40
0.2000000000011211
 50
1.800390270056426
 51
78.784995119846656
  0
ARC
  5
14158
  8
0
 10
268.22853627640518
 20
214.8900226767291
 30
0.0
 40
0.2000000000000209
 50
80.624789192138138
 51
157.6093940421384
  0
ARC
  5
14159
  8
0
 10
267.37789645610371
 20
215.24046795935919
 30
0.0
 40
0.720000000000101
 50
181.80039026992611
 51
337.60939404212462
  0
ARC
  5
1415A
  8
0
 10
268.22853627640518
 20
255.7931412101762
 30
0.0
 40
0.2000000000000131
 50
202.3906059578616
 51
279.37521080786991
  0
ARC
  5
1415B
  8
0
 10
266.45835061742531
 20
255.4716000893813
 30
0.0
 40
0.2000000000011211
 50
281.21500488015971
 51
358.19960972994357
  0
ARC
  5
1415C
  8
0
 10
267.37789645610371
 20
255.44269592754659
 30
0.0
 40
0.7200000000000794
 50
22.39060595787544
 51
178.19960973008691
  0
ARC
  5
1415D
  8
0
 10
288.25400156948729
 20
255.4716000893813
 30
0.0
 40
0.2000000000011211
 50
181.8003902700564
 51
258.78499511981352
  0
ARC
  5
1415E
  8
0
 10
287.33445573080883
 20
255.44269592754659
 30
0.0
 40
0.7200000000001042
 50
1.800390269913041
 51
157.6093919044057
  0
LINE
  5
14163
  8
0
 10
190.65617609345631
 20
239.94158194345249
 30
0.0
 11
243.2241443079823
 21
239.94158194345249
 31
0.0
  0
LINE
  5
14167
  8
0
 10
243.22414430798241
 20
230.74158194345279
 30
0.0
 11
190.65617609345631
 21
230.74158194345259
 31
0.0
  0
LINE
  5
1416B
  8
0
 10
213.65617609345631
 20
230.74158194345279
 30
0.0
 11
213.65617609345631
 21
239.94158194345249
 31
0.0
  0
LINE
  5
1416D
  8
0
 10
218.65617609345639
 20
239.94158194345249
 30
0.0
 11
218.65617609345639
 21
230.74158194345279
 31
0.0
  0
LINE
  5
14179
  8
0
 10
193.65775518717561
 20
243.75810013183579
 30
0.0
 11
193.65617609343951
 21
243.75810013183579
 31
0.0
  0
LINE
  5
1417B
  8
0
 10
209.40617609345449
 20
226.92506375506991
 30
0.0
 11
217.40617609345821
 21
226.92506375506991
 31
0.0
  0
LINE
  5
1417C
  8
0
 10
215.40617609345631
 20
243.85823934571451
 30
0.0
 11
211.40617609345631
 21
243.85823934571451
 31
0.0
  0
LINE
  5
1417D
  8
0
 10
209.4077551871757
 20
243.75810013183579
 30
0.0
 11
209.40617609343951
 21
243.75810013183579
 31
0.0
  0
LINE
  5
1417E
  8
0
 10
217.40617609347319
 20
243.75810013183579
 30
0.0
 11
209.4077551871757
 21
243.75810013183579
 31
0.0
  0
LINE
  5
1417F
  8
0
 10
75.606176093456156
 20
166.1407572835196
 30
0.0
 11
75.606176093456043
 21
176.59163273039991
 31
0.0
  0
LINE
  5
14180
  8
0
 10
75.606176093456384
 20
147.8898410977599
 30
0.0
 11
75.606176093456384
 21
159.6407572835196
 31
0.0
  0
LINE
  5
14181
  8
0
 10
33.606176093456163
 20
159.6407572835196
 30
0.0
 11
33.606176093456163
 21
147.8898410977599
 31
0.0
  0
LINE
  5
14182
  8
0
 10
33.606176093456163
 20
176.5916327303994
 30
0.0
 11
33.606176093456163
 21
166.1407572835196
 31
0.0
  0
LINE
  5
14183
  8
0
 10
75.606176093456156
 20
176.59163273039979
 30
0.0
 11
33.606176093456163
 21
176.5916327303994
 31
0.0
  0
LINE
  5
14184
  8
0
 10
33.606176093456192
 20
147.8898410977599
 30
0.0
 11
45.85617609345627
 21
147.8898410977597
 31
0.0
  0
LINE
  5
14185
  8
0
 10
63.356176093456298
 20
147.8898410977601
 30
0.0
 11
75.606176093456384
 21
147.8898410977599
 31
0.0
  0
LINE
  5
14186
  8
0
 10
33.785062109362457
 20
166.1407572835196
 30
0.0
 11
33.785062109362457
 21
159.6407572835196
 31
0.0
  0
LINE
  5
14187
  8
0
 10
75.427290077550083
 20
159.6407572835196
 30
0.0
 11
75.427290077550083
 21
166.1407572835196
 31
0.0
  0
LINE
  5
14188
  8
0
 10
33.109437949955122
 20
166.1407572835196
 30
0.0
 11
33.109437949955122
 21
159.6407572835196
 31
0.0
  0
LINE
  5
14189
  8
0
 10
76.102914236957403
 20
159.6407572835196
 30
0.0
 11
76.102914236957403
 21
166.1407572835196
 31
0.0
  0
LINE
  5
1418A
  8
0
 10
32.886176093456129
 20
166.1407572835196
 30
0.0
 11
32.886176093456129
 21
159.6407572835196
 31
0.0
  0
LINE
  5
1418B
  8
0
 10
76.326176093456411
 20
159.6407572835196
 30
0.0
 11
76.326176093456183
 21
166.1407572835196
 31
0.0
  0
LINE
  5
1418C
  8
0
 10
50.006176093456467
 20
172.09075728351939
 30
0.0
 11
47.556176093456429
 21
172.09075728351939
 31
0.0
  0
LINE
  5
1418D
  8
0
 10
61.656176093456558
 20
172.09075728351939
 30
0.0
 11
59.20617609345652
 21
172.09075728351939
 31
0.0
  0
ARC
  5
141A5
  8
0
 10
-4.2028954246343337
 20
222.1658219305335
 30
0.0
 40
81.811218989710397
 50
306.19210438390053
 51
307.72593809727692
  0
POLYLINE
  5
141A7
  8
0
 66
     1
 10
0.0
 20
0.0
 30
0.0
 70
   128
  0
VERTEX
  5
14C47
  8
0
 10
44.106176093455922
 20
170.49075728351951
 30
0.0
  0
VERTEX
  5
14C48
  8
0
 10
45.466341781343893
 20
169.80837066516051
 30
0.0
  0
VERTEX
  5
14C49
  8
0
 10
46.707856418854533
 20
169.09073805016709
 30
0.0
  0
SEQEND
  5
14C4A
  8
0
  0
POLYLINE
  5
141AA
  8
0
 66
     1
 10
0.0
 20
0.0
 30
0.0
 70
   128
  0
VERTEX
  5
14C4B
  8
0
 10
65.106176093457066
 20
170.49075728352
 30
0.0
  0
VERTEX
  5
14C4C
  8
0
 10
63.746010405569102
 20
169.80837066516091
 30
0.0
  0
VERTEX
  5
14C4D
  8
0
 10
62.504495768058149
 20
169.09073805016709
 30
0.0
  0
SEQEND
  5
14C4E
  8
0
  0
POLYLINE
  5
141B4
  8
0
 66
     1
 10
0.0
 20
0.0
 30
0.0
 70
   128
  0
VERTEX
  5
14C4F
  8
0
 10
36.419642613983228
 20
174.95626720968951
 30
0.0
  0
VERTEX
  5
14C50
  8
0
 10
37.305781094502102
 20
174.4600983515015
 30
0.0
  0
VERTEX
  5
14C51
  8
0
 10
38.371544313837262
 20
173.838457876131
 30
0.0
  0
VERTEX
  5
14C52
  8
0
 10
39.647347911636302
 20
173.08245248885669
 30
0.0
  0
VERTEX
  5
14C53
  8
0
 10
41.086710623316662
 20
172.23086962867589
 30
0.0
  0
VERTEX
  5
14C54
  8
0
 10
42.533576099217612
 20
171.38665843561549
 30
0.0
  0
VERTEX
  5
14C55
  8
0
 10
44.106176093455922
 20
170.49075728351951
 30
0.0
  0
SEQEND
  5
14C56
  8
0
  0
ARC
  5
141B5
  8
0
 10
9.8852917556017701
 20
191.7834700999019
 30
0.0
 40
49.41125278492688
 50
302.48034685912768
 51
313.83410631561452
  0
ARC
  5
141B7
  8
0
 10
99.327060431315545
 20
191.7834700999083
 30
0.0
 40
49.411252784934348
 50
226.16589368439469
 51
237.51965314087229
  0
POLYLINE
  5
141B8
  8
0
 66
     1
 10
0.0
 20
0.0
 30
0.0
 70
   128
  0
VERTEX
  5
14C57
  8
0
 10
72.792709572929084
 20
174.95626720968951
 30
0.0
  0
VERTEX
  5
14C58
  8
0
 10
71.90657109240999
 20
174.46009835150099
 30
0.0
  0
VERTEX
  5
14C59
  8
0
 10
70.840807873074823
 20
173.838457876131
 30
0.0
  0
VERTEX
  5
14C5A
  8
0
 10
69.56500427527601
 20
173.08245248885621
 30
0.0
  0
VERTEX
  5
14C5B
  8
0
 10
68.125641563595423
 20
172.23086962867589
 30
0.0
  0
VERTEX
  5
14C5C
  8
0
 10
66.678776087694928
 20
171.38665843561549
 30
0.0
  0
VERTEX
  5
14C5D
  8
0
 10
65.106176093457066
 20
170.49075728352
 30
0.0
  0
SEQEND
  5
14C5E
  8
0
  0
LINE
  5
141C5
  8
0
 10
74.540013388437373
 20
159.6407572835196
 30
0.0
 11
74.540013388437373
 21
166.1407572835196
 31
0.0
  0
ARC
  5
141C6
  8
0
 10
124.2602540691297
 20
89.603263397866613
 30
0.0
 40
99.669671395913866
 50
119.21927477216261
 51
121.0898210636756
  0
ARC
  5
141C7
  8
0
 10
126.76707858826541
 20
215.90031139056831
 30
0.0
 40
85.104273652519197
 50
230.6382462298983
 51
233.04730059536561
  0
LINE
  5
141C8
  8
0
 10
34.672338798475153
 20
166.1407572835196
 30
0.0
 11
34.672338798475153
 21
159.6407572835196
 31
0.0
  0
ARC
  5
141C9
  8
0
 10
-20.055133884602238
 20
219.0447172017457
 30
0.0
 40
89.121209033686213
 50
307.02159906003271
 51
309.32252408928139
  0
ARC
  5
141CA
  8
0
 10
-19.128608864254939
 20
82.654188681719475
 30
0.0
 40
107.7278141562016
 50
58.960078849352222
 51
60.690576218213522
  0
LINE
  5
141CB
  8
0
 10
32.886176093456129
 20
159.6407572835196
 30
0.0
 11
34.672338798475153
 21
159.6407572835196
 31
0.0
  0
LINE
  5
141CC
  8
0
 10
34.482441460970342
 20
159.6407572835196
 30
0.0
 11
34.482441460970342
 21
166.1407572835196
 31
0.0
  0
LINE
  5
141CD
  8
0
 10
32.886176093456129
 20
166.14075728351949
 30
0.0
 11
34.672338798475153
 21
166.1407572835196
 31
0.0
  0
LINE
  5
141CE
  8
0
 10
76.326176093456382
 20
159.6407572835196
 30
0.0
 11
74.540013388437373
 21
159.6407572835196
 31
0.0
  0
LINE
  5
141CF
  8
0
 10
74.540013388437373
 20
166.1407572835196
 30
0.0
 11
76.326176093456155
 21
166.14075728351949
 31
0.0
  0
LINE
  5
141D0
  8
0
 10
74.729910725942204
 20
166.1407572835196
 30
0.0
 11
74.729910725942204
 21
159.6407572835196
 31
0.0
  0
LINE
  5
141D6
  8
0
 10
33.742067718550182
 20
159.6407572835196
 30
0.0
 11
33.742067718550182
 21
166.1407572835196
 31
0.0
  0
LINE
  5
141DA
  8
0
 10
75.470284468362365
 20
166.1407572835196
 30
0.0
 11
75.470284468362365
 21
159.6407572835196
 31
0.0
  0
LINE
  5
141E4
  8
0
 10
50.006176093456467
 20
165.7782190564233
 30
0.0
 11
50.006176093456467
 21
172.09075728351939
 31
0.0
  0
LINE
  5
141E5
  8
0
 10
47.556176093456429
 20
172.09075728351939
 30
0.0
 11
47.5561760934566
 21
164.04983791441779
 31
0.0
  0
LINE
  5
141E7
  8
0
 10
61.656176093456558
 20
172.09075728351939
 30
0.0
 11
61.656176093456558
 21
164.04983791441751
 31
0.0
  0
LINE
  5
141E8
  8
0
 10
59.20617609345652
 20
172.09075728351939
 30
0.0
 11
59.20617609345652
 21
165.77821905642281
 31
0.0
  0
LINE
  5
141F9
  8
0
 10
46.189657905073481
 20
169.09073805016709
 30
0.0
 11
46.189657905073481
 21
163.22953719182391
 31
0.0
  0
LINE
  5
141FF
  8
0
 10
362.35617609345672
 20
159.6407380501673
 30
0.0
 11
362.35617609345672
 21
147.88982186440691
 31
0.0
  0
LINE
  5
14200
  8
0
 10
362.35617609345672
 20
176.59161349704729
 30
0.0
 11
362.35617609345672
 21
166.1407380501673
 31
0.0
  0
LINE
  5
14201
  8
0
 10
404.35617609345672
 20
166.1407380501673
 30
0.0
 11
404.35617609345672
 21
176.59161349704729
 31
0.0
  0
LINE
  5
14202
  8
0
 10
404.35617609345672
 20
147.88982186440711
 30
0.0
 11
404.35617609345672
 21
159.6407380501673
 31
0.0
  0
LINE
  5
14203
  8
0
 10
362.35617609345672
 20
147.88982186440691
 30
0.0
 11
404.35617609345672
 21
147.88982186440711
 31
0.0
  0
LINE
  5
14204
  8
0
 10
404.35617609345672
 20
176.59161349704729
 30
0.0
 11
362.35617609345672
 21
176.59161349704729
 31
0.0
  0
LINE
  5
14205
  8
0
 10
404.17729007755031
 20
159.6407380501673
 30
0.0
 11
404.17729007755031
 21
166.1407380501673
 31
0.0
  0
LINE
  5
14206
  8
0
 10
362.53506210936303
 20
166.1407380501673
 30
0.0
 11
362.5350621093628
 21
159.6407380501673
 31
0.0
  0
LINE
  5
14207
  8
0
 10
404.8529142369577
 20
159.6407380501673
 30
0.0
 11
404.8529142369577
 21
166.1407380501673
 31
0.0
  0
LINE
  5
14208
  8
0
 10
361.85943794995552
 20
166.1407380501673
 30
0.0
 11
361.85943794995552
 21
159.6407380501673
 31
0.0
  0
LINE
  5
14209
  8
0
 10
405.0761760934567
 20
159.6407380501673
 30
0.0
 11
405.0761760934567
 21
166.1407380501673
 31
0.0
  0
LINE
  5
1420A
  8
0
 10
361.6361760934567
 20
166.1407380501673
 30
0.0
 11
361.6361760934567
 21
159.6407380501673
 31
0.0
  0
LINE
  5
1420B
  8
0
 10
387.95617609345692
 20
138.82073805016711
 30
0.0
 11
390.40617609345691
 21
138.82073805016711
 31
0.0
  0
LINE
  5
1420C
  8
0
 10
376.30617609345683
 20
138.82073805016711
 30
0.0
 11
378.75617609345682
 21
138.82073805016711
 31
0.0
  0
ARC
  5
1420D
  8
0
 10
434.80617609346831
 20
146.32073805016711
 30
0.0
 40
60.000000000011951
 50
178.50146448895831
 51
180.0
  0
ARC
  5
1420E
  8
0
 10
434.80617609346831
 20
146.32073805016711
 30
0.0
 40
60.00000000001193
 50
180.0
 51
183.82255372928381
  0
ARC
  5
1420F
  8
0
 10
331.9061760934373
 20
146.32073805016759
 30
0.0
 40
60.0000000000217
 50
356.17744627071608
 51
358.08978682829178
  0
LINE
  5
14210
  8
0
 10
390.40617609345691
 20
142.32073805016711
 30
0.0
 11
391.7726942818399
 21
142.32073805016711
 31
0.0
  0
LINE
  5
14211
  8
0
 10
374.93965790507377
 20
142.32073805016711
 30
0.0
 11
376.30617609345683
 21
142.32073805016711
 31
0.0
  0
ARC
  5
14213
  8
0
 10
405.05453451484073
 20
139.1279899477754
 30
0.0
 40
33.30202996617313
 50
109.6495740538458
 51
130.6595217819642
  0
ARC
  5
14214
  8
0
 10
361.65781767207432
 20
139.12798994778129
 30
0.0
 40
33.302029966166842
 50
49.340478218034526
 51
70.350425946154175
  0
POLYLINE
  5
14217
  8
0
 66
     1
 10
0.0
 20
0.0
 30
0.0
 70
   128
  0
VERTEX
  5
14C5F
  8
0
 10
393.8561760934565
 20
156.1407380501673
 30
0.0
  0
VERTEX
  5
14C60
  8
0
 10
391.95021564336889
 20
157.26657583592441
 30
0.0
  0
VERTEX
  5
14C61
  8
0
 10
389.97703271471528
 20
158.5526090258827
 30
0.0
  0
VERTEX
  5
14C62
  8
0
 10
387.97841216327203
 20
159.9665801917522
 30
0.0
  0
VERTEX
  5
14C63
  8
0
 10
386.52102879364662
 20
161.07221166871199
 30
0.0
  0
VERTEX
  5
14C64
  8
0
 10
385.10083196356481
 20
162.26931149115759
 30
0.0
  0
VERTEX
  5
14C65
  8
0
 10
384.35811530848309
 20
162.9842745821033
 30
0.0
  0
VERTEX
  5
14C66
  8
0
 10
383.69929080324101
 20
163.78055442052161
 30
0.0
  0
VERTEX
  5
14C67
  8
0
 10
383.35617609345582
 20
164.39073805016781
 30
0.0
  0
SEQEND
  5
14C68
  8
0
  0
POLYLINE
  5
14218
  8
0
 66
     1
 10
0.0
 20
0.0
 30
0.0
 70
   128
  0
VERTEX
  5
14C69
  8
0
 10
372.85617609345672
 20
156.1407380501673
 30
0.0
  0
VERTEX
  5
14C6A
  8
0
 10
374.76213654354427
 20
157.26657583592481
 30
0.0
  0
VERTEX
  5
14C6B
  8
0
 10
376.73531947219823
 20
158.5526090258831
 30
0.0
  0
VERTEX
  5
14C6C
  8
0
 10
378.73394002364131
 20
159.9665801917526
 30
0.0
  0
VERTEX
  5
14C6D
  8
0
 10
380.19132339326637
 20
161.07221166871199
 30
0.0
  0
VERTEX
  5
14C6E
  8
0
 10
381.61152022334801
 20
162.26931149115759
 30
0.0
  0
VERTEX
  5
14C6F
  8
0
 10
382.35423687842939
 20
162.9842745821033
 30
0.0
  0
VERTEX
  5
14C70
  8
0
 10
383.0130613836713
 20
163.78055442052161
 30
0.0
  0
VERTEX
  5
14C71
  8
0
 10
383.35617609345672
 20
164.39073805016781
 30
0.0
  0
SEQEND
  5
14C72
  8
0
  0
POLYLINE
  5
1421B
  8
0
 66
     1
 10
0.0
 20
0.0
 30
0.0
 70
   128
  0
VERTEX
  5
14C73
  8
0
 10
393.85617609345672
 20
170.49073805016721
 30
0.0
  0
VERTEX
  5
14C74
  8
0
 10
395.51822343911772
 20
171.43829214125211
 30
0.0
  0
VERTEX
  5
14C75
  8
0
 10
397.04651229088182
 20
172.33149956696931
 30
0.0
  0
VERTEX
  5
14C76
  8
0
 10
398.4641524410672
 20
173.17096950898349
 30
0.0
  0
VERTEX
  5
14C77
  8
0
 10
399.717685439658
 20
173.91319344868629
 30
0.0
  0
VERTEX
  5
14C78
  8
0
 10
400.70735509003202
 20
174.489278868562
 30
0.0
  0
VERTEX
  5
14C79
  8
0
 10
401.54270957292999
 20
174.95624797633761
 30
0.0
  0
SEQEND
  5
14C7A
  8
0
  0
ARC
  5
1421D
  8
0
 10
431.5086882767323
 20
196.1509772152676
 30
0.0
 40
54.941158631396377
 50
226.7388815758074
 51
236.9466652494543
  0
ARC
  5
1421E
  8
0
 10
335.20366391018558
 20
196.1509772152622
 30
0.0
 40
54.941158631389129
 50
303.05333475054567
 51
313.2611184241926
  0
POLYLINE
  5
14220
  8
0
 66
     1
 10
0.0
 20
0.0
 30
0.0
 70
   128
  0
VERTEX
  5
14C7B
  8
0
 10
372.85617609345672
 20
170.49073805016721
 30
0.0
  0
VERTEX
  5
14C7C
  8
0
 10
371.19412874779567
 20
171.43829214125211
 30
0.0
  0
VERTEX
  5
14C7D
  8
0
 10
369.66583989603168
 20
172.33149956696931
 30
0.0
  0
VERTEX
  5
14C7E
  8
0
 10
368.24819974584648
 20
173.17096950898349
 30
0.0
  0
VERTEX
  5
14C7F
  8
0
 10
366.99466674725568
 20
173.91319344868629
 30
0.0
  0
VERTEX
  5
14C80
  8
0
 10
366.00499709688143
 20
174.48927886856239
 30
0.0
  0
VERTEX
  5
14C81
  8
0
 10
365.16964261398329
 20
174.95624797633761
 30
0.0
  0
SEQEND
  5
14C82
  8
0
  0
LINE
  5
14223
  8
0
 10
363.42233879847572
 20
166.1407380501673
 30
0.0
 11
363.42233879847572
 21
159.6407380501673
 31
0.0
  0
ARC
  5
14225
  8
0
 10
311.40358836356882
 20
85.646792948241455
 30
0.0
 40
104.2447473356526
 50
58.951229456490012
 51
60.739674707674027
  0
ARC
  5
14226
  8
0
 10
291.36616333318119
 20
241.13734158598709
 30
0.0
 40
117.19432999369231
 50
307.2825525171902
 51
309.0319006575557
  0
LINE
  5
14228
  8
0
 10
403.29001338843773
 20
159.6407380501673
 30
0.0
 11
403.29001338843773
 21
166.1407380501673
 31
0.0
  0
ARC
  5
14229
  8
0
 10
478.43815841352671
 20
245.0242716571988
 30
0.0
 40
122.16086531648661
 50
230.98966386744931
 51
232.6680628482203
  0
ARC
  5
1422A
  8
0
 10
459.54401904846731
 20
78.434260516454742
 30
0.0
 40
112.6083743070775
 50
119.34670019603089
 51
121.0022017407975
  0
LINE
  5
1422B
  8
0
 10
403.29001338843773
 20
159.6407380501673
 30
0.0
 11
405.0761760934567
 21
159.6407380501673
 31
0.0
  0
LINE
  5
1422C
  8
0
 10
403.29001338843773
 20
166.1407380501673
 30
0.0
 11
405.0761760934567
 21
166.1407380501673
 31
0.0
  0
LINE
  5
1422D
  8
0
 10
403.47991072594249
 20
166.1407380501673
 30
0.0
 11
403.47991072594249
 21
159.6407380501673
 31
0.0
  0
LINE
  5
1422E
  8
0
 10
361.6361760934567
 20
159.6407380501673
 30
0.0
 11
363.42233879847572
 21
159.6407380501673
 31
0.0
  0
LINE
  5
1422F
  8
0
 10
363.23244146097068
 20
159.6407380501673
 30
0.0
 11
363.23244146097068
 21
166.1407380501673
 31
0.0
  0
LINE
  5
14230
  8
0
 10
361.6361760934567
 20
166.1407380501671
 30
0.0
 11
363.42233879847572
 21
166.1407380501673
 31
0.0
  0
LINE
  5
14237
  8
0
 10
404.22028446836288
 20
166.1407380501673
 30
0.0
 11
404.22028446836288
 21
159.6407380501673
 31
0.0
  0
LINE
  5
14239
  8
0
 10
362.49206771855052
 20
159.6407380501673
 30
0.0
 11
362.49206771855052
 21
166.1407380501673
 31
0.0
  0
LINE
  5
14244
  8
0
 10
387.95617609345692
 20
147.88982186440759
 30
0.0
 11
387.95617609345669
 21
138.82073805016739
 31
0.0
  0
LINE
  5
14248
  8
0
 10
378.75617609345682
 20
138.82073805016711
 30
0.0
 11
378.75617609345682
 21
147.88982186440759
 31
0.0
  0
LINE
  5
1424A
  8
0
 10
390.40617609345691
 20
102.07073805016709
 30
0.0
 11
390.40617609345691
 21
147.88982186440711
 31
0.0
  0
LINE
  5
1424D
  8
0
 10
374.93965790507372
 20
147.88982186440691
 30
0.0
 11
374.93965790507377
 21
142.32073805016529
 31
0.0
  0
LINE
  5
14250
  8
0
 10
391.7726942818399
 20
142.32073805015031
 30
0.0
 11
391.7726942818399
 21
147.88982186440759
 31
0.0
  0
ARC
  5
1425D
  8
0
 10
213.41244183150019
 20
-8.1292619498444765
 30
0.0
 40
60.000000000011902
 50
86.177446270722513
 51
90.0
  0
ARC
  5
1425E
  8
0
 10
213.41244183150019
 20
-8.1292619498444765
 30
0.0
 40
60.000000000011902
 50
90.0
 51
93.822553729277487
  0
ARC
  5
1425F
  8
0
 10
213.41244183150019
 20
94.770738050186523
 30
0.0
 40
60.0000000000217
 50
271.91021317170822
 51
273.82255372929052
  0
ARC
  5
14260
  8
0
 10
213.41244183150019
 20
94.770738050186523
 30
0.0
 40
60.0000000000217
 50
266.17744627070959
 51
268.08978682829178
  0
LINE
  5
14261
  8
0
 10
217.41244183150019
 20
34.904219861783993
 30
0.0
 11
217.41244183150019
 21
36.270738050166983
 31
0.0
  0
LINE
  5
14262
  8
0
 10
209.41244183150019
 20
36.270738050166983
 30
0.0
 11
209.41244183150019
 21
34.904219861783993
 31
0.0
  0
LINE
  5
14263
  8
0
 10
217.41244183150019
 20
50.370738050167347
 30
0.0
 11
217.41244183150019
 21
51.737256238550337
 31
0.0
  0
LINE
  5
14264
  8
0
 10
209.41244183150019
 20
51.737256238550337
 30
0.0
 11
209.41244183150019
 21
50.370738050167347
 31
0.0
  0
ARC
  5
14269
  8
0
 10
277.36244183150069
 20
8.4882638461945135
 30
0.0
 40
55.832474203972602
 50
71.733477579086738
 51
90.0
  0
ARC
  5
1426A
  8
0
 10
277.36244183150001
 20
78.153212254143
 30
0.0
 40
55.832474203975877
 50
270.0
 51
288.26652242091319
  0
ARC
  5
1426C
  8
0
 10
277.36244183150018
 20
8.4882638461904207
 30
0.0
 40
55.832474203976943
 50
90.0
 51
108.2665224209132
  0
ARC
  5
1426D
  8
0
 10
277.36244183149978
 20
78.153212254142545
 30
0.0
 40
55.832474203975508
 50
251.7334775790867
 51
270.0
  0
ARC
  5
1426E
  8
0
 10
285.01218409269262
 20
30.57116761484485
 30
0.0
 40
32.466445800979727
 50
45.734302204294572
 51
72.338184731559224
  0
ARC
  5
14270
  8
0
 10
285.01218409269222
 20
56.070308485489932
 30
0.0
 40
32.466445800980601
 50
287.66181526844071
 51
314.26569779570542
  0
ARC
  5
14271
  8
0
 10
269.71269957030739
 20
56.070308485489022
 30
0.0
 40
32.466445800979223
 50
225.73430220429461
 51
252.33818473155929
  0
LINE
  5
14274
  8
0
 10
251.21458999381991
 20
38.720738050167249
 30
0.0
 11
251.21458999382
 21
36.270738050166983
 31
0.0
  0
LINE
  5
14278
  8
0
 10
251.21458999382
 20
50.370738050166892
 30
0.0
 11
251.21458999382
 21
47.920738050167067
 31
0.0
  0
ARC
  5
1427B
  8
0
 10
269.71269957030739
 20
30.571167614845759
 30
0.0
 40
32.466445800979017
 50
107.6618152684408
 51
134.26569779570539
  0
ARC
  5
1427C
  8
0
 10
290.0636502976235
 20
39.659535635828888
 30
0.0
 40
22.597356194697792
 50
9.3241091675742513
 51
38.80524760961152
  0
ARC
  5
1427D
  8
0
 10
290.06365029762372
 20
46.98194046450498
 30
0.0
 40
22.597356194697429
 50
321.19475239038849
 51
350.67589083242581
  0
ARC
  5
1427E
  8
0
 10
257.54371696844498
 20
42.838090253617331
 30
0.0
 40
15.18894544328664
 50
133.69159502926689
 51
149.39629450578161
  0
ARC
  5
14280
  8
0
 10
257.54371696861011
 20
43.803385846871151
 30
0.0
 40
15.188945443512329
 50
210.60370549441481
 51
226.3084049706938
  0
ARC
  5
14282
  8
0
 10
239.1617398927398
 20
43.320738050167158
 30
0.0
 40
4.4448937802285116
 50
322.58454102460621
 51
37.41545897539379
  0
LINE
  5
14283
  8
0
 10
242.69209995816109
 20
40.620064333111713
 30
0.0
 11
243.17802696084931
 21
38.870738050166892
 31
0.0
  0
LINE
  5
14284
  8
0
 10
242.69209995816109
 20
46.021411767222162
 30
0.0
 11
243.17802696084931
 21
47.770738050166983
 31
0.0
  0
ARC
  5
14287
  8
0
 10
233.6467306056856
 20
43.320738050167158
 30
0.0
 40
9.0030496803874112
 50
349.59741683429149
 51
10.402583165708499
  0
ARC
  5
14288
  8
0
 10
257.14702194073283
 20
43.735537211367948
 30
0.0
 40
14.78667780028011
 50
187.9315824151966
 51
192.16253707586981
  0
ARC
  5
14289
  8
0
 10
257.17772628305511
 20
42.901850273447053
 30
0.0
 40
14.817652602406129
 50
167.84687717982919
 51
172.06914223176969
  0
ARC
  5
1428A
  8
0
 10
278.26201755922102
 20
22.127959653825659
 30
0.0
 40
0.2000000000001945
 50
90.919897036135239
 51
167.90450188609191
  0
ARC
  5
1428B
  8
0
 10
277.36244183150018
 20
22.320738050167169
 30
0.0
 40
0.7200000000000829
 50
192.09549811388121
 51
347.90450188611879
  0
ARC
  5
1428C
  8
0
 10
276.46286610377928
 20
22.127959653825659
 30
0.0
 40
0.2000000000002501
 50
12.095498113908061
 51
89.080102963851743
  0
ARC
  5
1428D
  8
0
 10
276.46286610377928
 20
64.51351644650822
 30
0.0
 40
0.2000000000001875
 50
270.9198970361482
 51
347.90450188610532
  0
ARC
  5
1428E
  8
0
 10
277.36244183150018
 20
64.320738050167165
 30
0.0
 40
0.7200000000000213
 50
12.09549811388122
 51
167.90450188611871
  0
ARC
  5
1428F
  8
0
 10
278.26201755922102
 20
64.51351644650822
 30
0.0
 40
0.200000000000259
 50
192.09549811392111
 51
269.0801029638647
  0
ARC
  5
14290
  8
0
 10
273.25314408756628
 20
22.271624611421888
 30
0.0
 40
0.2000000000028689
 50
85.794181853615271
 51
162.7788832965266
  0
ARC
  5
14291
  8
0
 10
272.37438832027601
 20
22.543999906666158
 30
0.0
 40
0.7200000000000264
 50
186.96987952448481
 51
342.7788832966765
  0
ARC
  5
14292
  8
0
 10
271.46118704540589
 20
22.432360166537372
 30
0.0
 40
0.2000000000002331
 50
6.9698795245110672
 51
83.954484374466446
  0
ARC
  5
14293
  8
0
 10
281.47173957543413
 20
64.369851488912445
 30
0.0
 40
0.2000000000028689
 50
265.79418185361533
 51
342.77888329652671
  0
ARC
  5
14294
  8
0
 10
282.35049534272451
 20
64.097476193668172
 30
0.0
 40
0.7200000000000723
 50
6.9698795244848091
 51
162.77888329667661
  0
ARC
  5
14295
  8
0
 10
283.26369661759458
 20
64.209115933796966
 30
0.0
 40
0.2000000000002297
 50
186.96987952449791
 51
263.95448437446652
  0
ARC
  5
14296
  8
0
 10
283.26369661759458
 20
22.43236016653691
 30
0.0
 40
0.2000000000002417
 50
96.045515625546855
 51
173.0301204754758
  0
ARC
  5
14297
  8
0
 10
282.35049534272451
 20
22.543999906666158
 30
0.0
 40
0.7200000000000799
 50
197.2211167032961
 51
353.03012047551522
  0
ARC
  5
14298
  8
0
 10
281.4717395754364
 20
22.2716246114237
 30
0.0
 40
0.2000000000002515
 50
17.221116703309541
 51
94.205721553254023
  0
ARC
  5
14299
  8
0
 10
271.46118704540589
 20
64.209115933796966
 30
0.0
 40
0.2000000000001777
 50
276.04551562554678
 51
353.03012047550209
  0
ARC
  5
1429A
  8
0
 10
272.37438832027601
 20
64.097476193668172
 30
0.0
 40
0.7200000000000594
 50
17.221116703296129
 51
173.03012047551519
  0
ARC
  5
1429B
  8
0
 10
273.25314408756412
 20
64.369851488910626
 30
0.0
 40
0.2000000000002473
 50
197.22111670330949
 51
274.20572155326698
  0
ARC
  5
1429C
  8
0
 10
288.26026730753108
 20
23.190719904238449
 30
0.0
 40
0.2000000000011219
 50
101.2150048801865
 51
178.19960972994349
  0
ARC
  5
1429D
  8
0
 10
287.34072146885268
 20
23.219624066073269
 30
0.0
 40
0.7200000000001037
 50
202.3906080955943
 51
358.19960973008699
  0
ARC
  5
1429E
  8
0
 10
286.49008164855121
 20
22.869178783443662
 30
0.0
 40
0.2000000000000108
 50
22.390598262067211
 51
99.375210807848489
  0
ARC
  5
1429F
  8
0
 10
268.23480201444897
 20
22.869178783443662
 30
0.0
 40
0.2000000000000077
 50
80.624789192151525
 51
157.6093940421384
  0
ARC
  5
142A0
  8
0
 10
267.38416219414762
 20
23.219624066073269
 30
0.0
 40
0.7200000000001428
 50
181.80039026991301
 51
337.60939404212462
  0
ARC
  5
142A1
  8
0
 10
266.4646163554691
 20
23.190719904238449
 30
0.0
 40
0.2000000000011215
 50
1.800390270056426
 51
78.784995119840261
  0
ARC
  5
142A2
  8
0
 10
266.4646163554691
 20
63.450756196095881
 30
0.0
 40
0.2000000000011346
 50
281.21500488015329
 51
358.19960972994357
  0
ARC
  5
142A3
  8
0
 10
267.38416219414762
 20
63.42185203426061
 30
0.0
 40
0.7200000000000794
 50
22.39060595787544
 51
178.19960973008691
  0
ARC
  5
142A4
  8
0
 10
268.23480201444897
 20
63.772297316890672
 30
0.0
 40
0.2000000000000657
 50
202.3906059578616
 51
279.3752108078682
  0
ARC
  5
142A5
  8
0
 10
286.49008164855121
 20
63.772297316890672
 30
0.0
 40
0.2000000000000131
 50
260.62478919215152
 51
337.60939404213838
  0
ARC
  5
142A6
  8
0
 10
287.34072146885268
 20
63.42185203426061
 30
0.0
 40
0.7200000000001042
 50
1.800390269913041
 51
157.60939404212451
  0
ARC
  5
142A7
  8
0
 10
288.26026730753108
 20
63.450756196095881
 30
0.0
 40
0.2000000000011567
 50
181.8003902700564
 51
258.78499511981983
  0
LINE
  5
142A8
  8
0
 10
244.47045334631721
 20
36.070738050167172
 30
0.0
 11
244.3542029193122
 21
36.270738050166983
 31
0.0
  0
LINE
  5
142A9
  8
0
 10
243.2304100460259
 20
38.720738050167249
 30
0.0
 11
243.17802696084951
 21
38.870738050166892
 31
0.0
  0
LINE
  5
142AA
  8
0
 10
243.17802696084931
 20
47.770738050166983
 30
0.0
 11
243.23041004602621
 21
47.920738050167067
 31
0.0
  0
LINE
  5
142AB
  8
0
 10
244.3542029193122
 20
50.370738050166892
 30
0.0
 11
244.47045334631721
 21
50.570738050167172
 31
0.0
  0
LINE
  5
142C6
  8
0
 10
251.21458999382
 20
38.720738050167249
 30
0.0
 11
235.6061760934565
 21
38.720738050167249
 31
0.0
  0
LINE
  5
142C9
  8
0
 10
235.6061760934565
 20
47.920738050167067
 30
0.0
 11
251.21458999382
 21
47.920738050167067
 31
0.0
  0
LINE
  5
142D1
  8
0
 10
195.66244183150019
 20
34.804080647904811
 30
0.0
 11
197.66244183150019
 21
34.804080647904811
 31
0.0
  0
LINE
  5
142D3
  8
0
 10
217.41244183150201
 20
51.737256238550337
 30
0.0
 11
209.4124418314984
 21
51.737256238550337
 31
0.0
  0
LINE
  5
142D5
  8
0
 10
211.41244183150019
 20
34.804080647905273
 30
0.0
 11
215.41244183149911
 21
34.804080647904982
 31
0.0
  0
LINE
  5
142D6
  8
0
 10
209.41244183148339
 20
34.904219861783993
 30
0.0
 11
217.41244183151699
 21
34.904219861783993
 31
0.0
  0
LINE
  5
14343
  8
0
 10
211.96444633272961
 20
232.79158194345271
 30
0.0
 11
211.96444633272961
 21
237.89158194345259
 31
0.0
  0
ARC
  5
14344
  8
0
 10
197.65617609345651
 20
286.79158194346428
 30
0.0
 40
60.000000000011909
 50
266.1774462707225
 51
270.0
  0
ARC
  5
14345
  8
0
 10
197.65617609345651
 20
286.79158194346428
 30
0.0
 40
60.000000000011909
 50
270.0
 51
273.8225537292775
  0
ARC
  5
14346
  8
0
 10
197.65617609345611
 20
183.89158194343321
 30
0.0
 40
60.000000000021679
 50
91.910213171708165
 51
93.822553729290476
  0
ARC
  5
14347
  8
0
 10
197.65617609345611
 20
183.89158194343321
 30
0.0
 40
60.000000000021693
 50
86.177446270709524
 51
88.089786828291835
  0
LINE
  5
14348
  8
0
 10
193.65617609345639
 20
243.75810013183579
 30
0.0
 11
193.65617609345639
 21
242.39158194345279
 31
0.0
  0
LINE
  5
14349
  8
0
 10
201.65617609345639
 20
242.39158194345279
 30
0.0
 11
201.65617609345639
 21
243.75810013183579
 31
0.0
  0
LINE
  5
1434A
  8
0
 10
193.65617609345639
 20
228.29158194345271
 30
0.0
 11
193.65617609345631
 21
226.92506375506969
 31
0.0
  0
LINE
  5
1434B
  8
0
 10
201.65617609345639
 20
226.92506375506969
 30
0.0
 11
201.65617609345639
 21
228.29158194345271
 31
0.0
  0
LINE
  5
1434C
  8
0
 10
194.65617609345639
 20
239.94158194345249
 30
0.0
 11
194.65617609345639
 21
237.89158194345279
 31
0.0
  0
LINE
  5
1434D
  8
0
 10
194.65617609345639
 20
232.79158194345271
 30
0.0
 11
194.65617609345639
 21
230.74158194345259
 31
0.0
  0
LINE
  5
1434E
  8
0
 10
200.65617609345631
 20
230.7415819434527
 30
0.0
 11
200.65617609345639
 21
232.79158194345271
 31
0.0
  0
LINE
  5
1434F
  8
0
 10
200.65617609345639
 20
237.89158194345259
 30
0.0
 11
200.65617609345639
 21
239.9415819434526
 31
0.0
  0
ARC
  5
1435A
  8
0
 10
189.00617609345639
 20
240.39158194345259
 30
0.0
 40
2.4999999999999432
 50
245.07671806159689
 51
270.0
  0
ARC
  5
1435B
  8
0
 10
189.00617609345639
 20
230.29158194345271
 30
0.0
 40
2.500000000000028
 50
90.0
 51
114.92328193840299
  0
LINE
  5
1435C
  8
0
 10
183.14110289269919
 20
230.322934325392
 30
0.0
 11
187.95266521160431
 21
232.55876407592879
 31
0.0
  0
LINE
  5
1435E
  8
0
 10
186.9307408885208
 20
234.7404904620002
 30
0.0
 11
183.14110289269919
 21
233.01147171422369
 31
0.0
  0
ARC
  5
1435F
  8
0
 10
189.00617609345639
 20
230.1915819434526
 30
0.0
 40
5.0000000000000604
 50
90.0
 51
114.5247979877355
  0
LINE
  5
14360
  8
0
 10
189.00617609345639
 20
235.4915819434527
 30
0.0
 11
189.00617609345639
 21
235.1915819434528
 31
0.0
  0
ARC
  5
14361
  8
0
 10
189.00617609345639
 20
240.4915819434527
 30
0.0
 40
5.0000000000000284
 50
245.47520201226439
 51
270.0
  0
LINE
  5
14362
  8
0
 10
183.14110289269931
 20
237.67169217268199
 30
0.0
 11
186.9307408885208
 21
235.94267342490531
 31
0.0
  0
LINE
  5
14364
  8
0
 10
187.95266521160431
 20
238.12439981097671
 30
0.0
 11
183.14110289269931
 21
240.36022956151351
 31
0.0
  0
LINE
  5
14365
  8
0
 10
189.00617609345639
 20
232.79158194345271
 30
0.0
 11
211.96444633272961
 21
232.79158194345271
 31
0.0
  0
LINE
  5
14366
  8
0
 10
211.96444633272961
 20
237.89158194345279
 30
0.0
 11
189.00617609345639
 21
237.89158194345279
 31
0.0
  0
LINE
  5
14367
  8
0
 10
211.9310540041653
 20
232.79158194345271
 30
0.0
 11
211.96444633272961
 21
232.79158194345271
 31
0.0
  0
LINE
  5
14368
  8
0
 10
211.96444633272961
 20
237.89158194345259
 30
0.0
 11
211.9310540041653
 21
237.89158194345259
 31
0.0
  0
ARC
  5
14369
  8
0
 10
174.00617609345639
 20
239.09158194345309
 30
0.0
 40
4.9999999999997744
 50
65.076718061596949
 51
90.0
  0
ARC
  5
1436A
  8
0
 10
174.00617609345639
 20
239.09158194345309
 30
0.0
 40
2.4999999999997029
 50
65.475202012260141
 51
90.0
  0
LINE
  5
1436B
  8
0
 10
125.6061760934564
 20
241.59158194345309
 30
0.0
 11
174.00617609345639
 21
241.59158194345289
 31
0.0
  0
LINE
  5
1436D
  8
0
 10
174.00617609345639
 20
244.09158194345289
 30
0.0
 11
125.6061760934564
 21
244.09158194345301
 31
0.0
  0
LINE
  5
1436E
  8
0
 10
175.04389369592411
 20
241.36603620272649
 30
0.0
 11
183.14110289269931
 21
237.67169217268199
 31
0.0
  0
LINE
  5
1436F
  8
0
 10
183.14110289269931
 20
240.36022956151351
 30
0.0
 11
176.11319785716049
 21
243.6259462084052
 31
0.0
  0
ARC
  5
14370
  8
0
 10
174.00617609345639
 20
231.59158194345261
 30
0.0
 40
4.9999999999998401
 50
270.0
 51
294.92328193840308
  0
LINE
  5
14371
  8
0
 10
125.6061760934564
 20
226.59158194345309
 30
0.0
 11
174.00617609345639
 21
226.59158194345289
 31
0.0
  0
LINE
  5
14373
  8
0
 10
174.00617609345639
 20
229.09158194345289
 30
0.0
 11
125.6061760934564
 21
229.09158194345301
 31
0.0
  0
ARC
  5
14374
  8
0
 10
174.0061760934565
 20
231.59158194345241
 30
0.0
 40
2.4999999999996678
 50
270.0
 51
294.52479798773982
  0
LINE
  5
14375
  8
0
 10
183.14110289269919
 20
233.01147171422369
 30
0.0
 11
175.04389369592411
 21
229.31712768417901
 31
0.0
  0
LINE
  5
14376
  8
0
 10
176.1131978571604
 20
227.05721767850039
 30
0.0
 11
183.14110289269919
 21
230.322934325392
 31
0.0
  0
LINE
  5
14377
  8
0
 10
125.6061760934564
 20
239.25470090407791
 30
0.0
 11
125.6061760934564
 21
244.09158194345309
 31
0.0
  0
LINE
  5
1437A
  8
0
 10
125.6061760934564
 20
226.59158194345309
 30
0.0
 11
125.6061760934564
 21
231.42846298282851
 31
0.0
  0
LINE
  5
1437D
  8
0
 10
163.10617609345641
 20
232.29158194345291
 30
0.0
 11
137.1278037803861
 21
232.29158194345291
 31
0.0
  0
ARC
  5
1437E
  8
0
 10
163.10617609345641
 20
235.34158194345289
 30
0.0
 40
3.0500000000000389
 50
270.0
 51
90.0
  0
LINE
  5
1437F
  8
0
 10
137.1278037803861
 20
238.39158194345299
 30
0.0
 11
163.10617609345641
 21
238.39158194345279
 31
0.0
  0
LINE
  5
14380
  8
0
 10
169.6061760934563
 20
229.09158194345289
 30
0.0
 11
169.60617609345641
 21
241.59158194345289
 31
0.0
  0
LINE
  5
14383
  8
0
 10
186.9621245041734
 20
234.7546788195173
 30
0.0
 11
186.9621245041734
 21
235.92848506738829
 31
0.0
  0
ARC
  5
14385
  8
0
 10
131.1061760934563
 20
235.34158194345309
 30
0.0
 40
6.7500000000000044
 50
295.35074426734678
 51
64.649255732653202
  0
LINE
  5
14386
  8
0
 10
128.21610689013261
 20
229.24158194345301
 30
0.0
 11
133.99624529677999
 21
229.24158194345301
 31
0.0
  0
ARC
  5
14387
  8
0
 10
131.1061760934563
 20
235.34158194345309
 30
0.0
 40
6.749999999999984
 50
115.3507442673468
 51
244.64925573265319
  0
LINE
  5
14388
  8
0
 10
133.99624529677999
 20
241.441581943453
 30
0.0
 11
128.21610689013269
 21
241.441581943453
 31
0.0
  0
LINE
  5
14389
  8
0
 10
201.64970313583271
 20
226.92506375506969
 30
0.0
 11
201.65617609345989
 21
226.92506375506969
 31
0.0
  0
LINE
  5
1438A
  8
0
 10
189.60617609345641
 20
226.92506375506969
 30
0.0
 11
201.64970313583271
 21
226.92506375506969
 31
0.0
  0
LINE
  5
1438B
  8
0
 10
199.65617609345639
 20
243.85823934571479
 30
0.0
 11
195.65617609345639
 21
243.85823934571479
 31
0.0
  0
LINE
  5
1438C
  8
0
 10
201.65617609347319
 20
243.75810013183579
 30
0.0
 11
189.60617609345641
 21
243.75810013183579
 31
0.0
  0
ARC
  5
14392
  8
0
 10
197.65617609345651
 20
-8.1292619498442491
 30
0.0
 40
60.000000000011902
 50
86.177446270722513
 51
90.0
  0
ARC
  5
14393
  8
0
 10
197.65617609345651
 20
-8.1292619498442491
 30
0.0
 40
60.000000000011902
 50
90.0
 51
91.934099853908734
  0
ARC
  5
14394
  8
0
 10
197.65617609345611
 20
94.770738050186765
 30
0.0
 40
60.0000000000217
 50
271.9102131717114
 51
273.82255372929052
  0
LINE
  5
14396
  8
0
 10
201.65617609345639
 20
34.90421986178422
 30
0.0
 11
201.65617609345639
 21
36.270738050167438
 31
0.0
  0
LINE
  5
14398
  8
0
 10
201.65617609345639
 20
50.370738050167567
 30
0.0
 11
201.65617609345639
 21
51.737256238550572
 31
0.0
  0
LINE
  5
1439A
  8
0
 10
200.65617609345639
 20
38.770738050167211
 30
0.0
 11
200.65617609345639
 21
40.770738050167438
 31
0.0
  0
LINE
  5
1439B
  8
0
 10
200.65617609345639
 20
45.870738050167567
 30
0.0
 11
200.65617609345639
 21
47.87073805016734
 31
0.0
  0
POLYLINE
  5
1439F
  8
0
 66
     1
 10
0.0
 20
0.0
 30
0.0
 70
   128
  0
VERTEX
  5
14C83
  8
0
 10
169.76881385372249
 20
34.570738050167392
 30
0.0
  0
VERTEX
  5
14C84
  8
0
 10
169.6162891422579
 20
34.614359749427202
 30
0.0
  0
VERTEX
  5
14C85
  8
0
 10
169.6061760934563
 20
34.649526502699018
 30
0.0
  0
SEQEND
  5
14C86
  8
0
  0
LINE
  5
143A0
  8
0
 10
125.6061760934564
 20
34.570738050167392
 30
0.0
 11
174.00617609345639
 21
34.570738050167392
 31
0.0
  0
LINE
  5
143A1
  8
0
 10
125.6061760934564
 20
34.570738050167392
 30
0.0
 11
125.6061760934564
 21
38.570738050167392
 31
0.0
  0
ARC
  5
143A2
  8
0
 10
163.10617609345641
 20
43.320738050167392
 30
0.0
 40
3.0499999999999998
 50
270.0
 51
90.0
  0
LINE
  5
143A3
  8
0
 10
135.11876046432431
 20
46.370738050167112
 30
0.0
 11
163.10617609345641
 21
46.370738050167347
 31
0.0
  0
LINE
  5
143A4
  8
0
 10
163.10617609345641
 20
40.270738050167211
 30
0.0
 11
135.11876046432431
 21
40.270738050167211
 31
0.0
  0
LINE
  5
143A5
  8
0
 10
125.6061760934564
 20
38.570738050167392
 30
0.0
 11
125.6061760934564
 21
42.847017491796123
 31
0.0
  0
LINE
  5
143A6
  8
0
 10
125.6061760934564
 20
43.794458608538427
 30
0.0
 11
125.6061760934563
 21
48.070738050167392
 31
0.0
  0
LINE
  5
143A8
  8
0
 10
125.6061760934563
 20
48.070738050167392
 30
0.0
 11
125.6061760934563
 21
52.070738050167158
 31
0.0
  0
LINE
  5
143A9
  8
0
 10
125.6061760934563
 20
52.070738050167158
 30
0.0
 11
174.00617609345639
 21
52.070738050167392
 31
0.0
  0
POLYLINE
  5
143AA
  8
0
 66
     1
 10
0.0
 20
0.0
 30
0.0
 70
   128
  0
VERTEX
  5
14C87
  8
0
 10
169.6061760934563
 20
51.991949597635767
 30
0.0
  0
VERTEX
  5
14C88
  8
0
 10
169.69785864018559
 20
52.066156282513482
 30
0.0
  0
VERTEX
  5
14C89
  8
0
 10
169.76881385372241
 20
52.070738050167392
 30
0.0
  0
SEQEND
  5
14C8A
  8
0
  0
LINE
  5
143AB
  8
0
 10
169.6061760934563
 20
34.649526502699018
 30
0.0
 11
169.6061760934563
 21
51.991949597635767
 31
0.0
  0
LINE
  5
143AC
  8
0
 10
186.9621245041734
 20
43.907641174102757
 30
0.0
 11
186.9307408885208
 21
43.921829531619998
 31
0.0
  0
LINE
  5
143AD
  8
0
 10
186.39507354252839
 20
44.16622725108914
 30
0.0
 11
186.9307408885208
 21
43.921829531619998
 31
0.0
  0
LINE
  5
143AF
  8
0
 10
187.9526652116042
 20
46.103555917691438
 30
0.0
 11
186.39507354252839
 21
46.827335339444971
 31
0.0
  0
ARC
  5
143B0
  8
0
 10
189.00617609345639
 20
48.370738050168029
 30
0.0
 40
2.500000000000516
 50
245.07671806159991
 51
269.99999999999682
  0
ARC
  5
143B2
  8
0
 10
189.0061760934563
 20
38.270738050167658
 30
0.0
 40
2.499999999999726
 50
90.0
 51
114.92328193840591
  0
LINE
  5
143B3
  8
0
 10
186.39507354252839
 20
39.814140760890041
 30
0.0
 11
187.95266521160431
 21
40.537920182643802
 31
0.0
  0
LINE
  5
143B5
  8
0
 10
186.9307408885208
 20
42.719646568715
 30
0.0
 11
186.39507354252839
 21
42.475248849245652
 31
0.0
  0
LINE
  5
143B6
  8
0
 10
186.9307408885208
 20
42.719646568715
 30
0.0
 11
186.9621245041734
 21
42.733834926232021
 31
0.0
  0
LINE
  5
143B7
  8
0
 10
186.9621245041734
 20
43.907641174102757
 30
0.0
 11
186.9621245041734
 21
42.733834926232021
 31
0.0
  0
LINE
  5
143B8
  8
0
 10
206.7775060081681
 20
45.870738050167631
 30
0.0
 11
189.0061760934563
 21
45.870738050167567
 31
0.0
  0
LINE
  5
143B9
  8
0
 10
189.00617609345639
 20
40.770738050167438
 30
0.0
 11
206.72750600814129
 21
40.770738050167438
 31
0.0
  0
LINE
  5
143C7
  8
0
 10
186.39507354252839
 20
42.475248849245652
 30
0.0
 11
185.39507354252839
 21
42.01899979598965
 31
0.0
  0
LINE
  5
143C8
  8
0
 10
185.39507354252839
 20
39.349462221499152
 30
0.0
 11
186.39507354252839
 21
39.814140760890041
 31
0.0
  0
LINE
  5
143CA
  8
0
 10
185.39507354252839
 20
44.622476304345128
 30
0.0
 11
186.39507354252839
 21
44.16622725108914
 31
0.0
  0
LINE
  5
143CB
  8
0
 10
186.39507354252839
 20
46.827335339444971
 30
0.0
 11
185.39507354252839
 21
47.292013878835633
 31
0.0
  0
ARC
  5
143CC
  8
0
 10
174.00617609345639
 20
39.570738050167172
 30
0.0
 40
4.9999999999997931
 50
270.0
 51
294.92328193840592
  0
ARC
  5
143CD
  8
0
 10
174.00617609345639
 20
39.570738050166938
 30
0.0
 40
2.49999999999969
 50
270.0
 51
294.52479798774277
  0
LINE
  5
143CF
  8
0
 10
185.39507354252839
 20
42.01899979598965
 30
0.0
 11
184.10617609345641
 21
41.430941555106521
 31
0.0
  0
LINE
  5
143D0
  8
0
 10
174.00617609345639
 20
37.070738050167392
 30
0.0
 11
169.6061760934563
 21
37.070738050167449
 31
0.0
  0
LINE
  5
143D1
  8
0
 10
176.11319785716049
 20
35.036373785215119
 30
0.0
 11
182.35700578938179
 21
37.937737335396612
 31
0.0
  0
ARC
  5
143D2
  8
0
 10
174.00617609345639
 20
47.070738050167613
 30
0.0
 40
4.9999999999998499
 50
65.076718061596949
 51
90.0
  0
ARC
  5
143D3
  8
0
 10
174.0061760934565
 20
47.070738050167847
 30
0.0
 40
2.4999999999996372
 50
65.475202012260141
 51
90.0
  0
LINE
  5
143D5
  8
0
 10
175.04389369592411
 20
49.345192309441011
 30
0.0
 11
181.6061760934565
 21
46.35115717836856
 31
0.0
  0
LINE
  5
143D6
  8
0
 10
169.6061760934563
 20
49.570738050167392
 30
0.0
 11
174.00617609345639
 21
49.570738050167392
 31
0.0
  0
LINE
  5
143D7
  8
0
 10
185.39507354252839
 20
47.292013878835633
 30
0.0
 11
184.7408845114397
 21
47.59600148228742
 31
0.0
  0
ARC
  5
143E6
  8
0
 10
131.10617609345641
 20
43.320738050167392
 30
0.0
 40
6.4613248653636379
 50
148.3444610146806
 51
211.65553898531931
  0
ARC
  5
143E7
  8
0
 10
131.10617609345641
 20
43.320738050167392
 30
0.0
 40
6.4613248653636282
 50
331.83323908432538
 51
28.166760915674558
  0
ARC
  5
143E8
  8
0
 10
131.1061760934563
 20
43.320738050167392
 30
0.0
 40
6.7500000000000027
 50
144.56905531266
 51
215.43094468734
  0
ARC
  5
143E9
  8
0
 10
131.1061760934563
 20
43.320738050167392
 30
0.0
 40
6.7500000000000062
 50
333.13744094263978
 51
26.862559057360201
  0
LINE
  5
143EC
  8
0
 10
195.65617609345639
 20
34.804080647905487
 30
0.0
 11
199.65617609345841
 21
34.80408064790533
 31
0.0
  0
LINE
  5
143F2
  8
0
 10
125.3326734015601
 20
43.320738050167392
 30
0.0
 11
128.21942474750711
 21
38.320738050169211
 31
0.0
  0
LINE
  5
143F5
  8
0
 10
128.21942474750821
 20
38.320738050167392
 30
0.0
 11
133.99292743940239
 21
38.320738050167392
 31
0.0
  0
LINE
  5
143F7
  8
0
 10
133.9929274394045
 20
48.320738050167392
 30
0.0
 11
128.21942474751029
 21
48.320738050167392
 31
0.0
  0
LINE
  5
143FA
  8
0
 10
136.87967878535261
 20
43.320738050167328
 30
0.0
 11
133.99292743940561
 21
48.320738050165573
 31
0.0
  0
LINE
  5
143FF
  8
0
 10
128.2194247475083
 20
48.320738050167392
 30
0.0
 11
125.3326734015539
 21
43.320738050156699
 31
0.0
  0
LINE
  5
14402
  8
0
 10
133.9929274394045
 20
38.320738050167392
 30
0.0
 11
136.87967878535329
 21
43.320738050168529
 31
0.0
  0
ARC
  5
14407
  8
0
 10
54.606176093456362
 20
140.54073805016691
 30
0.0
 40
10.0
 50
109.9484435888042
 51
127.5895029648556
  0
ARC
  5
14408
  8
0
 10
54.606176093456362
 20
140.54073805016691
 30
0.0
 40
10.0
 50
52.410497035144417
 51
70.051556411198874
  0
ARC
  5
14409
  8
0
 10
3.1561760934448548
 20
165.09073805016709
 30
0.0
 40
60.000000000011909
 50
358.14533040709023
 51
0.0
  0
ARC
  5
1440A
  8
0
 10
3.1561760934448548
 20
165.09073805016709
 30
0.0
 40
60.000000000011909
 50
0.0
 51
3.8225537292773728
  0
ARC
  5
1440B
  8
0
 10
106.0561760934758
 20
165.09073805016709
 30
0.0
 40
60.000000000021679
 50
176.17744627070951
 51
178.08978682829181
  0
LINE
  5
1440C
  8
0
 10
47.556176093456337
 20
169.09073805016709
 30
0.0
 11
46.18965790507329
 21
169.09073805016709
 31
0.0
  0
LINE
  5
1440D
  8
0
 10
63.022694281839371
 20
169.09073805016709
 30
0.0
 11
61.656176093456303
 21
169.09073805016709
 31
0.0
  0
LINE
  5
1440E
  8
0
 10
59.206176093456541
 20
168.09073805016709
 30
0.0
 11
57.347316644516553
 21
168.09073805016709
 31
0.0
  0
LINE
  5
1440F
  8
0
 10
51.865035542396157
 20
168.09073805016709
 30
0.0
 11
50.006176093456453
 21
168.09073805016709
 31
0.0
  0
LINE
  5
14410
  8
0
 10
50.156176093456359
 20
117.3407380501671
 30
0.0
 11
50.156176093456359
 21
116.8407380501671
 31
0.0
  0
LINE
  5
14411
  8
0
 10
59.056176093456337
 20
116.8407380501671
 30
0.0
 11
59.056176093456337
 21
117.3407380501671
 31
0.0
  0
LINE
  5
14412
  8
0
 10
51.606176093456348
 20
151.72723805016719
 30
0.0
 11
51.606176093456348
 21
149.940738050167
 31
0.0
  0
LINE
  5
14413
  8
0
 10
51.606176093456348
 20
138.34073805016709
 30
0.0
 11
51.606176093456348
 21
138.0407380501951
 31
0.0
  0
LINE
  5
14414
  8
0
 10
51.606176093456348
 20
134.84073805023939
 30
0.0
 11
51.606176093456348
 21
117.3407380501671
 31
0.0
  0
LINE
  5
14415
  8
0
 10
57.606176093456362
 20
117.3407380501671
 30
0.0
 11
57.606176093456362
 21
134.8407380502112
 31
0.0
  0
LINE
  5
14416
  8
0
 10
57.606176093456362
 20
138.0407380501951
 30
0.0
 11
57.606176093456362
 21
138.34073805016709
 31
0.0
  0
LINE
  5
14417
  8
0
 10
57.606176093456362
 20
149.940738050167
 30
0.0
 11
57.606176093456362
 21
151.72723805016719
 31
0.0
  0
LINE
  5
14418
  8
0
 10
57.606176093441228
 20
151.72723805016719
 30
0.0
 11
56.992676093425672
 21
152.34073805019989
 31
0.0
  0
LINE
  5
14419
  8
0
 10
52.219676093486981
 20
152.34073805019989
 30
0.0
 11
51.606176093471412
 21
151.72723805016719
 31
0.0
  0
POLYLINE
  5
1441A
  8
0
 66
     1
 10
0.0
 20
0.0
 30
0.0
 70
   128
  0
VERTEX
  5
14C8B
  8
0
 10
57.106176093458679
 20
134.84073805015299
 30
0.0
  0
VERTEX
  5
14C8C
  8
0
 10
55.856176093455673
 20
134.9586127670959
 30
0.0
  0
VERTEX
  5
14C8D
  8
0
 10
54.606176093454941
 20
135.28732003754681
 30
0.0
  0
SEQEND
  5
14C8E
  8
0
  0
LINE
  5
1441B
  8
0
 10
54.606176093456362
 20
135.28732003754681
 30
0.0
 11
54.606176130973473
 21
137.59415607530761
 31
0.0
  0
POLYLINE
  5
1441C
  8
0
 66
     1
 10
0.0
 20
0.0
 30
0.0
 70
   128
  0
VERTEX
  5
14C8F
  8
0
 10
54.606176168490578
 20
137.59415608781319
 30
0.0
  0
VERTEX
  5
14C90
  8
0
 10
55.830996783551683
 20
137.91816446095589
 30
0.0
  0
VERTEX
  5
14C91
  8
0
 10
57.106176093456362
 20
138.0407380501924
 30
0.0
  0
SEQEND
  5
14C92
  8
0
  0
POLYLINE
  5
1441D
  8
0
 66
     1
 10
0.0
 20
0.0
 30
0.0
 70
   128
  0
VERTEX
  5
14C93
  8
0
 10
57.106176093456362
 20
138.0407380501924
 30
0.0
  0
VERTEX
  5
14C94
  8
0
 10
58.356176055939812
 20
137.92286334018939
 30
0.0
  0
VERTEX
  5
14C95
  8
0
 10
59.60617601842327
 20
137.59415608781291
 30
0.0
  0
SEQEND
  5
14C96
  8
0
  0
POLYLINE
  5
1441F
  8
0
 66
     1
 10
0.0
 20
0.0
 30
0.0
 70
   128
  0
VERTEX
  5
14C97
  8
0
 10
59.606176093457719
 20
135.28732003754681
 30
0.0
  0
VERTEX
  5
14C98
  8
0
 10
58.381355442718728
 20
134.96331164680441
 30
0.0
  0
VERTEX
  5
14C99
  8
0
 10
57.106176093455673
 20
134.84073805015569
 30
0.0
  0
SEQEND
  5
14C9A
  8
0
  0
POLYLINE
  5
14420
  8
0
 66
     1
 10
0.0
 20
0.0
 30
0.0
 70
   128
  0
VERTEX
  5
14C9B
  8
0
 10
52.106176093454017
 20
134.84073805015299
 30
0.0
  0
VERTEX
  5
14C9C
  8
0
 10
50.856176093455673
 20
134.9586127670957
 30
0.0
  0
VERTEX
  5
14C9D
  8
0
 10
49.606176093454941
 20
135.28732003754681
 30
0.0
  0
SEQEND
  5
14C9E
  8
0
  0
POLYLINE
  5
14422
  8
0
 66
     1
 10
0.0
 20
0.0
 30
0.0
 70
   128
  0
VERTEX
  5
14C9F
  8
0
 10
49.606176168468807
 20
137.59415608780949
 30
0.0
  0
VERTEX
  5
14CA0
  8
0
 10
50.830996783541728
 20
137.9181644609541
 30
0.0
  0
VERTEX
  5
14CA1
  8
0
 10
52.106176093456362
 20
138.0407380501924
 30
0.0
  0
SEQEND
  5
14CA2
  8
0
  0
POLYLINE
  5
14423
  8
0
 66
     1
 10
0.0
 20
0.0
 30
0.0
 70
   128
  0
VERTEX
  5
14CA3
  8
0
 10
52.106176093456362
 20
138.0407380501924
 30
0.0
  0
VERTEX
  5
14CA4
  8
0
 10
53.356176107882987
 20
137.92286333058519
 30
0.0
  0
VERTEX
  5
14CA5
  8
0
 10
54.606176122309563
 20
137.59415605318421
 30
0.0
  0
SEQEND
  5
14CA6
  8
0
  0
POLYLINE
  5
14424
  8
0
 66
     1
 10
0.0
 20
0.0
 30
0.0
 70
   128
  0
VERTEX
  5
14CA7
  8
0
 10
54.606176093457783
 20
135.28732003754681
 30
0.0
  0
VERTEX
  5
14CA8
  8
0
 10
53.381355442718728
 20
134.96331164680441
 30
0.0
  0
VERTEX
  5
14CA9
  8
0
 10
52.106176093455673
 20
134.84073805015569
 30
0.0
  0
SEQEND
  5
14CAA
  8
0
  0
LINE
  5
14428
  8
0
 10
49.606176093456362
 20
134.84073805017081
 30
0.0
 11
59.60617609348251
 21
134.84073805017081
 31
0.0
  0
LINE
  5
1442B
  8
0
 10
59.606176093456362
 20
134.84073805017101
 30
0.0
 11
59.606176093456362
 21
138.0407380501924
 31
0.0
  0
LINE
  5
1442C
  8
0
 10
49.606176093456362
 20
138.0407380501938
 30
0.0
 11
59.606176093454081
 21
138.0407380501938
 31
0.0
  0
LINE
  5
1442D
  8
0
 10
49.606176093456362
 20
138.0407380501924
 30
0.0
 11
49.606176093456362
 21
134.84073805017081
 31
0.0
  0
ARC
  5
14433
  8
0
 10
59.356176093456348
 20
142.34073805016709
 30
0.0
 40
3.9999999999999849
 50
270.0
 51
0.0
  0
LINE
  5
14434
  8
0
 10
49.856176093456348
 20
138.34073805016709
 30
0.0
 11
59.356176093456348
 21
138.34073805016709
 31
0.0
  0
ARC
  5
14435
  8
0
 10
49.856176093456348
 20
142.34073805016709
 30
0.0
 40
4.0
 50
180.0
 51
270.0
  0
LINE
  5
14441
  8
0
 10
62.890540358408742
 20
163.31565346815071
 30
0.0
 11
59.624823711517003
 21
165.2580609374368
 31
0.0
  0
POLYLINE
  5
14442
  8
0
 10
63.356176093456362
 20
162.73330427716519
 30
0.0
 66
     1
 70
     8
  0
VERTEX
  8
0
  5
14D41
 10
63.3562
 20
162.733
 30
0.000000
  70
    32
  0
VERTEX
  8
0
  5
14D42
 10
63.3561
 20
162.738
 30
0.000000
  70
    32
  0
VERTEX
  8
0
  5
14D43
 10
63.3561
 20
162.743
 30
0.000000
  70
    32
  0
VERTEX
  8
0
  5
14D44
 10
63.3559
 20
162.747
 30
0.000000
  70
    32
  0
VERTEX
  8
0
  5
14D45
 10
63.3557
 20
162.752
 30
0.000000
  70
    32
  0
VERTEX
  8
0
  5
14D46
 10
63.3555
 20
162.757
 30
0.000000
  70
    32
  0
VERTEX
  8
0
  5
14D47
 10
63.3551
 20
162.761
 30
0.000000
  70
    32
  0
VERTEX
  8
0
  5
14D48
 10
63.3548
 20
162.766
 30
0.000000
  70
    32
  0
VERTEX
  8
0
  5
14D49
 10
63.3543
 20
162.771
 30
0.000000
  70
    32
  0
VERTEX
  8
0
  5
14D4A
 10
63.3538
 20
162.776
 30
0.000000
  70
    32
  0
VERTEX
  8
0
  5
14D4B
 10
63.3533
 20
162.780
 30
0.000000
  70
    32
  0
VERTEX
  8
0
  5
14D4C
 10
63.3527
 20
162.785
 30
0.000000
  70
    32
  0
VERTEX
  8
0
  5
14D4D
 10
63.3520
 20
162.790
 30
0.000000
  70
    32
  0
VERTEX
  8
0
  5
14D4E
 10
63.3513
 20
162.794
 30
0.000000
  70
    32
  0
VERTEX
  8
0
  5
14D4F
 10
63.3505
 20
162.799
 30
0.000000
  70
    32
  0
VERTEX
  8
0
  5
14D50
 10
63.3497
 20
162.804
 30
0.000000
  70
    32
  0
VERTEX
  8
0
  5
14D51
 10
63.3488
 20
162.808
 30
0.000000
  70
    32
  0
VERTEX
  8
0
  5
14D52
 10
63.3478
 20
162.813
 30
0.000000
  70
    32
  0
VERTEX
  8
0
  5
14D53
 10
63.3468
 20
162.818
 30
0.000000
  70
    32
  0
VERTEX
  8
0
  5
14D54
 10
63.3458
 20
162.822
 30
0.000000
  70
    32
  0
VERTEX
  8
0
  5
14D55
 10
63.3446
 20
162.827
 30
0.000000
  70
    32
  0
VERTEX
  8
0
  5
14D56
 10
63.3434
 20
162.832
 30
0.000000
  70
    32
  0
VERTEX
  8
0
  5
14D57
 10
63.3422
 20
162.837
 30
0.000000
  70
    32
  0
VERTEX
  8
0
  5
14D58
 10
63.3409
 20
162.841
 30
0.000000
  70
    32
  0
VERTEX
  8
0
  5
14D59
 10
63.3396
 20
162.846
 30
0.000000
  70
    32
  0
VERTEX
  8
0
  5
14D5A
 10
63.3381
 20
162.851
 30
0.000000
  70
    32
  0
VERTEX
  8
0
  5
14D5B
 10
63.3367
 20
162.855
 30
0.000000
  70
    32
  0
VERTEX
  8
0
  5
14D5C
 10
63.3351
 20
162.860
 30
0.000000
  70
    32
  0
VERTEX
  8
0
  5
14D5D
 10
63.3336
 20
162.865
 30
0.000000
  70
    32
  0
VERTEX
  8
0
  5
14D5E
 10
63.3319
 20
162.869
 30
0.000000
  70
    32
  0
VERTEX
  8
0
  5
14D5F
 10
63.3302
 20
162.874
 30
0.000000
  70
    32
  0
VERTEX
  8
0
  5
14D60
 10
63.3285
 20
162.879
 30
0.000000
  70
    32
  0
VERTEX
  8
0
  5
14D61
 10
63.3266
 20
162.883
 30
0.000000
  70
    32
  0
VERTEX
  8
0
  5
14D62
 10
63.3248
 20
162.888
 30
0.000000
  70
    32
  0
VERTEX
  8
0
  5
14D63
 10
63.3228
 20
162.893
 30
0.000000
  70
    32
  0
VERTEX
  8
0
  5
14D64
 10
63.3208
 20
162.897
 30
0.000000
  70
    32
  0
VERTEX
  8
0
  5
14D65
 10
63.3188
 20
162.902
 30
0.000000
  70
    32
  0
VERTEX
  8
0
  5
14D66
 10
63.3167
 20
162.907
 30
0.000000
  70
    32
  0
VERTEX
  8
0
  5
14D67
 10
63.3145
 20
162.911
 30
0.000000
  70
    32
  0
VERTEX
  8
0
  5
14D68
 10
63.3123
 20
162.916
 30
0.000000
  70
    32
  0
VERTEX
  8
0
  5
14D69
 10
63.3101
 20
162.921
 30
0.000000
  70
    32
  0
VERTEX
  8
0
  5
14D6A
 10
63.3077
 20
162.925
 30
0.000000
  70
    32
  0
VERTEX
  8
0
  5
14D6B
 10
63.3053
 20
162.930
 30
0.000000
  70
    32
  0
VERTEX
  8
0
  5
14D6C
 10
63.3029
 20
162.935
 30
0.000000
  70
    32
  0
VERTEX
  8
0
  5
14D6D
 10
63.3004
 20
162.939
 30
0.000000
  70
    32
  0
VERTEX
  8
0
  5
14D6E
 10
63.2978
 20
162.944
 30
0.000000
  70
    32
  0
VERTEX
  8
0
  5
14D6F
 10
63.2952
 20
162.948
 30
0.000000
  70
    32
  0
VERTEX
  8
0
  5
14D70
 10
63.2925
 20
162.953
 30
0.000000
  70
    32
  0
VERTEX
  8
0
  5
14D71
 10
63.2898
 20
162.958
 30
0.000000
  70
    32
  0
VERTEX
  8
0
  5
14D72
 10
63.2870
 20
162.962
 30
0.000000
  70
    32
  0
VERTEX
  8
0
  5
14D73
 10
63.2842
 20
162.967
 30
0.000000
  70
    32
  0
VERTEX
  8
0
  5
14D74
 10
63.2813
 20
162.972
 30
0.000000
  70
    32
  0
VERTEX
  8
0
  5
14D75
 10
63.2783
 20
162.976
 30
0.000000
  70
    32
  0
VERTEX
  8
0
  5
14D76
 10
63.2753
 20
162.981
 30
0.000000
  70
    32
  0
VERTEX
  8
0
  5
14D77
 10
63.2722
 20
162.985
 30
0.000000
  70
    32
  0
VERTEX
  8
0
  5
14D78
 10
63.2691
 20
162.990
 30
0.000000
  70
    32
  0
VERTEX
  8
0
  5
14D79
 10
63.2659
 20
162.995
 30
0.000000
  70
    32
  0
VERTEX
  8
0
  5
14D7A
 10
63.2627
 20
162.999
 30
0.000000
  70
    32
  0
VERTEX
  8
0
  5
14D7B
 10
63.2594
 20
163.004
 30
0.000000
  70
    32
  0
VERTEX
  8
0
  5
14D7C
 10
63.2560
 20
163.009
 30
0.000000
  70
    32
  0
VERTEX
  8
0
  5
14D7D
 10
63.2526
 20
163.013
 30
0.000000
  70
    32
  0
VERTEX
  8
0
  5
14D7E
 10
63.2491
 20
163.018
 30
0.000000
  70
    32
  0
VERTEX
  8
0
  5
14D7F
 10
63.2456
 20
163.022
 30
0.000000
  70
    32
  0
VERTEX
  8
0
  5
14D80
 10
63.2420
 20
163.027
 30
0.000000
  70
    32
  0
VERTEX
  8
0
  5
14D81
 10
63.2384
 20
163.032
 30
0.000000
  70
    32
  0
VERTEX
  8
0
  5
14D82
 10
63.2347
 20
163.036
 30
0.000000
  70
    32
  0
VERTEX
  8
0
  5
14D83
 10
63.2309
 20
163.041
 30
0.000000
  70
    32
  0
VERTEX
  8
0
  5
14D84
 10
63.2271
 20
163.045
 30
0.000000
  70
    32
  0
VERTEX
  8
0
  5
14D85
 10
63.2233
 20
163.050
 30
0.000000
  70
    32
  0
VERTEX
  8
0
  5
14D86
 10
63.2193
 20
163.054
 30
0.000000
  70
    32
  0
VERTEX
  8
0
  5
14D87
 10
63.2154
 20
163.059
 30
0.000000
  70
    32
  0
VERTEX
  8
0
  5
14D88
 10
63.2113
 20
163.064
 30
0.000000
  70
    32
  0
VERTEX
  8
0
  5
14D89
 10
63.2072
 20
163.068
 30
0.000000
  70
    32
  0
VERTEX
  8
0
  5
14D8A
 10
63.2031
 20
163.073
 30
0.000000
  70
    32
  0
VERTEX
  8
0
  5
14D8B
 10
63.1989
 20
163.077
 30
0.000000
  70
    32
  0
VERTEX
  8
0
  5
14D8C
 10
63.1946
 20
163.082
 30
0.000000
  70
    32
  0
VERTEX
  8
0
  5
14D8D
 10
63.1903
 20
163.086
 30
0.000000
  70
    32
  0
VERTEX
  8
0
  5
14D8E
 10
63.1860
 20
163.091
 30
0.000000
  70
    32
  0
VERTEX
  8
0
  5
14D8F
 10
63.1815
 20
163.095
 30
0.000000
  70
    32
  0
VERTEX
  8
0
  5
14D90
 10
63.1771
 20
163.100
 30
0.000000
  70
    32
  0
VERTEX
  8
0
  5
14D91
 10
63.1725
 20
163.104
 30
0.000000
  70
    32
  0
VERTEX
  8
0
  5
14D92
 10
63.1679
 20
163.109
 30
0.000000
  70
    32
  0
VERTEX
  8
0
  5
14D93
 10
63.1633
 20
163.113
 30
0.000000
  70
    32
  0
VERTEX
  8
0
  5
14D94
 10
63.1586
 20
163.118
 30
0.000000
  70
    32
  0
VERTEX
  8
0
  5
14D95
 10
63.1538
 20
163.122
 30
0.000000
  70
    32
  0
VERTEX
  8
0
  5
14D96
 10
63.1490
 20
163.127
 30
0.000000
  70
    32
  0
VERTEX
  8
0
  5
14D97
 10
63.1442
 20
163.131
 30
0.000000
  70
    32
  0
VERTEX
  8
0
  5
14D98
 10
63.1392
 20
163.136
 30
0.000000
  70
    32
  0
VERTEX
  8
0
  5
14D99
 10
63.1342
 20
163.140
 30
0.000000
  70
    32
  0
VERTEX
  8
0
  5
14D9A
 10
63.1292
 20
163.145
 30
0.000000
  70
    32
  0
VERTEX
  8
0
  5
14D9B
 10
63.1241
 20
163.149
 30
0.000000
  70
    32
  0
VERTEX
  8
0
  5
14D9C
 10
63.1190
 20
163.154
 30
0.000000
  70
    32
  0
VERTEX
  8
0
  5
14D9D
 10
63.1138
 20
163.158
 30
0.000000
  70
    32
  0
VERTEX
  8
0
  5
14D9E
 10
63.1085
 20
163.163
 30
0.000000
  70
    32
  0
VERTEX
  8
0
  5
14D9F
 10
63.1032
 20
163.167
 30
0.000000
  70
    32
  0
VERTEX
  8
0
  5
14DA0
 10
63.0979
 20
163.172
 30
0.000000
  70
    32
  0
VERTEX
  8
0
  5
14DA1
 10
63.0924
 20
163.176
 30
0.000000
  70
    32
  0
VERTEX
  8
0
  5
14DA2
 10
63.0870
 20
163.181
 30
0.000000
  70
    32
  0
VERTEX
  8
0
  5
14DA3
 10
63.0814
 20
163.185
 30
0.000000
  70
    32
  0
VERTEX
  8
0
  5
14DA4
 10
63.0759
 20
163.190
 30
0.000000
  70
    32
  0
VERTEX
  8
0
  5
14DA5
 10
63.0702
 20
163.194
 30
0.000000
  70
    32
  0
VERTEX
  8
0
  5
14DA6
 10
63.0645
 20
163.198
 30
0.000000
  70
    32
  0
VERTEX
  8
0
  5
14DA7
 10
63.0588
 20
163.203
 30
0.000000
  70
    32
  0
VERTEX
  8
0
  5
14DA8
 10
63.0530
 20
163.207
 30
0.000000
  70
    32
  0
VERTEX
  8
0
  5
14DA9
 10
63.0471
 20
163.212
 30
0.000000
  70
    32
  0
VERTEX
  8
0
  5
14DAA
 10
63.0412
 20
163.216
 30
0.000000
  70
    32
  0
VERTEX
  8
0
  5
14DAB
 10
63.0353
 20
163.220
 30
0.000000
  70
    32
  0
VERTEX
  8
0
  5
14DAC
 10
63.0292
 20
163.225
 30
0.000000
  70
    32
  0
VERTEX
  8
0
  5
14DAD
 10
63.0232
 20
163.229
 30
0.000000
  70
    32
  0
VERTEX
  8
0
  5
14DAE
 10
63.0170
 20
163.234
 30
0.000000
  70
    32
  0
VERTEX
  8
0
  5
14DAF
 10
63.0109
 20
163.238
 30
0.000000
  70
    32
  0
VERTEX
  8
0
  5
14DB0
 10
63.0046
 20
163.242
 30
0.000000
  70
    32
  0
VERTEX
  8
0
  5
14DB1
 10
62.9984
 20
163.247
 30
0.000000
  70
    32
  0
VERTEX
  8
0
  5
14DB2
 10
62.9920
 20
163.251
 30
0.000000
  70
    32
  0
VERTEX
  8
0
  5
14DB3
 10
62.9856
 20
163.255
 30
0.000000
  70
    32
  0
VERTEX
  8
0
  5
14DB4
 10
62.9792
 20
163.260
 30
0.000000
  70
    32
  0
VERTEX
  8
0
  5
14DB5
 10
62.9727
 20
163.264
 30
0.000000
  70
    32
  0
VERTEX
  8
0
  5
14DB6
 10
62.9661
 20
163.268
 30
0.000000
  70
    32
  0
VERTEX
  8
0
  5
14DB7
 10
62.9595
 20
163.273
 30
0.000000
  70
    32
  0
VERTEX
  8
0
  5
14DB8
 10
62.9529
 20
163.277
 30
0.000000
  70
    32
  0
VERTEX
  8
0
  5
14DB9
 10
62.9461
 20
163.281
 30
0.000000
  70
    32
  0
VERTEX
  8
0
  5
14DBA
 10
62.9394
 20
163.286
 30
0.000000
  70
    32
  0
VERTEX
  8
0
  5
14DBB
 10
62.9326
 20
163.290
 30
0.000000
  70
    32
  0
VERTEX
  8
0
  5
14DBC
 10
62.9257
 20
163.294
 30
0.000000
  70
    32
  0
VERTEX
  8
0
  5
14DBD
 10
62.9188
 20
163.299
 30
0.000000
  70
    32
  0
VERTEX
  8
0
  5
14DBE
 10
62.9118
 20
163.303
 30
0.000000
  70
    32
  0
VERTEX
  8
0
  5
14DBF
 10
62.9048
 20
163.307
 30
0.000000
  70
    32
  0
VERTEX
  8
0
  5
14DC0
 10
62.8977
 20
163.311
 30
0.000000
  70
    32
  0
VERTEX
  8
0
  5
14DC1
 10
62.8905
 20
163.316
 30
0.000000
  70
    32
  0
SEQEND
  8
0
  5
14DC2
  0
POLYLINE
  5
14443
  8
0
 10
60.856176093456327
 20
162.73330427716519
 30
0.0
 66
     1
 70
     8
  0
VERTEX
  8
0
  5
14DC3
 10
60.8562
 20
162.733
 30
0.000000
  70
    32
  0
VERTEX
  8
0
  5
14DC4
 10
60.8562
 20
162.736
 30
0.000000
  70
    32
  0
VERTEX
  8
0
  5
14DC5
 10
60.8561
 20
162.738
 30
0.000000
  70
    32
  0
VERTEX
  8
0
  5
14DC6
 10
60.8561
 20
162.740
 30
0.000000
  70
    32
  0
VERTEX
  8
0
  5
14DC7
 10
60.8560
 20
162.743
 30
0.000000
  70
    32
  0
VERTEX
  8
0
  5
14DC8
 10
60.8558
 20
162.745
 30
0.000000
  70
    32
  0
VERTEX
  8
0
  5
14DC9
 10
60.8557
 20
162.747
 30
0.000000
  70
    32
  0
VERTEX
  8
0
  5
14DCA
 10
60.8555
 20
162.749
 30
0.000000
  70
    32
  0
VERTEX
  8
0
  5
14DCB
 10
60.8553
 20
162.752
 30
0.000000
  70
    32
  0
VERTEX
  8
0
  5
14DCC
 10
60.8550
 20
162.754
 30
0.000000
  70
    32
  0
VERTEX
  8
0
  5
14DCD
 10
60.8548
 20
162.756
 30
0.000000
  70
    32
  0
VERTEX
  8
0
  5
14DCE
 10
60.8545
 20
162.759
 30
0.000000
  70
    32
  0
VERTEX
  8
0
  5
14DCF
 10
60.8542
 20
162.761
 30
0.000000
  70
    32
  0
VERTEX
  8
0
  5
14DD0
 10
60.8538
 20
162.763
 30
0.000000
  70
    32
  0
VERTEX
  8
0
  5
14DD1
 10
60.8534
 20
162.766
 30
0.000000
  70
    32
  0
VERTEX
  8
0
  5
14DD2
 10
60.8530
 20
162.768
 30
0.000000
  70
    32
  0
VERTEX
  8
0
  5
14DD3
 10
60.8526
 20
162.770
 30
0.000000
  70
    32
  0
VERTEX
  8
0
  5
14DD4
 10
60.8521
 20
162.773
 30
0.000000
  70
    32
  0
VERTEX
  8
0
  5
14DD5
 10
60.8516
 20
162.775
 30
0.000000
  70
    32
  0
VERTEX
  8
0
  5
14DD6
 10
60.8511
 20
162.777
 30
0.000000
  70
    32
  0
VERTEX
  8
0
  5
14DD7
 10
60.8506
 20
162.779
 30
0.000000
  70
    32
  0
VERTEX
  8
0
  5
14DD8
 10
60.8500
 20
162.782
 30
0.000000
  70
    32
  0
VERTEX
  8
0
  5
14DD9
 10
60.8494
 20
162.784
 30
0.000000
  70
    32
  0
VERTEX
  8
0
  5
14DDA
 10
60.8488
 20
162.786
 30
0.000000
  70
    32
  0
VERTEX
  8
0
  5
14DDB
 10
60.8481
 20
162.789
 30
0.000000
  70
    32
  0
VERTEX
  8
0
  5
14DDC
 10
60.8474
 20
162.791
 30
0.000000
  70
    32
  0
VERTEX
  8
0
  5
14DDD
 10
60.8467
 20
162.793
 30
0.000000
  70
    32
  0
VERTEX
  8
0
  5
14DDE
 10
60.8460
 20
162.796
 30
0.000000
  70
    32
  0
VERTEX
  8
0
  5
14DDF
 10
60.8452
 20
162.798
 30
0.000000
  70
    32
  0
VERTEX
  8
0
  5
14DE0
 10
60.8444
 20
162.800
 30
0.000000
  70
    32
  0
VERTEX
  8
0
  5
14DE1
 10
60.8436
 20
162.803
 30
0.000000
  70
    32
  0
VERTEX
  8
0
  5
14DE2
 10
60.8428
 20
162.805
 30
0.000000
  70
    32
  0
VERTEX
  8
0
  5
14DE3
 10
60.8419
 20
162.807
 30
0.000000
  70
    32
  0
VERTEX
  8
0
  5
14DE4
 10
60.8410
 20
162.809
 30
0.000000
  70
    32
  0
VERTEX
  8
0
  5
14DE5
 10
60.8400
 20
162.812
 30
0.000000
  70
    32
  0
VERTEX
  8
0
  5
14DE6
 10
60.8391
 20
162.814
 30
0.000000
  70
    32
  0
VERTEX
  8
0
  5
14DE7
 10
60.8381
 20
162.816
 30
0.000000
  70
    32
  0
VERTEX
  8
0
  5
14DE8
 10
60.8371
 20
162.819
 30
0.000000
  70
    32
  0
VERTEX
  8
0
  5
14DE9
 10
60.8360
 20
162.821
 30
0.000000
  70
    32
  0
VERTEX
  8
0
  5
14DEA
 10
60.8349
 20
162.823
 30
0.000000
  70
    32
  0
VERTEX
  8
0
  5
14DEB
 10
60.8338
 20
162.825
 30
0.000000
  70
    32
  0
VERTEX
  8
0
  5
14DEC
 10
60.8327
 20
162.828
 30
0.000000
  70
    32
  0
VERTEX
  8
0
  5
14DED
 10
60.8316
 20
162.830
 30
0.000000
  70
    32
  0
VERTEX
  8
0
  5
14DEE
 10
60.8304
 20
162.832
 30
0.000000
  70
    32
  0
VERTEX
  8
0
  5
14DEF
 10
60.8292
 20
162.835
 30
0.000000
  70
    32
  0
VERTEX
  8
0
  5
14DF0
 10
60.8279
 20
162.837
 30
0.000000
  70
    32
  0
VERTEX
  8
0
  5
14DF1
 10
60.8267
 20
162.839
 30
0.000000
  70
    32
  0
VERTEX
  8
0
  5
14DF2
 10
60.8254
 20
162.841
 30
0.000000
  70
    32
  0
VERTEX
  8
0
  5
14DF3
 10
60.8240
 20
162.844
 30
0.000000
  70
    32
  0
VERTEX
  8
0
  5
14DF4
 10
60.8227
 20
162.846
 30
0.000000
  70
    32
  0
VERTEX
  8
0
  5
14DF5
 10
60.8213
 20
162.848
 30
0.000000
  70
    32
  0
VERTEX
  8
0
  5
14DF6
 10
60.8199
 20
162.851
 30
0.000000
  70
    32
  0
VERTEX
  8
0
  5
14DF7
 10
60.8185
 20
162.853
 30
0.000000
  70
    32
  0
VERTEX
  8
0
  5
14DF8
 10
60.8170
 20
162.855
 30
0.000000
  70
    32
  0
VERTEX
  8
0
  5
14DF9
 10
60.8155
 20
162.857
 30
0.000000
  70
    32
  0
VERTEX
  8
0
  5
14DFA
 10
60.8140
 20
162.860
 30
0.000000
  70
    32
  0
VERTEX
  8
0
  5
14DFB
 10
60.8125
 20
162.862
 30
0.000000
  70
    32
  0
VERTEX
  8
0
  5
14DFC
 10
60.8109
 20
162.864
 30
0.000000
  70
    32
  0
VERTEX
  8
0
  5
14DFD
 10
60.8093
 20
162.866
 30
0.000000
  70
    32
  0
VERTEX
  8
0
  5
14DFE
 10
60.8077
 20
162.869
 30
0.000000
  70
    32
  0
VERTEX
  8
0
  5
14DFF
 10
60.8060
 20
162.871
 30
0.000000
  70
    32
  0
VERTEX
  8
0
  5
14E00
 10
60.8043
 20
162.873
 30
0.000000
  70
    32
  0
VERTEX
  8
0
  5
14E01
 10
60.8026
 20
162.876
 30
0.000000
  70
    32
  0
VERTEX
  8
0
  5
14E02
 10
60.8009
 20
162.878
 30
0.000000
  70
    32
  0
VERTEX
  8
0
  5
14E03
 10
60.7991
 20
162.880
 30
0.000000
  70
    32
  0
VERTEX
  8
0
  5
14E04
 10
60.7973
 20
162.882
 30
0.000000
  70
    32
  0
VERTEX
  8
0
  5
14E05
 10
60.7955
 20
162.885
 30
0.000000
  70
    32
  0
VERTEX
  8
0
  5
14E06
 10
60.7937
 20
162.887
 30
0.000000
  70
    32
  0
VERTEX
  8
0
  5
14E07
 10
60.7918
 20
162.889
 30
0.000000
  70
    32
  0
VERTEX
  8
0
  5
14E08
 10
60.7899
 20
162.891
 30
0.000000
  70
    32
  0
VERTEX
  8
0
  5
14E09
 10
60.7880
 20
162.894
 30
0.000000
  70
    32
  0
VERTEX
  8
0
  5
14E0A
 10
60.7860
 20
162.896
 30
0.000000
  70
    32
  0
VERTEX
  8
0
  5
14E0B
 10
60.7841
 20
162.898
 30
0.000000
  70
    32
  0
VERTEX
  8
0
  5
14E0C
 10
60.7821
 20
162.900
 30
0.000000
  70
    32
  0
VERTEX
  8
0
  5
14E0D
 10
60.7800
 20
162.903
 30
0.000000
  70
    32
  0
VERTEX
  8
0
  5
14E0E
 10
60.7780
 20
162.905
 30
0.000000
  70
    32
  0
VERTEX
  8
0
  5
14E0F
 10
60.7759
 20
162.907
 30
0.000000
  70
    32
  0
VERTEX
  8
0
  5
14E10
 10
60.7738
 20
162.909
 30
0.000000
  70
    32
  0
VERTEX
  8
0
  5
14E11
 10
60.7716
 20
162.911
 30
0.000000
  70
    32
  0
VERTEX
  8
0
  5
14E12
 10
60.7694
 20
162.914
 30
0.000000
  70
    32
  0
VERTEX
  8
0
  5
14E13
 10
60.7672
 20
162.916
 30
0.000000
  70
    32
  0
VERTEX
  8
0
  5
14E14
 10
60.7650
 20
162.918
 30
0.000000
  70
    32
  0
VERTEX
  8
0
  5
14E15
 10
60.7628
 20
162.920
 30
0.000000
  70
    32
  0
VERTEX
  8
0
  5
14E16
 10
60.7605
 20
162.923
 30
0.000000
  70
    32
  0
VERTEX
  8
0
  5
14E17
 10
60.7582
 20
162.925
 30
0.000000
  70
    32
  0
VERTEX
  8
0
  5
14E18
 10
60.7559
 20
162.927
 30
0.000000
  70
    32
  0
VERTEX
  8
0
  5
14E19
 10
60.7535
 20
162.929
 30
0.000000
  70
    32
  0
VERTEX
  8
0
  5
14E1A
 10
60.7511
 20
162.932
 30
0.000000
  70
    32
  0
VERTEX
  8
0
  5
14E1B
 10
60.7487
 20
162.934
 30
0.000000
  70
    32
  0
VERTEX
  8
0
  5
14E1C
 10
60.7463
 20
162.936
 30
0.000000
  70
    32
  0
VERTEX
  8
0
  5
14E1D
 10
60.7438
 20
162.938
 30
0.000000
  70
    32
  0
VERTEX
  8
0
  5
14E1E
 10
60.7413
 20
162.940
 30
0.000000
  70
    32
  0
VERTEX
  8
0
  5
14E1F
 10
60.7388
 20
162.943
 30
0.000000
  70
    32
  0
VERTEX
  8
0
  5
14E20
 10
60.7362
 20
162.945
 30
0.000000
  70
    32
  0
VERTEX
  8
0
  5
14E21
 10
60.7337
 20
162.947
 30
0.000000
  70
    32
  0
VERTEX
  8
0
  5
14E22
 10
60.7311
 20
162.949
 30
0.000000
  70
    32
  0
VERTEX
  8
0
  5
14E23
 10
60.7285
 20
162.951
 30
0.000000
  70
    32
  0
VERTEX
  8
0
  5
14E24
 10
60.7258
 20
162.954
 30
0.000000
  70
    32
  0
VERTEX
  8
0
  5
14E25
 10
60.7231
 20
162.956
 30
0.000000
  70
    32
  0
VERTEX
  8
0
  5
14E26
 10
60.7204
 20
162.958
 30
0.000000
  70
    32
  0
VERTEX
  8
0
  5
14E27
 10
60.7177
 20
162.960
 30
0.000000
  70
    32
  0
VERTEX
  8
0
  5
14E28
 10
60.7149
 20
162.962
 30
0.000000
  70
    32
  0
VERTEX
  8
0
  5
14E29
 10
60.7121
 20
162.964
 30
0.000000
  70
    32
  0
VERTEX
  8
0
  5
14E2A
 10
60.7093
 20
162.967
 30
0.000000
  70
    32
  0
VERTEX
  8
0
  5
14E2B
 10
60.7065
 20
162.969
 30
0.000000
  70
    32
  0
VERTEX
  8
0
  5
14E2C
 10
60.7036
 20
162.971
 30
0.000000
  70
    32
  0
VERTEX
  8
0
  5
14E2D
 10
60.7008
 20
162.973
 30
0.000000
  70
    32
  0
VERTEX
  8
0
  5
14E2E
 10
60.6978
 20
162.975
 30
0.000000
  70
    32
  0
VERTEX
  8
0
  5
14E2F
 10
60.6949
 20
162.977
 30
0.000000
  70
    32
  0
VERTEX
  8
0
  5
14E30
 10
60.6919
 20
162.980
 30
0.000000
  70
    32
  0
VERTEX
  8
0
  5
14E31
 10
60.6889
 20
162.982
 30
0.000000
  70
    32
  0
VERTEX
  8
0
  5
14E32
 10
60.6859
 20
162.984
 30
0.000000
  70
    32
  0
VERTEX
  8
0
  5
14E33
 10
60.6829
 20
162.986
 30
0.000000
  70
    32
  0
VERTEX
  8
0
  5
14E34
 10
60.6798
 20
162.988
 30
0.000000
  70
    32
  0
VERTEX
  8
0
  5
14E35
 10
60.6767
 20
162.990
 30
0.000000
  70
    32
  0
VERTEX
  8
0
  5
14E36
 10
60.6736
 20
162.993
 30
0.000000
  70
    32
  0
VERTEX
  8
0
  5
14E37
 10
60.6704
 20
162.995
 30
0.000000
  70
    32
  0
VERTEX
  8
0
  5
14E38
 10
60.6673
 20
162.997
 30
0.000000
  70
    32
  0
VERTEX
  8
0
  5
14E39
 10
60.6641
 20
162.999
 30
0.000000
  70
    32
  0
VERTEX
  8
0
  5
14E3A
 10
60.6608
 20
163.001
 30
0.000000
  70
    32
  0
VERTEX
  8
0
  5
14E3B
 10
60.6576
 20
163.003
 30
0.000000
  70
    32
  0
VERTEX
  8
0
  5
14E3C
 10
60.6543
 20
163.005
 30
0.000000
  70
    32
  0
VERTEX
  8
0
  5
14E3D
 10
60.6510
 20
163.007
 30
0.000000
  70
    32
  0
VERTEX
  8
0
  5
14E3E
 10
60.6477
 20
163.010
 30
0.000000
  70
    32
  0
VERTEX
  8
0
  5
14E3F
 10
60.6443
 20
163.012
 30
0.000000
  70
    32
  0
VERTEX
  8
0
  5
14E40
 10
60.6409
 20
163.014
 30
0.000000
  70
    32
  0
VERTEX
  8
0
  5
14E41
 10
60.6375
 20
163.016
 30
0.000000
  70
    32
  0
VERTEX
  8
0
  5
14E42
 10
60.6341
 20
163.018
 30
0.000000
  70
    32
  0
VERTEX
  8
0
  5
14E43
 10
60.6306
 20
163.020
 30
0.000000
  70
    32
  0
SEQEND
  8
0
  5
14E44
  0
LINE
  5
14444
  8
0
 10
56.936286322685497
 20
165.2580609374368
 30
0.0
 11
60.630630352730151
 21
163.02011384727891
 31
0.0
  0
LINE
  5
14445
  8
0
 10
63.356176093456362
 20
142.34073805016709
 30
0.0
 11
63.356176093456362
 21
162.73330427716519
 31
0.0
  0
LINE
  5
14446
  8
0
 10
60.856176093456362
 20
162.73330427716519
 30
0.0
 11
60.856176093456362
 21
140.54073805011851
 31
0.0
  0
POLYLINE
  5
14447
  8
0
 10
46.321811828503968
 20
163.31565346815051
 30
0.0
 66
     1
 70
     8
  0
VERTEX
  8
0
  5
14E45
 10
46.3218
 20
163.316
 30
0.000000
  70
    32
  0
VERTEX
  8
0
  5
14E46
 10
46.3147
 20
163.311
 30
0.000000
  70
    32
  0
VERTEX
  8
0
  5
14E47
 10
46.3076
 20
163.307
 30
0.000000
  70
    32
  0
VERTEX
  8
0
  5
14E48
 10
46.3006
 20
163.303
 30
0.000000
  70
    32
  0
VERTEX
  8
0
  5
14E49
 10
46.2936
 20
163.299
 30
0.000000
  70
    32
  0
VERTEX
  8
0
  5
14E4A
 10
46.2867
 20
163.294
 30
0.000000
  70
    32
  0
VERTEX
  8
0
  5
14E4B
 10
46.2798
 20
163.290
 30
0.000000
  70
    32
  0
VERTEX
  8
0
  5
14E4C
 10
46.2730
 20
163.286
 30
0.000000
  70
    32
  0
VERTEX
  8
0
  5
14E4D
 10
46.2662
 20
163.281
 30
0.000000
  70
    32
  0
VERTEX
  8
0
  5
14E4E
 10
46.2595
 20
163.277
 30
0.000000
  70
    32
  0
VERTEX
  8
0
  5
14E4F
 10
46.2528
 20
163.273
 30
0.000000
  70
    32
  0
VERTEX
  8
0
  5
14E50
 10
46.2462
 20
163.268
 30
0.000000
  70
    32
  0
VERTEX
  8
0
  5
14E51
 10
46.2397
 20
163.264
 30
0.000000
  70
    32
  0
VERTEX
  8
0
  5
14E52
 10
46.2332
 20
163.260
 30
0.000000
  70
    32
  0
VERTEX
  8
0
  5
14E53
 10
46.2267
 20
163.255
 30
0.000000
  70
    32
  0
VERTEX
  8
0
  5
14E54
 10
46.2203
 20
163.251
 30
0.000000
  70
    32
  0
VERTEX
  8
0
  5
14E55
 10
46.2140
 20
163.247
 30
0.000000
  70
    32
  0
VERTEX
  8
0
  5
14E56
 10
46.2077
 20
163.242
 30
0.000000
  70
    32
  0
VERTEX
  8
0
  5
14E57
 10
46.2015
 20
163.238
 30
0.000000
  70
    32
  0
VERTEX
  8
0
  5
14E58
 10
46.1953
 20
163.234
 30
0.000000
  70
    32
  0
VERTEX
  8
0
  5
14E59
 10
46.1892
 20
163.229
 30
0.000000
  70
    32
  0
VERTEX
  8
0
  5
14E5A
 10
46.1831
 20
163.225
 30
0.000000
  70
    32
  0
VERTEX
  8
0
  5
14E5B
 10
46.1771
 20
163.220
 30
0.000000
  70
    32
  0
VERTEX
  8
0
  5
14E5C
 10
46.1711
 20
163.216
 30
0.000000
  70
    32
  0
VERTEX
  8
0
  5
14E5D
 10
46.1652
 20
163.212
 30
0.000000
  70
    32
  0
VERTEX
  8
0
  5
14E5E
 10
46.1594
 20
163.207
 30
0.000000
  70
    32
  0
VERTEX
  8
0
  5
14E5F
 10
46.1536
 20
163.203
 30
0.000000
  70
    32
  0
VERTEX
  8
0
  5
14E60
 10
46.1478
 20
163.198
 30
0.000000
  70
    32
  0
VERTEX
  8
0
  5
14E61
 10
46.1421
 20
163.194
 30
0.000000
  70
    32
  0
VERTEX
  8
0
  5
14E62
 10
46.1365
 20
163.190
 30
0.000000
  70
    32
  0
VERTEX
  8
0
  5
14E63
 10
46.1309
 20
163.185
 30
0.000000
  70
    32
  0
VERTEX
  8
0
  5
14E64
 10
46.1254
 20
163.181
 30
0.000000
  70
    32
  0
VERTEX
  8
0
  5
14E65
 10
46.1199
 20
163.176
 30
0.000000
  70
    32
  0
VERTEX
  8
0
  5
14E66
 10
46.1145
 20
163.172
 30
0.000000
  70
    32
  0
VERTEX
  8
0
  5
14E67
 10
46.1091
 20
163.167
 30
0.000000
  70
    32
  0
VERTEX
  8
0
  5
14E68
 10
46.1038
 20
163.163
 30
0.000000
  70
    32
  0
VERTEX
  8
0
  5
14E69
 10
46.0986
 20
163.158
 30
0.000000
  70
    32
  0
VERTEX
  8
0
  5
14E6A
 10
46.0934
 20
163.154
 30
0.000000
  70
    32
  0
VERTEX
  8
0
  5
14E6B
 10
46.0882
 20
163.149
 30
0.000000
  70
    32
  0
VERTEX
  8
0
  5
14E6C
 10
46.0831
 20
163.145
 30
0.000000
  70
    32
  0
VERTEX
  8
0
  5
14E6D
 10
46.0781
 20
163.140
 30
0.000000
  70
    32
  0
VERTEX
  8
0
  5
14E6E
 10
46.0731
 20
163.136
 30
0.000000
  70
    32
  0
VERTEX
  8
0
  5
14E6F
 10
46.0682
 20
163.131
 30
0.000000
  70
    32
  0
VERTEX
  8
0
  5
14E70
 10
46.0633
 20
163.127
 30
0.000000
  70
    32
  0
VERTEX
  8
0
  5
14E71
 10
46.0585
 20
163.122
 30
0.000000
  70
    32
  0
VERTEX
  8
0
  5
14E72
 10
46.0538
 20
163.118
 30
0.000000
  70
    32
  0
VERTEX
  8
0
  5
14E73
 10
46.0491
 20
163.113
 30
0.000000
  70
    32
  0
VERTEX
  8
0
  5
14E74
 10
46.0444
 20
163.109
 30
0.000000
  70
    32
  0
VERTEX
  8
0
  5
14E75
 10
46.0398
 20
163.104
 30
0.000000
  70
    32
  0
VERTEX
  8
0
  5
14E76
 10
46.0353
 20
163.100
 30
0.000000
  70
    32
  0
VERTEX
  8
0
  5
14E77
 10
46.0308
 20
163.095
 30
0.000000
  70
    32
  0
VERTEX
  8
0
  5
14E78
 10
46.0264
 20
163.091
 30
0.000000
  70
    32
  0
VERTEX
  8
0
  5
14E79
 10
46.0220
 20
163.086
 30
0.000000
  70
    32
  0
VERTEX
  8
0
  5
14E7A
 10
46.0177
 20
163.082
 30
0.000000
  70
    32
  0
VERTEX
  8
0
  5
14E7B
 10
46.0135
 20
163.077
 30
0.000000
  70
    32
  0
VERTEX
  8
0
  5
14E7C
 10
46.0093
 20
163.073
 30
0.000000
  70
    32
  0
VERTEX
  8
0
  5
14E7D
 10
46.0051
 20
163.068
 30
0.000000
  70
    32
  0
VERTEX
  8
0
  5
14E7E
 10
46.0010
 20
163.064
 30
0.000000
  70
    32
  0
VERTEX
  8
0
  5
14E7F
 10
45.9970
 20
163.059
 30
0.000000
  70
    32
  0
VERTEX
  8
0
  5
14E80
 10
45.9930
 20
163.054
 30
0.000000
  70
    32
  0
VERTEX
  8
0
  5
14E81
 10
45.9891
 20
163.050
 30
0.000000
  70
    32
  0
VERTEX
  8
0
  5
14E82
 10
45.9852
 20
163.045
 30
0.000000
  70
    32
  0
VERTEX
  8
0
  5
14E83
 10
45.9814
 20
163.041
 30
0.000000
  70
    32
  0
VERTEX
  8
0
  5
14E84
 10
45.9777
 20
163.036
 30
0.000000
  70
    32
  0
VERTEX
  8
0
  5
14E85
 10
45.9740
 20
163.032
 30
0.000000
  70
    32
  0
VERTEX
  8
0
  5
14E86
 10
45.9703
 20
163.027
 30
0.000000
  70
    32
  0
VERTEX
  8
0
  5
14E87
 10
45.9668
 20
163.022
 30
0.000000
  70
    32
  0
VERTEX
  8
0
  5
14E88
 10
45.9632
 20
163.018
 30
0.000000
  70
    32
  0
VERTEX
  8
0
  5
14E89
 10
45.9598
 20
163.013
 30
0.000000
  70
    32
  0
VERTEX
  8
0
  5
14E8A
 10
45.9563
 20
163.009
 30
0.000000
  70
    32
  0
VERTEX
  8
0
  5
14E8B
 10
45.9530
 20
163.004
 30
0.000000
  70
    32
  0
VERTEX
  8
0
  5
14E8C
 10
45.9497
 20
162.999
 30
0.000000
  70
    32
  0
VERTEX
  8
0
  5
14E8D
 10
45.9464
 20
162.995
 30
0.000000
  70
    32
  0
VERTEX
  8
0
  5
14E8E
 10
45.9433
 20
162.990
 30
0.000000
  70
    32
  0
VERTEX
  8
0
  5
14E8F
 10
45.9401
 20
162.985
 30
0.000000
  70
    32
  0
VERTEX
  8
0
  5
14E90
 10
45.9371
 20
162.981
 30
0.000000
  70
    32
  0
VERTEX
  8
0
  5
14E91
 10
45.9340
 20
162.976
 30
0.000000
  70
    32
  0
VERTEX
  8
0
  5
14E92
 10
45.9311
 20
162.972
 30
0.000000
  70
    32
  0
VERTEX
  8
0
  5
14E93
 10
45.9282
 20
162.967
 30
0.000000
  70
    32
  0
VERTEX
  8
0
  5
14E94
 10
45.9253
 20
162.962
 30
0.000000
  70
    32
  0
VERTEX
  8
0
  5
14E95
 10
45.9226
 20
162.958
 30
0.000000
  70
    32
  0
VERTEX
  8
0
  5
14E96
 10
45.9198
 20
162.953
 30
0.000000
  70
    32
  0
VERTEX
  8
0
  5
14E97
 10
45.9171
 20
162.948
 30
0.000000
  70
    32
  0
VERTEX
  8
0
  5
14E98
 10
45.9145
 20
162.944
 30
0.000000
  70
    32
  0
VERTEX
  8
0
  5
14E99
 10
45.9120
 20
162.939
 30
0.000000
  70
    32
  0
VERTEX
  8
0
  5
14E9A
 10
45.9095
 20
162.935
 30
0.000000
  70
    32
  0
VERTEX
  8
0
  5
14E9B
 10
45.9070
 20
162.930
 30
0.000000
  70
    32
  0
VERTEX
  8
0
  5
14E9C
 10
45.9046
 20
162.925
 30
0.000000
  70
    32
  0
VERTEX
  8
0
  5
14E9D
 10
45.9023
 20
162.921
 30
0.000000
  70
    32
  0
VERTEX
  8
0
  5
14E9E
 10
45.9000
 20
162.916
 30
0.000000
  70
    32
  0
VERTEX
  8
0
  5
14E9F
 10
45.8978
 20
162.911
 30
0.000000
  70
    32
  0
VERTEX
  8
0
  5
14EA0
 10
45.8957
 20
162.907
 30
0.000000
  70
    32
  0
VERTEX
  8
0
  5
14EA1
 10
45.8935
 20
162.902
 30
0.000000
  70
    32
  0
VERTEX
  8
0
  5
14EA2
 10
45.8915
 20
162.897
 30
0.000000
  70
    32
  0
VERTEX
  8
0
  5
14EA3
 10
45.8895
 20
162.893
 30
0.000000
  70
    32
  0
VERTEX
  8
0
  5
14EA4
 10
45.8876
 20
162.888
 30
0.000000
  70
    32
  0
VERTEX
  8
0
  5
14EA5
 10
45.8857
 20
162.883
 30
0.000000
  70
    32
  0
VERTEX
  8
0
  5
14EA6
 10
45.8839
 20
162.879
 30
0.000000
  70
    32
  0
VERTEX
  8
0
  5
14EA7
 10
45.8821
 20
162.874
 30
0.000000
  70
    32
  0
VERTEX
  8
0
  5
14EA8
 10
45.8804
 20
162.869
 30
0.000000
  70
    32
  0
VERTEX
  8
0
  5
14EA9
 10
45.8788
 20
162.865
 30
0.000000
  70
    32
  0
VERTEX
  8
0
  5
14EAA
 10
45.8772
 20
162.860
 30
0.000000
  70
    32
  0
VERTEX
  8
0
  5
14EAB
 10
45.8757
 20
162.855
 30
0.000000
  70
    32
  0
VERTEX
  8
0
  5
14EAC
 10
45.8742
 20
162.851
 30
0.000000
  70
    32
  0
VERTEX
  8
0
  5
14EAD
 10
45.8728
 20
162.846
 30
0.000000
  70
    32
  0
VERTEX
  8
0
  5
14EAE
 10
45.8714
 20
162.841
 30
0.000000
  70
    32
  0
VERTEX
  8
0
  5
14EAF
 10
45.8701
 20
162.837
 30
0.000000
  70
    32
  0
VERTEX
  8
0
  5
14EB0
 10
45.8689
 20
162.832
 30
0.000000
  70
    32
  0
VERTEX
  8
0
  5
14EB1
 10
45.8677
 20
162.827
 30
0.000000
  70
    32
  0
VERTEX
  8
0
  5
14EB2
 10
45.8666
 20
162.822
 30
0.000000
  70
    32
  0
VERTEX
  8
0
  5
14EB3
 10
45.8655
 20
162.818
 30
0.000000
  70
    32
  0
VERTEX
  8
0
  5
14EB4
 10
45.8645
 20
162.813
 30
0.000000
  70
    32
  0
VERTEX
  8
0
  5
14EB5
 10
45.8636
 20
162.808
 30
0.000000
  70
    32
  0
VERTEX
  8
0
  5
14EB6
 10
45.8627
 20
162.804
 30
0.000000
  70
    32
  0
VERTEX
  8
0
  5
14EB7
 10
45.8618
 20
162.799
 30
0.000000
  70
    32
  0
VERTEX
  8
0
  5
14EB8
 10
45.8611
 20
162.794
 30
0.000000
  70
    32
  0
VERTEX
  8
0
  5
14EB9
 10
45.8603
 20
162.790
 30
0.000000
  70
    32
  0
VERTEX
  8
0
  5
14EBA
 10
45.8597
 20
162.785
 30
0.000000
  70
    32
  0
VERTEX
  8
0
  5
14EBB
 10
45.8591
 20
162.780
 30
0.000000
  70
    32
  0
VERTEX
  8
0
  5
14EBC
 10
45.8585
 20
162.776
 30
0.000000
  70
    32
  0
VERTEX
  8
0
  5
14EBD
 10
45.8580
 20
162.771
 30
0.000000
  70
    32
  0
VERTEX
  8
0
  5
14EBE
 10
45.8576
 20
162.766
 30
0.000000
  70
    32
  0
VERTEX
  8
0
  5
14EBF
 10
45.8572
 20
162.761
 30
0.000000
  70
    32
  0
VERTEX
  8
0
  5
14EC0
 10
45.8569
 20
162.757
 30
0.000000
  70
    32
  0
VERTEX
  8
0
  5
14EC1
 10
45.8566
 20
162.752
 30
0.000000
  70
    32
  0
VERTEX
  8
0
  5
14EC2
 10
45.8564
 20
162.747
 30
0.000000
  70
    32
  0
VERTEX
  8
0
  5
14EC3
 10
45.8563
 20
162.743
 30
0.000000
  70
    32
  0
VERTEX
  8
0
  5
14EC4
 10
45.8562
 20
162.738
 30
0.000000
  70
    32
  0
VERTEX
  8
0
  5
14EC5
 10
45.8562
 20
162.733
 30
0.000000
  70
    32
  0
SEQEND
  8
0
  5
14EC6
  0
LINE
  5
14448
  8
0
 10
49.587528475395658
 20
165.2580609374368
 30
0.0
 11
46.321811828503968
 21
163.31565346815071
 31
0.0
  0
LINE
  5
1444A
  8
0
 10
48.581721834182559
 20
163.02011384727891
 30
0.0
 11
52.276065864227149
 21
165.2580609374368
 31
0.0
  0
POLYLINE
  5
1444B
  8
0
 10
48.581721834182559
 20
163.02011384727896
 30
0.0
 66
     1
 70
     8
  0
VERTEX
  8
0
  5
14EC7
 10
48.5817
 20
163.020
 30
0.000000
  70
    32
  0
VERTEX
  8
0
  5
14EC8
 10
48.5783
 20
163.018
 30
0.000000
  70
    32
  0
VERTEX
  8
0
  5
14EC9
 10
48.5748
 20
163.016
 30
0.000000
  70
    32
  0
VERTEX
  8
0
  5
14ECA
 10
48.5714
 20
163.014
 30
0.000000
  70
    32
  0
VERTEX
  8
0
  5
14ECB
 10
48.5680
 20
163.012
 30
0.000000
  70
    32
  0
VERTEX
  8
0
  5
14ECC
 10
48.5647
 20
163.010
 30
0.000000
  70
    32
  0
VERTEX
  8
0
  5
14ECD
 10
48.5614
 20
163.007
 30
0.000000
  70
    32
  0
VERTEX
  8
0
  5
14ECE
 10
48.5581
 20
163.005
 30
0.000000
  70
    32
  0
VERTEX
  8
0
  5
14ECF
 10
48.5548
 20
163.003
 30
0.000000
  70
    32
  0
VERTEX
  8
0
  5
14ED0
 10
48.5515
 20
163.001
 30
0.000000
  70
    32
  0
VERTEX
  8
0
  5
14ED1
 10
48.5483
 20
162.999
 30
0.000000
  70
    32
  0
VERTEX
  8
0
  5
14ED2
 10
48.5451
 20
162.997
 30
0.000000
  70
    32
  0
VERTEX
  8
0
  5
14ED3
 10
48.5419
 20
162.995
 30
0.000000
  70
    32
  0
VERTEX
  8
0
  5
14ED4
 10
48.5388
 20
162.993
 30
0.000000
  70
    32
  0
VERTEX
  8
0
  5
14ED5
 10
48.5356
 20
162.990
 30
0.000000
  70
    32
  0
VERTEX
  8
0
  5
14ED6
 10
48.5326
 20
162.988
 30
0.000000
  70
    32
  0
VERTEX
  8
0
  5
14ED7
 10
48.5295
 20
162.986
 30
0.000000
  70
    32
  0
VERTEX
  8
0
  5
14ED8
 10
48.5264
 20
162.984
 30
0.000000
  70
    32
  0
VERTEX
  8
0
  5
14ED9
 10
48.5234
 20
162.982
 30
0.000000
  70
    32
  0
VERTEX
  8
0
  5
14EDA
 10
48.5204
 20
162.980
 30
0.000000
  70
    32
  0
VERTEX
  8
0
  5
14EDB
 10
48.5175
 20
162.977
 30
0.000000
  70
    32
  0
VERTEX
  8
0
  5
14EDC
 10
48.5145
 20
162.975
 30
0.000000
  70
    32
  0
VERTEX
  8
0
  5
14EDD
 10
48.5116
 20
162.973
 30
0.000000
  70
    32
  0
VERTEX
  8
0
  5
14EDE
 10
48.5087
 20
162.971
 30
0.000000
  70
    32
  0
VERTEX
  8
0
  5
14EDF
 10
48.5058
 20
162.969
 30
0.000000
  70
    32
  0
VERTEX
  8
0
  5
14EE0
 10
48.5030
 20
162.967
 30
0.000000
  70
    32
  0
VERTEX
  8
0
  5
14EE1
 10
48.5002
 20
162.964
 30
0.000000
  70
    32
  0
VERTEX
  8
0
  5
14EE2
 10
48.4974
 20
162.962
 30
0.000000
  70
    32
  0
VERTEX
  8
0
  5
14EE3
 10
48.4947
 20
162.960
 30
0.000000
  70
    32
  0
VERTEX
  8
0
  5
14EE4
 10
48.4919
 20
162.958
 30
0.000000
  70
    32
  0
VERTEX
  8
0
  5
14EE5
 10
48.4892
 20
162.956
 30
0.000000
  70
    32
  0
VERTEX
  8
0
  5
14EE6
 10
48.4865
 20
162.954
 30
0.000000
  70
    32
  0
VERTEX
  8
0
  5
14EE7
 10
48.4839
 20
162.951
 30
0.000000
  70
    32
  0
VERTEX
  8
0
  5
14EE8
 10
48.4813
 20
162.949
 30
0.000000
  70
    32
  0
VERTEX
  8
0
  5
14EE9
 10
48.4787
 20
162.947
 30
0.000000
  70
    32
  0
VERTEX
  8
0
  5
14EEA
 10
48.4761
 20
162.945
 30
0.000000
  70
    32
  0
VERTEX
  8
0
  5
14EEB
 10
48.4736
 20
162.943
 30
0.000000
  70
    32
  0
VERTEX
  8
0
  5
14EEC
 10
48.4710
 20
162.940
 30
0.000000
  70
    32
  0
VERTEX
  8
0
  5
14EED
 10
48.4685
 20
162.938
 30
0.000000
  70
    32
  0
VERTEX
  8
0
  5
14EEE
 10
48.4661
 20
162.936
 30
0.000000
  70
    32
  0
VERTEX
  8
0
  5
14EEF
 10
48.4636
 20
162.934
 30
0.000000
  70
    32
  0
VERTEX
  8
0
  5
14EF0
 10
48.4612
 20
162.932
 30
0.000000
  70
    32
  0
VERTEX
  8
0
  5
14EF1
 10
48.4588
 20
162.929
 30
0.000000
  70
    32
  0
VERTEX
  8
0
  5
14EF2
 10
48.4565
 20
162.927
 30
0.000000
  70
    32
  0
VERTEX
  8
0
  5
14EF3
 10
48.4542
 20
162.925
 30
0.000000
  70
    32
  0
VERTEX
  8
0
  5
14EF4
 10
48.4519
 20
162.923
 30
0.000000
  70
    32
  0
VERTEX
  8
0
  5
14EF5
 10
48.4496
 20
162.920
 30
0.000000
  70
    32
  0
VERTEX
  8
0
  5
14EF6
 10
48.4473
 20
162.918
 30
0.000000
  70
    32
  0
VERTEX
  8
0
  5
14EF7
 10
48.4451
 20
162.916
 30
0.000000
  70
    32
  0
VERTEX
  8
0
  5
14EF8
 10
48.4429
 20
162.914
 30
0.000000
  70
    32
  0
VERTEX
  8
0
  5
14EF9
 10
48.4407
 20
162.911
 30
0.000000
  70
    32
  0
VERTEX
  8
0
  5
14EFA
 10
48.4386
 20
162.909
 30
0.000000
  70
    32
  0
VERTEX
  8
0
  5
14EFB
 10
48.4365
 20
162.907
 30
0.000000
  70
    32
  0
VERTEX
  8
0
  5
14EFC
 10
48.4344
 20
162.905
 30
0.000000
  70
    32
  0
VERTEX
  8
0
  5
14EFD
 10
48.4323
 20
162.903
 30
0.000000
  70
    32
  0
VERTEX
  8
0
  5
14EFE
 10
48.4303
 20
162.900
 30
0.000000
  70
    32
  0
VERTEX
  8
0
  5
14EFF
 10
48.4283
 20
162.898
 30
0.000000
  70
    32
  0
VERTEX
  8
0
  5
14F00
 10
48.4263
 20
162.896
 30
0.000000
  70
    32
  0
VERTEX
  8
0
  5
14F01
 10
48.4244
 20
162.894
 30
0.000000
  70
    32
  0
VERTEX
  8
0
  5
14F02
 10
48.4224
 20
162.891
 30
0.000000
  70
    32
  0
VERTEX
  8
0
  5
14F03
 10
48.4205
 20
162.889
 30
0.000000
  70
    32
  0
VERTEX
  8
0
  5
14F04
 10
48.4187
 20
162.887
 30
0.000000
  70
    32
  0
VERTEX
  8
0
  5
14F05
 10
48.4168
 20
162.885
 30
0.000000
  70
    32
  0
VERTEX
  8
0
  5
14F06
 10
48.4150
 20
162.882
 30
0.000000
  70
    32
  0
VERTEX
  8
0
  5
14F07
 10
48.4132
 20
162.880
 30
0.000000
  70
    32
  0
VERTEX
  8
0
  5
14F08
 10
48.4115
 20
162.878
 30
0.000000
  70
    32
  0
VERTEX
  8
0
  5
14F09
 10
48.4097
 20
162.876
 30
0.000000
  70
    32
  0
VERTEX
  8
0
  5
14F0A
 10
48.4080
 20
162.873
 30
0.000000
  70
    32
  0
VERTEX
  8
0
  5
14F0B
 10
48.4063
 20
162.871
 30
0.000000
  70
    32
  0
VERTEX
  8
0
  5
14F0C
 10
48.4047
 20
162.869
 30
0.000000
  70
    32
  0
VERTEX
  8
0
  5
14F0D
 10
48.4031
 20
162.866
 30
0.000000
  70
    32
  0
VERTEX
  8
0
  5
14F0E
 10
48.4015
 20
162.864
 30
0.000000
  70
    32
  0
VERTEX
  8
0
  5
14F0F
 10
48.3999
 20
162.862
 30
0.000000
  70
    32
  0
VERTEX
  8
0
  5
14F10
 10
48.3983
 20
162.860
 30
0.000000
  70
    32
  0
VERTEX
  8
0
  5
14F11
 10
48.3968
 20
162.857
 30
0.000000
  70
    32
  0
VERTEX
  8
0
  5
14F12
 10
48.3953
 20
162.855
 30
0.000000
  70
    32
  0
VERTEX
  8
0
  5
14F13
 10
48.3939
 20
162.853
 30
0.000000
  70
    32
  0
VERTEX
  8
0
  5
14F14
 10
48.3924
 20
162.851
 30
0.000000
  70
    32
  0
VERTEX
  8
0
  5
14F15
 10
48.3910
 20
162.848
 30
0.000000
  70
    32
  0
VERTEX
  8
0
  5
14F16
 10
48.3897
 20
162.846
 30
0.000000
  70
    32
  0
VERTEX
  8
0
  5
14F17
 10
48.3883
 20
162.844
 30
0.000000
  70
    32
  0
VERTEX
  8
0
  5
14F18
 10
48.3870
 20
162.841
 30
0.000000
  70
    32
  0
VERTEX
  8
0
  5
14F19
 10
48.3857
 20
162.839
 30
0.000000
  70
    32
  0
VERTEX
  8
0
  5
14F1A
 10
48.3844
 20
162.837
 30
0.000000
  70
    32
  0
VERTEX
  8
0
  5
14F1B
 10
48.3832
 20
162.835
 30
0.000000
  70
    32
  0
VERTEX
  8
0
  5
14F1C
 10
48.3820
 20
162.832
 30
0.000000
  70
    32
  0
VERTEX
  8
0
  5
14F1D
 10
48.3808
 20
162.830
 30
0.000000
  70
    32
  0
VERTEX
  8
0
  5
14F1E
 10
48.3796
 20
162.828
 30
0.000000
  70
    32
  0
VERTEX
  8
0
  5
14F1F
 10
48.3785
 20
162.825
 30
0.000000
  70
    32
  0
VERTEX
  8
0
  5
14F20
 10
48.3774
 20
162.823
 30
0.000000
  70
    32
  0
VERTEX
  8
0
  5
14F21
 10
48.3763
 20
162.821
 30
0.000000
  70
    32
  0
VERTEX
  8
0
  5
14F22
 10
48.3753
 20
162.819
 30
0.000000
  70
    32
  0
VERTEX
  8
0
  5
14F23
 10
48.3743
 20
162.816
 30
0.000000
  70
    32
  0
VERTEX
  8
0
  5
14F24
 10
48.3733
 20
162.814
 30
0.000000
  70
    32
  0
VERTEX
  8
0
  5
14F25
 10
48.3723
 20
162.812
 30
0.000000
  70
    32
  0
VERTEX
  8
0
  5
14F26
 10
48.3714
 20
162.809
 30
0.000000
  70
    32
  0
VERTEX
  8
0
  5
14F27
 10
48.3705
 20
162.807
 30
0.000000
  70
    32
  0
VERTEX
  8
0
  5
14F28
 10
48.3696
 20
162.805
 30
0.000000
  70
    32
  0
VERTEX
  8
0
  5
14F29
 10
48.3687
 20
162.803
 30
0.000000
  70
    32
  0
VERTEX
  8
0
  5
14F2A
 10
48.3679
 20
162.800
 30
0.000000
  70
    32
  0
VERTEX
  8
0
  5
14F2B
 10
48.3671
 20
162.798
 30
0.000000
  70
    32
  0
VERTEX
  8
0
  5
14F2C
 10
48.3664
 20
162.796
 30
0.000000
  70
    32
  0
VERTEX
  8
0
  5
14F2D
 10
48.3656
 20
162.793
 30
0.000000
  70
    32
  0
VERTEX
  8
0
  5
14F2E
 10
48.3649
 20
162.791
 30
0.000000
  70
    32
  0
VERTEX
  8
0
  5
14F2F
 10
48.3642
 20
162.789
 30
0.000000
  70
    32
  0
VERTEX
  8
0
  5
14F30
 10
48.3636
 20
162.786
 30
0.000000
  70
    32
  0
VERTEX
  8
0
  5
14F31
 10
48.3629
 20
162.784
 30
0.000000
  70
    32
  0
VERTEX
  8
0
  5
14F32
 10
48.3623
 20
162.782
 30
0.000000
  70
    32
  0
VERTEX
  8
0
  5
14F33
 10
48.3618
 20
162.779
 30
0.000000
  70
    32
  0
VERTEX
  8
0
  5
14F34
 10
48.3612
 20
162.777
 30
0.000000
  70
    32
  0
VERTEX
  8
0
  5
14F35
 10
48.3607
 20
162.775
 30
0.000000
  70
    32
  0
VERTEX
  8
0
  5
14F36
 10
48.3602
 20
162.773
 30
0.000000
  70
    32
  0
VERTEX
  8
0
  5
14F37
 10
48.3598
 20
162.770
 30
0.000000
  70
    32
  0
VERTEX
  8
0
  5
14F38
 10
48.3593
 20
162.768
 30
0.000000
  70
    32
  0
VERTEX
  8
0
  5
14F39
 10
48.3589
 20
162.766
 30
0.000000
  70
    32
  0
VERTEX
  8
0
  5
14F3A
 10
48.3585
 20
162.763
 30
0.000000
  70
    32
  0
VERTEX
  8
0
  5
14F3B
 10
48.3582
 20
162.761
 30
0.000000
  70
    32
  0
VERTEX
  8
0
  5
14F3C
 10
48.3579
 20
162.759
 30
0.000000
  70
    32
  0
VERTEX
  8
0
  5
14F3D
 10
48.3576
 20
162.756
 30
0.000000
  70
    32
  0
VERTEX
  8
0
  5
14F3E
 10
48.3573
 20
162.754
 30
0.000000
  70
    32
  0
VERTEX
  8
0
  5
14F3F
 10
48.3571
 20
162.752
 30
0.000000
  70
    32
  0
VERTEX
  8
0
  5
14F40
 10
48.3569
 20
162.749
 30
0.000000
  70
    32
  0
VERTEX
  8
0
  5
14F41
 10
48.3567
 20
162.747
 30
0.000000
  70
    32
  0
VERTEX
  8
0
  5
14F42
 10
48.3565
 20
162.745
 30
0.000000
  70
    32
  0
VERTEX
  8
0
  5
14F43
 10
48.3564
 20
162.743
 30
0.000000
  70
    32
  0
VERTEX
  8
0
  5
14F44
 10
48.3563
 20
162.740
 30
0.000000
  70
    32
  0
VERTEX
  8
0
  5
14F45
 10
48.3562
 20
162.738
 30
0.000000
  70
    32
  0
VERTEX
  8
0
  5
14F46
 10
48.3562
 20
162.736
 30
0.000000
  70
    32
  0
VERTEX
  8
0
  5
14F47
 10
48.3562
 20
162.733
 30
0.000000
  70
    32
  0
SEQEND
  8
0
  5
14F48
  0
LINE
  5
1444C
  8
0
 10
45.856176093456348
 20
162.73330427716519
 30
0.0
 11
45.856176093456348
 21
142.34073805016709
 31
0.0
  0
LINE
  5
1444D
  8
0
 10
48.356176093456362
 20
140.54073805011831
 30
0.0
 11
48.356176093456362
 21
162.73330427716519
 31
0.0
  0
LINE
  5
1444E
  8
0
 10
48.506176093456332
 20
143.55073805016721
 30
0.0
 11
48.356176093456362
 21
143.55073805016721
 31
0.0
  0
LINE
  5
1444F
  8
0
 10
60.856176093456362
 20
143.55073805016721
 30
0.0
 11
60.706176093456378
 21
143.55073805016721
 31
0.0
  0
LINE
  5
14450
  8
0
 10
52.276065864227199
 20
165.2580609374368
 30
0.0
 11
54.005084612003849
 21
167.44600945445561
 31
0.0
  0
LINE
  5
14451
  8
0
 10
55.207267574908848
 20
167.44600945445561
 30
0.0
 11
56.936286322685497
 21
165.25806093743699
 31
0.0
  0
POLYLINE
  5
14452
  8
0
 10
51.823358225932566
 20
168.03601773747943
 30
0.0
 66
     1
 70
     8
  0
VERTEX
  8
0
  5
14F49
 10
51.8234
 20
168.036
 30
0.000000
  70
    32
  0
VERTEX
  8
0
  5
14F4A
 10
51.8269
 20
168.040
 30
0.000000
  70
    32
  0
VERTEX
  8
0
  5
14F4B
 10
51.8305
 20
168.045
 30
0.000000
  70
    32
  0
VERTEX
  8
0
  5
14F4C
 10
51.8340
 20
168.049
 30
0.000000
  70
    32
  0
VERTEX
  8
0
  5
14F4D
 10
51.8375
 20
168.054
 30
0.000000
  70
    32
  0
VERTEX
  8
0
  5
14F4E
 10
51.8409
 20
168.058
 30
0.000000
  70
    32
  0
VERTEX
  8
0
  5
14F4F
 10
51.8444
 20
168.063
 30
0.000000
  70
    32
  0
VERTEX
  8
0
  5
14F50
 10
51.8478
 20
168.067
 30
0.000000
  70
    32
  0
VERTEX
  8
0
  5
14F51
 10
51.8512
 20
168.072
 30
0.000000
  70
    32
  0
VERTEX
  8
0
  5
14F52
 10
51.8545
 20
168.076
 30
0.000000
  70
    32
  0
VERTEX
  8
0
  5
14F53
 10
51.8578
 20
168.081
 30
0.000000
  70
    32
  0
VERTEX
  8
0
  5
14F54
 10
51.8611
 20
168.085
 30
0.000000
  70
    32
  0
VERTEX
  8
0
  5
14F55
 10
51.8644
 20
168.090
 30
0.000000
  70
    32
  0
VERTEX
  8
0
  5
14F56
 10
51.8677
 20
168.094
 30
0.000000
  70
    32
  0
VERTEX
  8
0
  5
14F57
 10
51.8709
 20
168.099
 30
0.000000
  70
    32
  0
VERTEX
  8
0
  5
14F58
 10
51.8741
 20
168.104
 30
0.000000
  70
    32
  0
VERTEX
  8
0
  5
14F59
 10
51.8773
 20
168.108
 30
0.000000
  70
    32
  0
VERTEX
  8
0
  5
14F5A
 10
51.8804
 20
168.113
 30
0.000000
  70
    32
  0
VERTEX
  8
0
  5
14F5B
 10
51.8835
 20
168.117
 30
0.000000
  70
    32
  0
VERTEX
  8
0
  5
14F5C
 10
51.8866
 20
168.122
 30
0.000000
  70
    32
  0
VERTEX
  8
0
  5
14F5D
 10
51.8897
 20
168.126
 30
0.000000
  70
    32
  0
VERTEX
  8
0
  5
14F5E
 10
51.8927
 20
168.131
 30
0.000000
  70
    32
  0
VERTEX
  8
0
  5
14F5F
 10
51.8957
 20
168.135
 30
0.000000
  70
    32
  0
VERTEX
  8
0
  5
14F60
 10
51.8987
 20
168.140
 30
0.000000
  70
    32
  0
VERTEX
  8
0
  5
14F61
 10
51.9017
 20
168.145
 30
0.000000
  70
    32
  0
VERTEX
  8
0
  5
14F62
 10
51.9046
 20
168.149
 30
0.000000
  70
    32
  0
VERTEX
  8
0
  5
14F63
 10
51.9075
 20
168.154
 30
0.000000
  70
    32
  0
VERTEX
  8
0
  5
14F64
 10
51.9104
 20
168.159
 30
0.000000
  70
    32
  0
VERTEX
  8
0
  5
14F65
 10
51.9132
 20
168.163
 30
0.000000
  70
    32
  0
VERTEX
  8
0
  5
14F66
 10
51.9160
 20
168.168
 30
0.000000
  70
    32
  0
VERTEX
  8
0
  5
14F67
 10
51.9188
 20
168.172
 30
0.000000
  70
    32
  0
VERTEX
  8
0
  5
14F68
 10
51.9216
 20
168.177
 30
0.000000
  70
    32
  0
VERTEX
  8
0
  5
14F69
 10
51.9243
 20
168.182
 30
0.000000
  70
    32
  0
VERTEX
  8
0
  5
14F6A
 10
51.9270
 20
168.186
 30
0.000000
  70
    32
  0
VERTEX
  8
0
  5
14F6B
 10
51.9297
 20
168.191
 30
0.000000
  70
    32
  0
VERTEX
  8
0
  5
14F6C
 10
51.9324
 20
168.196
 30
0.000000
  70
    32
  0
VERTEX
  8
0
  5
14F6D
 10
51.9350
 20
168.200
 30
0.000000
  70
    32
  0
VERTEX
  8
0
  5
14F6E
 10
51.9376
 20
168.205
 30
0.000000
  70
    32
  0
VERTEX
  8
0
  5
14F6F
 10
51.9402
 20
168.210
 30
0.000000
  70
    32
  0
VERTEX
  8
0
  5
14F70
 10
51.9427
 20
168.214
 30
0.000000
  70
    32
  0
VERTEX
  8
0
  5
14F71
 10
51.9452
 20
168.219
 30
0.000000
  70
    32
  0
VERTEX
  8
0
  5
14F72
 10
51.9477
 20
168.224
 30
0.000000
  70
    32
  0
VERTEX
  8
0
  5
14F73
 10
51.9502
 20
168.228
 30
0.000000
  70
    32
  0
VERTEX
  8
0
  5
14F74
 10
51.9526
 20
168.233
 30
0.000000
  70
    32
  0
VERTEX
  8
0
  5
14F75
 10
51.9550
 20
168.238
 30
0.000000
  70
    32
  0
VERTEX
  8
0
  5
14F76
 10
51.9574
 20
168.243
 30
0.000000
  70
    32
  0
VERTEX
  8
0
  5
14F77
 10
51.9597
 20
168.247
 30
0.000000
  70
    32
  0
VERTEX
  8
0
  5
14F78
 10
51.9621
 20
168.252
 30
0.000000
  70
    32
  0
VERTEX
  8
0
  5
14F79
 10
51.9644
 20
168.257
 30
0.000000
  70
    32
  0
VERTEX
  8
0
  5
14F7A
 10
51.9666
 20
168.261
 30
0.000000
  70
    32
  0
VERTEX
  8
0
  5
14F7B
 10
51.9689
 20
168.266
 30
0.000000
  70
    32
  0
VERTEX
  8
0
  5
14F7C
 10
51.9711
 20
168.271
 30
0.000000
  70
    32
  0
VERTEX
  8
0
  5
14F7D
 10
51.9733
 20
168.276
 30
0.000000
  70
    32
  0
VERTEX
  8
0
  5
14F7E
 10
51.9754
 20
168.280
 30
0.000000
  70
    32
  0
VERTEX
  8
0
  5
14F7F
 10
51.9775
 20
168.285
 30
0.000000
  70
    32
  0
VERTEX
  8
0
  5
14F80
 10
51.9796
 20
168.290
 30
0.000000
  70
    32
  0
VERTEX
  8
0
  5
14F81
 10
51.9817
 20
168.295
 30
0.000000
  70
    32
  0
VERTEX
  8
0
  5
14F82
 10
51.9838
 20
168.299
 30
0.000000
  70
    32
  0
VERTEX
  8
0
  5
14F83
 10
51.9858
 20
168.304
 30
0.000000
  70
    32
  0
VERTEX
  8
0
  5
14F84
 10
51.9878
 20
168.309
 30
0.000000
  70
    32
  0
VERTEX
  8
0
  5
14F85
 10
51.9897
 20
168.314
 30
0.000000
  70
    32
  0
VERTEX
  8
0
  5
14F86
 10
51.9917
 20
168.318
 30
0.000000
  70
    32
  0
VERTEX
  8
0
  5
14F87
 10
51.9936
 20
168.323
 30
0.000000
  70
    32
  0
VERTEX
  8
0
  5
14F88
 10
51.9954
 20
168.328
 30
0.000000
  70
    32
  0
VERTEX
  8
0
  5
14F89
 10
51.9973
 20
168.333
 30
0.000000
  70
    32
  0
VERTEX
  8
0
  5
14F8A
 10
51.9991
 20
168.338
 30
0.000000
  70
    32
  0
VERTEX
  8
0
  5
14F8B
 10
52.0009
 20
168.342
 30
0.000000
  70
    32
  0
VERTEX
  8
0
  5
14F8C
 10
52.0027
 20
168.347
 30
0.000000
  70
    32
  0
VERTEX
  8
0
  5
14F8D
 10
52.0044
 20
168.352
 30
0.000000
  70
    32
  0
VERTEX
  8
0
  5
14F8E
 10
52.0061
 20
168.357
 30
0.000000
  70
    32
  0
VERTEX
  8
0
  5
14F8F
 10
52.0078
 20
168.362
 30
0.000000
  70
    32
  0
VERTEX
  8
0
  5
14F90
 10
52.0094
 20
168.366
 30
0.000000
  70
    32
  0
VERTEX
  8
0
  5
14F91
 10
52.0110
 20
168.371
 30
0.000000
  70
    32
  0
VERTEX
  8
0
  5
14F92
 10
52.0126
 20
168.376
 30
0.000000
  70
    32
  0
VERTEX
  8
0
  5
14F93
 10
52.0142
 20
168.381
 30
0.000000
  70
    32
  0
VERTEX
  8
0
  5
14F94
 10
52.0157
 20
168.386
 30
0.000000
  70
    32
  0
VERTEX
  8
0
  5
14F95
 10
52.0172
 20
168.391
 30
0.000000
  70
    32
  0
VERTEX
  8
0
  5
14F96
 10
52.0187
 20
168.395
 30
0.000000
  70
    32
  0
VERTEX
  8
0
  5
14F97
 10
52.0202
 20
168.400
 30
0.000000
  70
    32
  0
VERTEX
  8
0
  5
14F98
 10
52.0216
 20
168.405
 30
0.000000
  70
    32
  0
VERTEX
  8
0
  5
14F99
 10
52.0230
 20
168.410
 30
0.000000
  70
    32
  0
VERTEX
  8
0
  5
14F9A
 10
52.0244
 20
168.415
 30
0.000000
  70
    32
  0
VERTEX
  8
0
  5
14F9B
 10
52.0257
 20
168.420
 30
0.000000
  70
    32
  0
VERTEX
  8
0
  5
14F9C
 10
52.0270
 20
168.424
 30
0.000000
  70
    32
  0
VERTEX
  8
0
  5
14F9D
 10
52.0283
 20
168.429
 30
0.000000
  70
    32
  0
VERTEX
  8
0
  5
14F9E
 10
52.0295
 20
168.434
 30
0.000000
  70
    32
  0
VERTEX
  8
0
  5
14F9F
 10
52.0308
 20
168.439
 30
0.000000
  70
    32
  0
VERTEX
  8
0
  5
14FA0
 10
52.0319
 20
168.444
 30
0.000000
  70
    32
  0
VERTEX
  8
0
  5
14FA1
 10
52.0331
 20
168.449
 30
0.000000
  70
    32
  0
VERTEX
  8
0
  5
14FA2
 10
52.0343
 20
168.454
 30
0.000000
  70
    32
  0
VERTEX
  8
0
  5
14FA3
 10
52.0354
 20
168.458
 30
0.000000
  70
    32
  0
VERTEX
  8
0
  5
14FA4
 10
52.0364
 20
168.463
 30
0.000000
  70
    32
  0
VERTEX
  8
0
  5
14FA5
 10
52.0375
 20
168.468
 30
0.000000
  70
    32
  0
VERTEX
  8
0
  5
14FA6
 10
52.0385
 20
168.473
 30
0.000000
  70
    32
  0
VERTEX
  8
0
  5
14FA7
 10
52.0395
 20
168.478
 30
0.000000
  70
    32
  0
VERTEX
  8
0
  5
14FA8
 10
52.0405
 20
168.483
 30
0.000000
  70
    32
  0
VERTEX
  8
0
  5
14FA9
 10
52.0414
 20
168.488
 30
0.000000
  70
    32
  0
VERTEX
  8
0
  5
14FAA
 10
52.0423
 20
168.492
 30
0.000000
  70
    32
  0
VERTEX
  8
0
  5
14FAB
 10
52.0432
 20
168.497
 30
0.000000
  70
    32
  0
VERTEX
  8
0
  5
14FAC
 10
52.0440
 20
168.502
 30
0.000000
  70
    32
  0
VERTEX
  8
0
  5
14FAD
 10
52.0449
 20
168.507
 30
0.000000
  70
    32
  0
VERTEX
  8
0
  5
14FAE
 10
52.0457
 20
168.512
 30
0.000000
  70
    32
  0
VERTEX
  8
0
  5
14FAF
 10
52.0464
 20
168.517
 30
0.000000
  70
    32
  0
VERTEX
  8
0
  5
14FB0
 10
52.0472
 20
168.522
 30
0.000000
  70
    32
  0
VERTEX
  8
0
  5
14FB1
 10
52.0479
 20
168.527
 30
0.000000
  70
    32
  0
VERTEX
  8
0
  5
14FB2
 10
52.0485
 20
168.532
 30
0.000000
  70
    32
  0
VERTEX
  8
0
  5
14FB3
 10
52.0492
 20
168.536
 30
0.000000
  70
    32
  0
VERTEX
  8
0
  5
14FB4
 10
52.0498
 20
168.541
 30
0.000000
  70
    32
  0
VERTEX
  8
0
  5
14FB5
 10
52.0504
 20
168.546
 30
0.000000
  70
    32
  0
VERTEX
  8
0
  5
14FB6
 10
52.0510
 20
168.551
 30
0.000000
  70
    32
  0
VERTEX
  8
0
  5
14FB7
 10
52.0515
 20
168.556
 30
0.000000
  70
    32
  0
VERTEX
  8
0
  5
14FB8
 10
52.0520
 20
168.561
 30
0.000000
  70
    32
  0
VERTEX
  8
0
  5
14FB9
 10
52.0525
 20
168.566
 30
0.000000
  70
    32
  0
VERTEX
  8
0
  5
14FBA
 10
52.0529
 20
168.571
 30
0.000000
  70
    32
  0
VERTEX
  8
0
  5
14FBB
 10
52.0533
 20
168.576
 30
0.000000
  70
    32
  0
VERTEX
  8
0
  5
14FBC
 10
52.0537
 20
168.581
 30
0.000000
  70
    32
  0
VERTEX
  8
0
  5
14FBD
 10
52.0541
 20
168.585
 30
0.000000
  70
    32
  0
VERTEX
  8
0
  5
14FBE
 10
52.0544
 20
168.590
 30
0.000000
  70
    32
  0
VERTEX
  8
0
  5
14FBF
 10
52.0547
 20
168.595
 30
0.000000
  70
    32
  0
VERTEX
  8
0
  5
14FC0
 10
52.0550
 20
168.600
 30
0.000000
  70
    32
  0
VERTEX
  8
0
  5
14FC1
 10
52.0553
 20
168.605
 30
0.000000
  70
    32
  0
VERTEX
  8
0
  5
14FC2
 10
52.0555
 20
168.610
 30
0.000000
  70
    32
  0
VERTEX
  8
0
  5
14FC3
 10
52.0557
 20
168.615
 30
0.000000
  70
    32
  0
VERTEX
  8
0
  5
14FC4
 10
52.0558
 20
168.620
 30
0.000000
  70
    32
  0
VERTEX
  8
0
  5
14FC5
 10
52.0559
 20
168.625
 30
0.000000
  70
    32
  0
VERTEX
  8
0
  5
14FC6
 10
52.0560
 20
168.630
 30
0.000000
  70
    32
  0
VERTEX
  8
0
  5
14FC7
 10
52.0561
 20
168.634
 30
0.000000
  70
    32
  0
VERTEX
  8
0
  5
14FC8
 10
52.0562
 20
168.639
 30
0.000000
  70
    32
  0
VERTEX
  8
0
  5
14FC9
 10
52.0562
 20
168.644
 30
0.000000
  70
    32
  0
SEQEND
  8
0
  5
14FCA
  0
LINE
  5
14453
  8
0
 10
52.056176093456337
 20
172.40073805016701
 30
0.0
 11
52.056176093456337
 21
168.6442625287109
 31
0.0
  0
LINE
  5
14455
  8
0
 10
57.156176093456367
 20
168.6442625287109
 30
0.0
 11
57.156176093456338
 21
172.40073805016701
 31
0.0
  0
POLYLINE
  5
14456
  8
0
 10
57.156176093456345
 20
168.6442625287109
 30
0.0
 66
     1
 70
     8
  0
VERTEX
  8
0
  5
14FCB
 10
57.1562
 20
168.644
 30
0.000000
  70
    32
  0
VERTEX
  8
0
  5
14FCC
 10
57.1562
 20
168.639
 30
0.000000
  70
    32
  0
VERTEX
  8
0
  5
14FCD
 10
57.1562
 20
168.634
 30
0.000000
  70
    32
  0
VERTEX
  8
0
  5
14FCE
 10
57.1563
 20
168.630
 30
0.000000
  70
    32
  0
VERTEX
  8
0
  5
14FCF
 10
57.1564
 20
168.625
 30
0.000000
  70
    32
  0
VERTEX
  8
0
  5
14FD0
 10
57.1565
 20
168.620
 30
0.000000
  70
    32
  0
VERTEX
  8
0
  5
14FD1
 10
57.1567
 20
168.615
 30
0.000000
  70
    32
  0
VERTEX
  8
0
  5
14FD2
 10
57.1569
 20
168.610
 30
0.000000
  70
    32
  0
VERTEX
  8
0
  5
14FD3
 10
57.1571
 20
168.605
 30
0.000000
  70
    32
  0
VERTEX
  8
0
  5
14FD4
 10
57.1573
 20
168.600
 30
0.000000
  70
    32
  0
VERTEX
  8
0
  5
14FD5
 10
57.1576
 20
168.595
 30
0.000000
  70
    32
  0
VERTEX
  8
0
  5
14FD6
 10
57.1579
 20
168.590
 30
0.000000
  70
    32
  0
VERTEX
  8
0
  5
14FD7
 10
57.1583
 20
168.585
 30
0.000000
  70
    32
  0
VERTEX
  8
0
  5
14FD8
 10
57.1586
 20
168.581
 30
0.000000
  70
    32
  0
VERTEX
  8
0
  5
14FD9
 10
57.1590
 20
168.576
 30
0.000000
  70
    32
  0
VERTEX
  8
0
  5
14FDA
 10
57.1594
 20
168.571
 30
0.000000
  70
    32
  0
VERTEX
  8
0
  5
14FDB
 10
57.1599
 20
168.566
 30
0.000000
  70
    32
  0
VERTEX
  8
0
  5
14FDC
 10
57.1603
 20
168.561
 30
0.000000
  70
    32
  0
VERTEX
  8
0
  5
14FDD
 10
57.1609
 20
168.556
 30
0.000000
  70
    32
  0
VERTEX
  8
0
  5
14FDE
 10
57.1614
 20
168.551
 30
0.000000
  70
    32
  0
VERTEX
  8
0
  5
14FDF
 10
57.1619
 20
168.546
 30
0.000000
  70
    32
  0
VERTEX
  8
0
  5
14FE0
 10
57.1625
 20
168.541
 30
0.000000
  70
    32
  0
VERTEX
  8
0
  5
14FE1
 10
57.1632
 20
168.536
 30
0.000000
  70
    32
  0
VERTEX
  8
0
  5
14FE2
 10
57.1638
 20
168.532
 30
0.000000
  70
    32
  0
VERTEX
  8
0
  5
14FE3
 10
57.1645
 20
168.527
 30
0.000000
  70
    32
  0
VERTEX
  8
0
  5
14FE4
 10
57.1652
 20
168.522
 30
0.000000
  70
    32
  0
VERTEX
  8
0
  5
14FE5
 10
57.1659
 20
168.517
 30
0.000000
  70
    32
  0
VERTEX
  8
0
  5
14FE6
 10
57.1667
 20
168.512
 30
0.000000
  70
    32
  0
VERTEX
  8
0
  5
14FE7
 10
57.1675
 20
168.507
 30
0.000000
  70
    32
  0
VERTEX
  8
0
  5
14FE8
 10
57.1683
 20
168.502
 30
0.000000
  70
    32
  0
VERTEX
  8
0
  5
14FE9
 10
57.1692
 20
168.497
 30
0.000000
  70
    32
  0
VERTEX
  8
0
  5
14FEA
 10
57.1700
 20
168.492
 30
0.000000
  70
    32
  0
VERTEX
  8
0
  5
14FEB
 10
57.1709
 20
168.488
 30
0.000000
  70
    32
  0
VERTEX
  8
0
  5
14FEC
 10
57.1719
 20
168.483
 30
0.000000
  70
    32
  0
VERTEX
  8
0
  5
14FED
 10
57.1728
 20
168.478
 30
0.000000
  70
    32
  0
VERTEX
  8
0
  5
14FEE
 10
57.1738
 20
168.473
 30
0.000000
  70
    32
  0
VERTEX
  8
0
  5
14FEF
 10
57.1749
 20
168.468
 30
0.000000
  70
    32
  0
VERTEX
  8
0
  5
14FF0
 10
57.1759
 20
168.463
 30
0.000000
  70
    32
  0
VERTEX
  8
0
  5
14FF1
 10
57.1770
 20
168.458
 30
0.000000
  70
    32
  0
VERTEX
  8
0
  5
14FF2
 10
57.1781
 20
168.454
 30
0.000000
  70
    32
  0
VERTEX
  8
0
  5
14FF3
 10
57.1792
 20
168.449
 30
0.000000
  70
    32
  0
VERTEX
  8
0
  5
14FF4
 10
57.1804
 20
168.444
 30
0.000000
  70
    32
  0
VERTEX
  8
0
  5
14FF5
 10
57.1816
 20
168.439
 30
0.000000
  70
    32
  0
VERTEX
  8
0
  5
14FF6
 10
57.1828
 20
168.434
 30
0.000000
  70
    32
  0
VERTEX
  8
0
  5
14FF7
 10
57.1841
 20
168.429
 30
0.000000
  70
    32
  0
VERTEX
  8
0
  5
14FF8
 10
57.1854
 20
168.424
 30
0.000000
  70
    32
  0
VERTEX
  8
0
  5
14FF9
 10
57.1867
 20
168.420
 30
0.000000
  70
    32
  0
VERTEX
  8
0
  5
14FFA
 10
57.1880
 20
168.415
 30
0.000000
  70
    32
  0
VERTEX
  8
0
  5
14FFB
 10
57.1894
 20
168.410
 30
0.000000
  70
    32
  0
VERTEX
  8
0
  5
14FFC
 10
57.1908
 20
168.405
 30
0.000000
  70
    32
  0
VERTEX
  8
0
  5
14FFD
 10
57.1922
 20
168.400
 30
0.000000
  70
    32
  0
VERTEX
  8
0
  5
14FFE
 10
57.1936
 20
168.395
 30
0.000000
  70
    32
  0
VERTEX
  8
0
  5
14FFF
 10
57.1951
 20
168.391
 30
0.000000
  70
    32
  0
VERTEX
  8
0
  5
15000
 10
57.1966
 20
168.386
 30
0.000000
  70
    32
  0
VERTEX
  8
0
  5
15001
 10
57.1982
 20
168.381
 30
0.000000
  70
    32
  0
VERTEX
  8
0
  5
15002
 10
57.1997
 20
168.376
 30
0.000000
  70
    32
  0
VERTEX
  8
0
  5
15003
 10
57.2013
 20
168.371
 30
0.000000
  70
    32
  0
VERTEX
  8
0
  5
15004
 10
57.2029
 20
168.366
 30
0.000000
  70
    32
  0
VERTEX
  8
0
  5
15005
 10
57.2046
 20
168.362
 30
0.000000
  70
    32
  0
VERTEX
  8
0
  5
15006
 10
57.2063
 20
168.357
 30
0.000000
  70
    32
  0
VERTEX
  8
0
  5
15007
 10
57.2080
 20
168.352
 30
0.000000
  70
    32
  0
VERTEX
  8
0
  5
15008
 10
57.2097
 20
168.347
 30
0.000000
  70
    32
  0
VERTEX
  8
0
  5
15009
 10
57.2115
 20
168.342
 30
0.000000
  70
    32
  0
VERTEX
  8
0
  5
1500A
 10
57.2133
 20
168.338
 30
0.000000
  70
    32
  0
VERTEX
  8
0
  5
1500B
 10
57.2151
 20
168.333
 30
0.000000
  70
    32
  0
VERTEX
  8
0
  5
1500C
 10
57.2169
 20
168.328
 30
0.000000
  70
    32
  0
VERTEX
  8
0
  5
1500D
 10
57.2188
 20
168.323
 30
0.000000
  70
    32
  0
VERTEX
  8
0
  5
1500E
 10
57.2207
 20
168.318
 30
0.000000
  70
    32
  0
VERTEX
  8
0
  5
1500F
 10
57.2226
 20
168.314
 30
0.000000
  70
    32
  0
VERTEX
  8
0
  5
15010
 10
57.2246
 20
168.309
 30
0.000000
  70
    32
  0
VERTEX
  8
0
  5
15011
 10
57.2266
 20
168.304
 30
0.000000
  70
    32
  0
VERTEX
  8
0
  5
15012
 10
57.2286
 20
168.299
 30
0.000000
  70
    32
  0
VERTEX
  8
0
  5
15013
 10
57.2306
 20
168.295
 30
0.000000
  70
    32
  0
VERTEX
  8
0
  5
15014
 10
57.2327
 20
168.290
 30
0.000000
  70
    32
  0
VERTEX
  8
0
  5
15015
 10
57.2348
 20
168.285
 30
0.000000
  70
    32
  0
VERTEX
  8
0
  5
15016
 10
57.2369
 20
168.280
 30
0.000000
  70
    32
  0
VERTEX
  8
0
  5
15017
 10
57.2391
 20
168.276
 30
0.000000
  70
    32
  0
VERTEX
  8
0
  5
15018
 10
57.2413
 20
168.271
 30
0.000000
  70
    32
  0
VERTEX
  8
0
  5
15019
 10
57.2435
 20
168.266
 30
0.000000
  70
    32
  0
VERTEX
  8
0
  5
1501A
 10
57.2457
 20
168.261
 30
0.000000
  70
    32
  0
VERTEX
  8
0
  5
1501B
 10
57.2480
 20
168.257
 30
0.000000
  70
    32
  0
VERTEX
  8
0
  5
1501C
 10
57.2503
 20
168.252
 30
0.000000
  70
    32
  0
VERTEX
  8
0
  5
1501D
 10
57.2526
 20
168.247
 30
0.000000
  70
    32
  0
VERTEX
  8
0
  5
1501E
 10
57.2550
 20
168.243
 30
0.000000
  70
    32
  0
VERTEX
  8
0
  5
1501F
 10
57.2573
 20
168.238
 30
0.000000
  70
    32
  0
VERTEX
  8
0
  5
15020
 10
57.2598
 20
168.233
 30
0.000000
  70
    32
  0
VERTEX
  8
0
  5
15021
 10
57.2622
 20
168.228
 30
0.000000
  70
    32
  0
VERTEX
  8
0
  5
15022
 10
57.2647
 20
168.224
 30
0.000000
  70
    32
  0
VERTEX
  8
0
  5
15023
 10
57.2671
 20
168.219
 30
0.000000
  70
    32
  0
VERTEX
  8
0
  5
15024
 10
57.2697
 20
168.214
 30
0.000000
  70
    32
  0
VERTEX
  8
0
  5
15025
 10
57.2722
 20
168.210
 30
0.000000
  70
    32
  0
VERTEX
  8
0
  5
15026
 10
57.2748
 20
168.205
 30
0.000000
  70
    32
  0
VERTEX
  8
0
  5
15027
 10
57.2774
 20
168.200
 30
0.000000
  70
    32
  0
VERTEX
  8
0
  5
15028
 10
57.2800
 20
168.196
 30
0.000000
  70
    32
  0
VERTEX
  8
0
  5
15029
 10
57.2827
 20
168.191
 30
0.000000
  70
    32
  0
VERTEX
  8
0
  5
1502A
 10
57.2853
 20
168.186
 30
0.000000
  70
    32
  0
VERTEX
  8
0
  5
1502B
 10
57.2880
 20
168.182
 30
0.000000
  70
    32
  0
VERTEX
  8
0
  5
1502C
 10
57.2908
 20
168.177
 30
0.000000
  70
    32
  0
VERTEX
  8
0
  5
1502D
 10
57.2935
 20
168.172
 30
0.000000
  70
    32
  0
VERTEX
  8
0
  5
1502E
 10
57.2963
 20
168.168
 30
0.000000
  70
    32
  0
VERTEX
  8
0
  5
1502F
 10
57.2992
 20
168.163
 30
0.000000
  70
    32
  0
VERTEX
  8
0
  5
15030
 10
57.3020
 20
168.159
 30
0.000000
  70
    32
  0
VERTEX
  8
0
  5
15031
 10
57.3049
 20
168.154
 30
0.000000
  70
    32
  0
VERTEX
  8
0
  5
15032
 10
57.3078
 20
168.149
 30
0.000000
  70
    32
  0
VERTEX
  8
0
  5
15033
 10
57.3107
 20
168.145
 30
0.000000
  70
    32
  0
VERTEX
  8
0
  5
15034
 10
57.3137
 20
168.140
 30
0.000000
  70
    32
  0
VERTEX
  8
0
  5
15035
 10
57.3166
 20
168.135
 30
0.000000
  70
    32
  0
VERTEX
  8
0
  5
15036
 10
57.3196
 20
168.131
 30
0.000000
  70
    32
  0
VERTEX
  8
0
  5
15037
 10
57.3227
 20
168.126
 30
0.000000
  70
    32
  0
VERTEX
  8
0
  5
15038
 10
57.3257
 20
168.122
 30
0.000000
  70
    32
  0
VERTEX
  8
0
  5
15039
 10
57.3288
 20
168.117
 30
0.000000
  70
    32
  0
VERTEX
  8
0
  5
1503A
 10
57.3319
 20
168.113
 30
0.000000
  70
    32
  0
VERTEX
  8
0
  5
1503B
 10
57.3351
 20
168.108
 30
0.000000
  70
    32
  0
VERTEX
  8
0
  5
1503C
 10
57.3383
 20
168.104
 30
0.000000
  70
    32
  0
VERTEX
  8
0
  5
1503D
 10
57.3415
 20
168.099
 30
0.000000
  70
    32
  0
VERTEX
  8
0
  5
1503E
 10
57.3447
 20
168.094
 30
0.000000
  70
    32
  0
VERTEX
  8
0
  5
1503F
 10
57.3479
 20
168.090
 30
0.000000
  70
    32
  0
VERTEX
  8
0
  5
15040
 10
57.3512
 20
168.085
 30
0.000000
  70
    32
  0
VERTEX
  8
0
  5
15041
 10
57.3545
 20
168.081
 30
0.000000
  70
    32
  0
VERTEX
  8
0
  5
15042
 10
57.3578
 20
168.076
 30
0.000000
  70
    32
  0
VERTEX
  8
0
  5
15043
 10
57.3612
 20
168.072
 30
0.000000
  70
    32
  0
VERTEX
  8
0
  5
15044
 10
57.3646
 20
168.067
 30
0.000000
  70
    32
  0
VERTEX
  8
0
  5
15045
 10
57.3680
 20
168.063
 30
0.000000
  70
    32
  0
VERTEX
  8
0
  5
15046
 10
57.3714
 20
168.058
 30
0.000000
  70
    32
  0
VERTEX
  8
0
  5
15047
 10
57.3749
 20
168.054
 30
0.000000
  70
    32
  0
VERTEX
  8
0
  5
15048
 10
57.3784
 20
168.049
 30
0.000000
  70
    32
  0
VERTEX
  8
0
  5
15049
 10
57.3819
 20
168.045
 30
0.000000
  70
    32
  0
VERTEX
  8
0
  5
1504A
 10
57.3854
 20
168.040
 30
0.000000
  70
    32
  0
VERTEX
  8
0
  5
1504B
 10
57.3890
 20
168.036
 30
0.000000
  70
    32
  0
SEQEND
  8
0
  5
1504C
  0
POLYLINE
  5
14457
  8
0
 10
54.756176093456347
 20
168.6442625287109
 30
0.0
 66
     1
 70
     8
  0
VERTEX
  8
0
  5
1504D
 10
54.7562
 20
168.644
 30
0.000000
  70
    32
  0
VERTEX
  8
0
  5
1504E
 10
54.7562
 20
168.635
 30
0.000000
  70
    32
  0
VERTEX
  8
0
  5
1504F
 10
54.7563
 20
168.625
 30
0.000000
  70
    32
  0
VERTEX
  8
0
  5
15050
 10
54.7564
 20
168.615
 30
0.000000
  70
    32
  0
VERTEX
  8
0
  5
15051
 10
54.7566
 20
168.606
 30
0.000000
  70
    32
  0
VERTEX
  8
0
  5
15052
 10
54.7569
 20
168.596
 30
0.000000
  70
    32
  0
VERTEX
  8
0
  5
15053
 10
54.7572
 20
168.586
 30
0.000000
  70
    32
  0
VERTEX
  8
0
  5
15054
 10
54.7575
 20
168.577
 30
0.000000
  70
    32
  0
VERTEX
  8
0
  5
15055
 10
54.7580
 20
168.567
 30
0.000000
  70
    32
  0
VERTEX
  8
0
  5
15056
 10
54.7584
 20
168.557
 30
0.000000
  70
    32
  0
VERTEX
  8
0
  5
15057
 10
54.7590
 20
168.548
 30
0.000000
  70
    32
  0
VERTEX
  8
0
  5
15058
 10
54.7596
 20
168.538
 30
0.000000
  70
    32
  0
VERTEX
  8
0
  5
15059
 10
54.7602
 20
168.528
 30
0.000000
  70
    32
  0
VERTEX
  8
0
  5
1505A
 10
54.7609
 20
168.519
 30
0.000000
  70
    32
  0
VERTEX
  8
0
  5
1505B
 10
54.7617
 20
168.509
 30
0.000000
  70
    32
  0
VERTEX
  8
0
  5
1505C
 10
54.7625
 20
168.500
 30
0.000000
  70
    32
  0
VERTEX
  8
0
  5
1505D
 10
54.7633
 20
168.490
 30
0.000000
  70
    32
  0
VERTEX
  8
0
  5
1505E
 10
54.7643
 20
168.480
 30
0.000000
  70
    32
  0
VERTEX
  8
0
  5
1505F
 10
54.7652
 20
168.471
 30
0.000000
  70
    32
  0
VERTEX
  8
0
  5
15060
 10
54.7663
 20
168.461
 30
0.000000
  70
    32
  0
VERTEX
  8
0
  5
15061
 10
54.7674
 20
168.451
 30
0.000000
  70
    32
  0
VERTEX
  8
0
  5
15062
 10
54.7685
 20
168.442
 30
0.000000
  70
    32
  0
VERTEX
  8
0
  5
15063
 10
54.7697
 20
168.432
 30
0.000000
  70
    32
  0
VERTEX
  8
0
  5
15064
 10
54.7710
 20
168.422
 30
0.000000
  70
    32
  0
VERTEX
  8
0
  5
15065
 10
54.7723
 20
168.413
 30
0.000000
  70
    32
  0
VERTEX
  8
0
  5
15066
 10
54.7736
 20
168.403
 30
0.000000
  70
    32
  0
VERTEX
  8
0
  5
15067
 10
54.7751
 20
168.394
 30
0.000000
  70
    32
  0
VERTEX
  8
0
  5
15068
 10
54.7765
 20
168.384
 30
0.000000
  70
    32
  0
VERTEX
  8
0
  5
15069
 10
54.7781
 20
168.374
 30
0.000000
  70
    32
  0
VERTEX
  8
0
  5
1506A
 10
54.7797
 20
168.365
 30
0.000000
  70
    32
  0
VERTEX
  8
0
  5
1506B
 10
54.7813
 20
168.355
 30
0.000000
  70
    32
  0
VERTEX
  8
0
  5
1506C
 10
54.7830
 20
168.346
 30
0.000000
  70
    32
  0
VERTEX
  8
0
  5
1506D
 10
54.7848
 20
168.336
 30
0.000000
  70
    32
  0
VERTEX
  8
0
  5
1506E
 10
54.7866
 20
168.326
 30
0.000000
  70
    32
  0
VERTEX
  8
0
  5
1506F
 10
54.7885
 20
168.317
 30
0.000000
  70
    32
  0
VERTEX
  8
0
  5
15070
 10
54.7904
 20
168.307
 30
0.000000
  70
    32
  0
VERTEX
  8
0
  5
15071
 10
54.7924
 20
168.298
 30
0.000000
  70
    32
  0
VERTEX
  8
0
  5
15072
 10
54.7944
 20
168.288
 30
0.000000
  70
    32
  0
VERTEX
  8
0
  5
15073
 10
54.7965
 20
168.278
 30
0.000000
  70
    32
  0
VERTEX
  8
0
  5
15074
 10
54.7986
 20
168.269
 30
0.000000
  70
    32
  0
VERTEX
  8
0
  5
15075
 10
54.8008
 20
168.259
 30
0.000000
  70
    32
  0
VERTEX
  8
0
  5
15076
 10
54.8031
 20
168.250
 30
0.000000
  70
    32
  0
VERTEX
  8
0
  5
15077
 10
54.8054
 20
168.240
 30
0.000000
  70
    32
  0
VERTEX
  8
0
  5
15078
 10
54.8078
 20
168.231
 30
0.000000
  70
    32
  0
VERTEX
  8
0
  5
15079
 10
54.8102
 20
168.221
 30
0.000000
  70
    32
  0
VERTEX
  8
0
  5
1507A
 10
54.8127
 20
168.211
 30
0.000000
  70
    32
  0
VERTEX
  8
0
  5
1507B
 10
54.8152
 20
168.202
 30
0.000000
  70
    32
  0
VERTEX
  8
0
  5
1507C
 10
54.8178
 20
168.192
 30
0.000000
  70
    32
  0
VERTEX
  8
0
  5
1507D
 10
54.8205
 20
168.183
 30
0.000000
  70
    32
  0
VERTEX
  8
0
  5
1507E
 10
54.8232
 20
168.173
 30
0.000000
  70
    32
  0
VERTEX
  8
0
  5
1507F
 10
54.8259
 20
168.164
 30
0.000000
  70
    32
  0
VERTEX
  8
0
  5
15080
 10
54.8287
 20
168.154
 30
0.000000
  70
    32
  0
VERTEX
  8
0
  5
15081
 10
54.8316
 20
168.145
 30
0.000000
  70
    32
  0
VERTEX
  8
0
  5
15082
 10
54.8345
 20
168.135
 30
0.000000
  70
    32
  0
VERTEX
  8
0
  5
15083
 10
54.8375
 20
168.126
 30
0.000000
  70
    32
  0
VERTEX
  8
0
  5
15084
 10
54.8405
 20
168.116
 30
0.000000
  70
    32
  0
VERTEX
  8
0
  5
15085
 10
54.8436
 20
168.107
 30
0.000000
  70
    32
  0
VERTEX
  8
0
  5
15086
 10
54.8467
 20
168.097
 30
0.000000
  70
    32
  0
VERTEX
  8
0
  5
15087
 10
54.8499
 20
168.088
 30
0.000000
  70
    32
  0
VERTEX
  8
0
  5
15088
 10
54.8532
 20
168.078
 30
0.000000
  70
    32
  0
VERTEX
  8
0
  5
15089
 10
54.8565
 20
168.069
 30
0.000000
  70
    32
  0
VERTEX
  8
0
  5
1508A
 10
54.8598
 20
168.059
 30
0.000000
  70
    32
  0
VERTEX
  8
0
  5
1508B
 10
54.8633
 20
168.050
 30
0.000000
  70
    32
  0
VERTEX
  8
0
  5
1508C
 10
54.8667
 20
168.041
 30
0.000000
  70
    32
  0
VERTEX
  8
0
  5
1508D
 10
54.8703
 20
168.031
 30
0.000000
  70
    32
  0
VERTEX
  8
0
  5
1508E
 10
54.8738
 20
168.022
 30
0.000000
  70
    32
  0
VERTEX
  8
0
  5
1508F
 10
54.8775
 20
168.012
 30
0.000000
  70
    32
  0
VERTEX
  8
0
  5
15090
 10
54.8811
 20
168.003
 30
0.000000
  70
    32
  0
VERTEX
  8
0
  5
15091
 10
54.8849
 20
167.993
 30
0.000000
  70
    32
  0
VERTEX
  8
0
  5
15092
 10
54.8887
 20
167.984
 30
0.000000
  70
    32
  0
VERTEX
  8
0
  5
15093
 10
54.8925
 20
167.975
 30
0.000000
  70
    32
  0
VERTEX
  8
0
  5
15094
 10
54.8964
 20
167.965
 30
0.000000
  70
    32
  0
VERTEX
  8
0
  5
15095
 10
54.9004
 20
167.956
 30
0.000000
  70
    32
  0
VERTEX
  8
0
  5
15096
 10
54.9044
 20
167.947
 30
0.000000
  70
    32
  0
VERTEX
  8
0
  5
15097
 10
54.9085
 20
167.937
 30
0.000000
  70
    32
  0
VERTEX
  8
0
  5
15098
 10
54.9126
 20
167.928
 30
0.000000
  70
    32
  0
VERTEX
  8
0
  5
15099
 10
54.9168
 20
167.918
 30
0.000000
  70
    32
  0
VERTEX
  8
0
  5
1509A
 10
54.9210
 20
167.909
 30
0.000000
  70
    32
  0
VERTEX
  8
0
  5
1509B
 10
54.9253
 20
167.900
 30
0.000000
  70
    32
  0
VERTEX
  8
0
  5
1509C
 10
54.9296
 20
167.890
 30
0.000000
  70
    32
  0
VERTEX
  8
0
  5
1509D
 10
54.9340
 20
167.881
 30
0.000000
  70
    32
  0
VERTEX
  8
0
  5
1509E
 10
54.9385
 20
167.872
 30
0.000000
  70
    32
  0
VERTEX
  8
0
  5
1509F
 10
54.9430
 20
167.863
 30
0.000000
  70
    32
  0
VERTEX
  8
0
  5
150A0
 10
54.9475
 20
167.853
 30
0.000000
  70
    32
  0
VERTEX
  8
0
  5
150A1
 10
54.9521
 20
167.844
 30
0.000000
  70
    32
  0
VERTEX
  8
0
  5
150A2
 10
54.9568
 20
167.835
 30
0.000000
  70
    32
  0
VERTEX
  8
0
  5
150A3
 10
54.9615
 20
167.825
 30
0.000000
  70
    32
  0
VERTEX
  8
0
  5
150A4
 10
54.9663
 20
167.816
 30
0.000000
  70
    32
  0
VERTEX
  8
0
  5
150A5
 10
54.9711
 20
167.807
 30
0.000000
  70
    32
  0
VERTEX
  8
0
  5
150A6
 10
54.9760
 20
167.798
 30
0.000000
  70
    32
  0
VERTEX
  8
0
  5
150A7
 10
54.9809
 20
167.789
 30
0.000000
  70
    32
  0
VERTEX
  8
0
  5
150A8
 10
54.9859
 20
167.779
 30
0.000000
  70
    32
  0
VERTEX
  8
0
  5
150A9
 10
54.9909
 20
167.770
 30
0.000000
  70
    32
  0
VERTEX
  8
0
  5
150AA
 10
54.9960
 20
167.761
 30
0.000000
  70
    32
  0
VERTEX
  8
0
  5
150AB
 10
55.0012
 20
167.752
 30
0.000000
  70
    32
  0
VERTEX
  8
0
  5
150AC
 10
55.0064
 20
167.743
 30
0.000000
  70
    32
  0
VERTEX
  8
0
  5
150AD
 10
55.0116
 20
167.733
 30
0.000000
  70
    32
  0
VERTEX
  8
0
  5
150AE
 10
55.0169
 20
167.724
 30
0.000000
  70
    32
  0
VERTEX
  8
0
  5
150AF
 10
55.0223
 20
167.715
 30
0.000000
  70
    32
  0
VERTEX
  8
0
  5
150B0
 10
55.0277
 20
167.706
 30
0.000000
  70
    32
  0
VERTEX
  8
0
  5
150B1
 10
55.0331
 20
167.697
 30
0.000000
  70
    32
  0
VERTEX
  8
0
  5
150B2
 10
55.0387
 20
167.688
 30
0.000000
  70
    32
  0
VERTEX
  8
0
  5
150B3
 10
55.0442
 20
167.679
 30
0.000000
  70
    32
  0
VERTEX
  8
0
  5
150B4
 10
55.0498
 20
167.670
 30
0.000000
  70
    32
  0
VERTEX
  8
0
  5
150B5
 10
55.0555
 20
167.660
 30
0.000000
  70
    32
  0
VERTEX
  8
0
  5
150B6
 10
55.0612
 20
167.651
 30
0.000000
  70
    32
  0
VERTEX
  8
0
  5
150B7
 10
55.0670
 20
167.642
 30
0.000000
  70
    32
  0
VERTEX
  8
0
  5
150B8
 10
55.0729
 20
167.633
 30
0.000000
  70
    32
  0
VERTEX
  8
0
  5
150B9
 10
55.0787
 20
167.624
 30
0.000000
  70
    32
  0
VERTEX
  8
0
  5
150BA
 10
55.0847
 20
167.615
 30
0.000000
  70
    32
  0
VERTEX
  8
0
  5
150BB
 10
55.0907
 20
167.606
 30
0.000000
  70
    32
  0
VERTEX
  8
0
  5
150BC
 10
55.0967
 20
167.597
 30
0.000000
  70
    32
  0
VERTEX
  8
0
  5
150BD
 10
55.1028
 20
167.588
 30
0.000000
  70
    32
  0
VERTEX
  8
0
  5
150BE
 10
55.1089
 20
167.579
 30
0.000000
  70
    32
  0
VERTEX
  8
0
  5
150BF
 10
55.1151
 20
167.570
 30
0.000000
  70
    32
  0
VERTEX
  8
0
  5
150C0
 10
55.1214
 20
167.561
 30
0.000000
  70
    32
  0
VERTEX
  8
0
  5
150C1
 10
55.1277
 20
167.552
 30
0.000000
  70
    32
  0
VERTEX
  8
0
  5
150C2
 10
55.1340
 20
167.543
 30
0.000000
  70
    32
  0
VERTEX
  8
0
  5
150C3
 10
55.1404
 20
167.534
 30
0.000000
  70
    32
  0
VERTEX
  8
0
  5
150C4
 10
55.1469
 20
167.526
 30
0.000000
  70
    32
  0
VERTEX
  8
0
  5
150C5
 10
55.1534
 20
167.517
 30
0.000000
  70
    32
  0
VERTEX
  8
0
  5
150C6
 10
55.1599
 20
167.508
 30
0.000000
  70
    32
  0
VERTEX
  8
0
  5
150C7
 10
55.1665
 20
167.499
 30
0.000000
  70
    32
  0
VERTEX
  8
0
  5
150C8
 10
55.1732
 20
167.490
 30
0.000000
  70
    32
  0
VERTEX
  8
0
  5
150C9
 10
55.1799
 20
167.481
 30
0.000000
  70
    32
  0
VERTEX
  8
0
  5
150CA
 10
55.1867
 20
167.472
 30
0.000000
  70
    32
  0
VERTEX
  8
0
  5
150CB
 10
55.1935
 20
167.464
 30
0.000000
  70
    32
  0
VERTEX
  8
0
  5
150CC
 10
55.2004
 20
167.455
 30
0.000000
  70
    32
  0
VERTEX
  8
0
  5
150CD
 10
55.2073
 20
167.446
 30
0.000000
  70
    32
  0
SEQEND
  8
0
  5
150CE
  0
LINE
  5
14458
  8
0
 10
54.456176093456321
 20
168.6442625287109
 30
0.0
 11
54.756176093456332
 21
168.6442625287109
 31
0.0
  0
POLYLINE
  5
14459
  8
0
 10
54.005084612003884
 20
167.44600945445578
 30
0.0
 66
     1
 70
     8
  0
VERTEX
  8
0
  5
150CF
 10
54.0051
 20
167.446
 30
0.000000
  70
    32
  0
VERTEX
  8
0
  5
150D0
 10
54.0120
 20
167.455
 30
0.000000
  70
    32
  0
VERTEX
  8
0
  5
150D1
 10
54.0189
 20
167.464
 30
0.000000
  70
    32
  0
VERTEX
  8
0
  5
150D2
 10
54.0257
 20
167.472
 30
0.000000
  70
    32
  0
VERTEX
  8
0
  5
150D3
 10
54.0324
 20
167.481
 30
0.000000
  70
    32
  0
VERTEX
  8
0
  5
150D4
 10
54.0391
 20
167.490
 30
0.000000
  70
    32
  0
VERTEX
  8
0
  5
150D5
 10
54.0458
 20
167.499
 30
0.000000
  70
    32
  0
VERTEX
  8
0
  5
150D6
 10
54.0524
 20
167.508
 30
0.000000
  70
    32
  0
VERTEX
  8
0
  5
150D7
 10
54.0590
 20
167.517
 30
0.000000
  70
    32
  0
VERTEX
  8
0
  5
150D8
 10
54.0655
 20
167.526
 30
0.000000
  70
    32
  0
VERTEX
  8
0
  5
150D9
 10
54.0719
 20
167.534
 30
0.000000
  70
    32
  0
VERTEX
  8
0
  5
150DA
 10
54.0783
 20
167.543
 30
0.000000
  70
    32
  0
VERTEX
  8
0
  5
150DB
 10
54.0847
 20
167.552
 30
0.000000
  70
    32
  0
VERTEX
  8
0
  5
150DC
 10
54.0910
 20
167.561
 30
0.000000
  70
    32
  0
VERTEX
  8
0
  5
150DD
 10
54.0972
 20
167.570
 30
0.000000
  70
    32
  0
VERTEX
  8
0
  5
150DE
 10
54.1034
 20
167.579
 30
0.000000
  70
    32
  0
VERTEX
  8
0
  5
150DF
 10
54.1096
 20
167.588
 30
0.000000
  70
    32
  0
VERTEX
  8
0
  5
150E0
 10
54.1157
 20
167.597
 30
0.000000
  70
    32
  0
VERTEX
  8
0
  5
150E1
 10
54.1217
 20
167.606
 30
0.000000
  70
    32
  0
VERTEX
  8
0
  5
150E2
 10
54.1277
 20
167.615
 30
0.000000
  70
    32
  0
VERTEX
  8
0
  5
150E3
 10
54.1336
 20
167.624
 30
0.000000
  70
    32
  0
VERTEX
  8
0
  5
150E4
 10
54.1395
 20
167.633
 30
0.000000
  70
    32
  0
VERTEX
  8
0
  5
150E5
 10
54.1453
 20
167.642
 30
0.000000
  70
    32
  0
VERTEX
  8
0
  5
150E6
 10
54.1511
 20
167.651
 30
0.000000
  70
    32
  0
VERTEX
  8
0
  5
150E7
 10
54.1568
 20
167.660
 30
0.000000
  70
    32
  0
VERTEX
  8
0
  5
150E8
 10
54.1625
 20
167.670
 30
0.000000
  70
    32
  0
VERTEX
  8
0
  5
150E9
 10
54.1681
 20
167.679
 30
0.000000
  70
    32
  0
VERTEX
  8
0
  5
150EA
 10
54.1737
 20
167.688
 30
0.000000
  70
    32
  0
VERTEX
  8
0
  5
150EB
 10
54.1792
 20
167.697
 30
0.000000
  70
    32
  0
VERTEX
  8
0
  5
150EC
 10
54.1847
 20
167.706
 30
0.000000
  70
    32
  0
VERTEX
  8
0
  5
150ED
 10
54.1901
 20
167.715
 30
0.000000
  70
    32
  0
VERTEX
  8
0
  5
150EE
 10
54.1954
 20
167.724
 30
0.000000
  70
    32
  0
VERTEX
  8
0
  5
150EF
 10
54.2007
 20
167.733
 30
0.000000
  70
    32
  0
VERTEX
  8
0
  5
150F0
 10
54.2060
 20
167.743
 30
0.000000
  70
    32
  0
VERTEX
  8
0
  5
150F1
 10
54.2112
 20
167.752
 30
0.000000
  70
    32
  0
VERTEX
  8
0
  5
150F2
 10
54.2163
 20
167.761
 30
0.000000
  70
    32
  0
VERTEX
  8
0
  5
150F3
 10
54.2214
 20
167.770
 30
0.000000
  70
    32
  0
VERTEX
  8
0
  5
150F4
 10
54.2264
 20
167.779
 30
0.000000
  70
    32
  0
VERTEX
  8
0
  5
150F5
 10
54.2314
 20
167.789
 30
0.000000
  70
    32
  0
VERTEX
  8
0
  5
150F6
 10
54.2364
 20
167.798
 30
0.000000
  70
    32
  0
VERTEX
  8
0
  5
150F7
 10
54.2412
 20
167.807
 30
0.000000
  70
    32
  0
VERTEX
  8
0
  5
150F8
 10
54.2461
 20
167.816
 30
0.000000
  70
    32
  0
VERTEX
  8
0
  5
150F9
 10
54.2508
 20
167.825
 30
0.000000
  70
    32
  0
VERTEX
  8
0
  5
150FA
 10
54.2555
 20
167.835
 30
0.000000
  70
    32
  0
VERTEX
  8
0
  5
150FB
 10
54.2602
 20
167.844
 30
0.000000
  70
    32
  0
VERTEX
  8
0
  5
150FC
 10
54.2648
 20
167.853
 30
0.000000
  70
    32
  0
VERTEX
  8
0
  5
150FD
 10
54.2694
 20
167.863
 30
0.000000
  70
    32
  0
VERTEX
  8
0
  5
150FE
 10
54.2739
 20
167.872
 30
0.000000
  70
    32
  0
VERTEX
  8
0
  5
150FF
 10
54.2783
 20
167.881
 30
0.000000
  70
    32
  0
VERTEX
  8
0
  5
15100
 10
54.2827
 20
167.890
 30
0.000000
  70
    32
  0
VERTEX
  8
0
  5
15101
 10
54.2870
 20
167.900
 30
0.000000
  70
    32
  0
VERTEX
  8
0
  5
15102
 10
54.2913
 20
167.909
 30
0.000000
  70
    32
  0
VERTEX
  8
0
  5
15103
 10
54.2956
 20
167.918
 30
0.000000
  70
    32
  0
VERTEX
  8
0
  5
15104
 10
54.2997
 20
167.928
 30
0.000000
  70
    32
  0
VERTEX
  8
0
  5
15105
 10
54.3039
 20
167.937
 30
0.000000
  70
    32
  0
VERTEX
  8
0
  5
15106
 10
54.3079
 20
167.947
 30
0.000000
  70
    32
  0
VERTEX
  8
0
  5
15107
 10
54.3119
 20
167.956
 30
0.000000
  70
    32
  0
VERTEX
  8
0
  5
15108
 10
54.3159
 20
167.965
 30
0.000000
  70
    32
  0
VERTEX
  8
0
  5
15109
 10
54.3198
 20
167.975
 30
0.000000
  70
    32
  0
VERTEX
  8
0
  5
1510A
 10
54.3237
 20
167.984
 30
0.000000
  70
    32
  0
VERTEX
  8
0
  5
1510B
 10
54.3275
 20
167.993
 30
0.000000
  70
    32
  0
VERTEX
  8
0
  5
1510C
 10
54.3312
 20
168.003
 30
0.000000
  70
    32
  0
VERTEX
  8
0
  5
1510D
 10
54.3349
 20
168.012
 30
0.000000
  70
    32
  0
VERTEX
  8
0
  5
1510E
 10
54.3385
 20
168.022
 30
0.000000
  70
    32
  0
VERTEX
  8
0
  5
1510F
 10
54.3421
 20
168.031
 30
0.000000
  70
    32
  0
VERTEX
  8
0
  5
15110
 10
54.3456
 20
168.041
 30
0.000000
  70
    32
  0
VERTEX
  8
0
  5
15111
 10
54.3491
 20
168.050
 30
0.000000
  70
    32
  0
VERTEX
  8
0
  5
15112
 10
54.3525
 20
168.059
 30
0.000000
  70
    32
  0
VERTEX
  8
0
  5
15113
 10
54.3559
 20
168.069
 30
0.000000
  70
    32
  0
VERTEX
  8
0
  5
15114
 10
54.3592
 20
168.078
 30
0.000000
  70
    32
  0
VERTEX
  8
0
  5
15115
 10
54.3624
 20
168.088
 30
0.000000
  70
    32
  0
VERTEX
  8
0
  5
15116
 10
54.3656
 20
168.097
 30
0.000000
  70
    32
  0
VERTEX
  8
0
  5
15117
 10
54.3688
 20
168.107
 30
0.000000
  70
    32
  0
VERTEX
  8
0
  5
15118
 10
54.3718
 20
168.116
 30
0.000000
  70
    32
  0
VERTEX
  8
0
  5
15119
 10
54.3749
 20
168.126
 30
0.000000
  70
    32
  0
VERTEX
  8
0
  5
1511A
 10
54.3779
 20
168.135
 30
0.000000
  70
    32
  0
VERTEX
  8
0
  5
1511B
 10
54.3808
 20
168.145
 30
0.000000
  70
    32
  0
VERTEX
  8
0
  5
1511C
 10
54.3836
 20
168.154
 30
0.000000
  70
    32
  0
VERTEX
  8
0
  5
1511D
 10
54.3864
 20
168.164
 30
0.000000
  70
    32
  0
VERTEX
  8
0
  5
1511E
 10
54.3892
 20
168.173
 30
0.000000
  70
    32
  0
VERTEX
  8
0
  5
1511F
 10
54.3919
 20
168.183
 30
0.000000
  70
    32
  0
VERTEX
  8
0
  5
15120
 10
54.3945
 20
168.192
 30
0.000000
  70
    32
  0
VERTEX
  8
0
  5
15121
 10
54.3971
 20
168.202
 30
0.000000
  70
    32
  0
VERTEX
  8
0
  5
15122
 10
54.3997
 20
168.211
 30
0.000000
  70
    32
  0
VERTEX
  8
0
  5
15123
 10
54.4021
 20
168.221
 30
0.000000
  70
    32
  0
VERTEX
  8
0
  5
15124
 10
54.4046
 20
168.231
 30
0.000000
  70
    32
  0
VERTEX
  8
0
  5
15125
 10
54.4069
 20
168.240
 30
0.000000
  70
    32
  0
VERTEX
  8
0
  5
15126
 10
54.4093
 20
168.250
 30
0.000000
  70
    32
  0
VERTEX
  8
0
  5
15127
 10
54.4115
 20
168.259
 30
0.000000
  70
    32
  0
VERTEX
  8
0
  5
15128
 10
54.4137
 20
168.269
 30
0.000000
  70
    32
  0
VERTEX
  8
0
  5
15129
 10
54.4159
 20
168.278
 30
0.000000
  70
    32
  0
VERTEX
  8
0
  5
1512A
 10
54.4180
 20
168.288
 30
0.000000
  70
    32
  0
VERTEX
  8
0
  5
1512B
 10
54.4200
 20
168.298
 30
0.000000
  70
    32
  0
VERTEX
  8
0
  5
1512C
 10
54.4220
 20
168.307
 30
0.000000
  70
    32
  0
VERTEX
  8
0
  5
1512D
 10
54.4239
 20
168.317
 30
0.000000
  70
    32
  0
VERTEX
  8
0
  5
1512E
 10
54.4258
 20
168.326
 30
0.000000
  70
    32
  0
VERTEX
  8
0
  5
1512F
 10
54.4276
 20
168.336
 30
0.000000
  70
    32
  0
VERTEX
  8
0
  5
15130
 10
54.4293
 20
168.346
 30
0.000000
  70
    32
  0
VERTEX
  8
0
  5
15131
 10
54.4310
 20
168.355
 30
0.000000
  70
    32
  0
VERTEX
  8
0
  5
15132
 10
54.4327
 20
168.365
 30
0.000000
  70
    32
  0
VERTEX
  8
0
  5
15133
 10
54.4343
 20
168.374
 30
0.000000
  70
    32
  0
VERTEX
  8
0
  5
15134
 10
54.4358
 20
168.384
 30
0.000000
  70
    32
  0
VERTEX
  8
0
  5
15135
 10
54.4373
 20
168.394
 30
0.000000
  70
    32
  0
VERTEX
  8
0
  5
15136
 10
54.4387
 20
168.403
 30
0.000000
  70
    32
  0
VERTEX
  8
0
  5
15137
 10
54.4401
 20
168.413
 30
0.000000
  70
    32
  0
VERTEX
  8
0
  5
15138
 10
54.4414
 20
168.422
 30
0.000000
  70
    32
  0
VERTEX
  8
0
  5
15139
 10
54.4427
 20
168.432
 30
0.000000
  70
    32
  0
VERTEX
  8
0
  5
1513A
 10
54.4439
 20
168.442
 30
0.000000
  70
    32
  0
VERTEX
  8
0
  5
1513B
 10
54.4450
 20
168.451
 30
0.000000
  70
    32
  0
VERTEX
  8
0
  5
1513C
 10
54.4461
 20
168.461
 30
0.000000
  70
    32
  0
VERTEX
  8
0
  5
1513D
 10
54.4471
 20
168.471
 30
0.000000
  70
    32
  0
VERTEX
  8
0
  5
1513E
 10
54.4481
 20
168.480
 30
0.000000
  70
    32
  0
VERTEX
  8
0
  5
1513F
 10
54.4490
 20
168.490
 30
0.000000
  70
    32
  0
VERTEX
  8
0
  5
15140
 10
54.4499
 20
168.500
 30
0.000000
  70
    32
  0
VERTEX
  8
0
  5
15141
 10
54.4507
 20
168.509
 30
0.000000
  70
    32
  0
VERTEX
  8
0
  5
15142
 10
54.4515
 20
168.519
 30
0.000000
  70
    32
  0
VERTEX
  8
0
  5
15143
 10
54.4522
 20
168.528
 30
0.000000
  70
    32
  0
VERTEX
  8
0
  5
15144
 10
54.4528
 20
168.538
 30
0.000000
  70
    32
  0
VERTEX
  8
0
  5
15145
 10
54.4534
 20
168.548
 30
0.000000
  70
    32
  0
VERTEX
  8
0
  5
15146
 10
54.4539
 20
168.557
 30
0.000000
  70
    32
  0
VERTEX
  8
0
  5
15147
 10
54.4544
 20
168.567
 30
0.000000
  70
    32
  0
VERTEX
  8
0
  5
15148
 10
54.4548
 20
168.577
 30
0.000000
  70
    32
  0
VERTEX
  8
0
  5
15149
 10
54.4552
 20
168.586
 30
0.000000
  70
    32
  0
VERTEX
  8
0
  5
1514A
 10
54.4555
 20
168.596
 30
0.000000
  70
    32
  0
VERTEX
  8
0
  5
1514B
 10
54.4557
 20
168.606
 30
0.000000
  70
    32
  0
VERTEX
  8
0
  5
1514C
 10
54.4559
 20
168.615
 30
0.000000
  70
    32
  0
VERTEX
  8
0
  5
1514D
 10
54.4561
 20
168.625
 30
0.000000
  70
    32
  0
VERTEX
  8
0
  5
1514E
 10
54.4561
 20
168.635
 30
0.000000
  70
    32
  0
VERTEX
  8
0
  5
1514F
 10
54.4562
 20
168.644
 30
0.000000
  70
    32
  0
SEQEND
  8
0
  5
15150
  0
LINE
  5
1445A
  8
0
 10
59.624823711517003
 20
165.2580609374368
 30
0.0
 11
57.388993960980173
 21
168.0360177374794
 31
0.0
  0
LINE
  5
1445B
  8
0
 10
51.823358225932537
 20
168.0360177374794
 30
0.0
 11
49.587528475395658
 21
165.2580609374368
 31
0.0
  0
LINE
  5
1445C
  8
0
 10
54.456176093456321
 20
152.34073805019989
 30
0.0
 11
54.456176093456321
 21
168.6442625287109
 31
0.0
  0
LINE
  5
1445D
  8
0
 10
54.756176093456332
 20
168.6442625287109
 30
0.0
 11
54.756176093456332
 21
152.34073805019989
 31
0.0
  0
LINE
  5
1445E
  8
0
 10
57.156176093456367
 20
172.40073805016709
 30
0.0
 11
52.056176093456337
 21
172.40073805016709
 31
0.0
  0
LINE
  5
14461
  8
0
 10
48.506176093456332
 20
147.9189153318539
 30
0.0
 11
60.706176093456321
 21
147.9189153318539
 31
0.0
  0
LINE
  5
14463
  8
0
 10
48.506176093456332
 20
141.04073805018561
 30
0.0
 11
60.706176093456378
 21
141.04073805018561
 31
0.0
  0
LINE
  5
14465
  8
0
 10
58.01792051530262
 20
149.940738050167
 30
0.0
 11
51.194431671609692
 21
149.9407380501668
 31
0.0
  0
LINE
  5
14466
  8
0
 10
60.706176093456321
 20
140.54073805011851
 30
0.0
 11
60.706176093456321
 21
148.4647521844301
 31
0.0
  0
LINE
  5
14467
  8
0
 10
48.506176093456332
 20
148.4647521844301
 30
0.0
 11
48.506176093456332
 21
140.54073805011831
 31
0.0
  0
LINE
  5
14469
  8
0
 10
48.356176093456362
 20
140.54073805011831
 30
0.0
 11
60.856176093456362
 21
140.54073805011851
 31
0.0
  0
LINE
  5
1446B
  8
0
 10
63.022694281839371
 20
163.22953719182371
 30
0.0
 11
63.022694281839371
 21
169.09073805017081
 31
0.0
  0
LINE
  5
1446C
  8
0
 10
46.089518691194343
 20
167.09073805016709
 30
0.0
 11
46.089518691194343
 21
163.15054284499041
 31
0.0
  0
LINE
  5
1446D
  8
0
 10
46.18965790507329
 20
164.97556224069399
 30
0.0
 11
46.18965790507329
 21
163.22953719182371
 31
0.0
  0
LINE
  5
14472
  8
0
 10
61.656176093456367
 20
164.04983791441779
 30
0.0
 11
61.656176093456367
 21
164.97556224069399
 31
0.0
  0
LINE
  5
14474
  8
0
 10
59.606176093455304
 20
113.3407380501785
 30
0.0
 11
59.606176093456362
 21
116.8407380501671
 31
0.0
  0
POLYLINE
  5
14475
  8
0
 66
     1
 10
0.0
 20
0.0
 30
0.0
 70
   128
  0
VERTEX
  5
14CAB
  8
0
 10
59.606176093454472
 20
113.54799747182
 30
0.0
  0
VERTEX
  5
14CAC
  8
0
 10
58.36179643004666
 20
113.3959271918834
 30
0.0
  0
VERTEX
  5
14CAD
  8
0
 10
57.106176093456362
 20
113.3407380501758
 30
0.0
  0
SEQEND
  5
14CAE
  8
0
  0
POLYLINE
  5
14476
  8
0
 66
     1
 10
0.0
 20
0.0
 30
0.0
 70
   128
  0
VERTEX
  5
14CAF
  8
0
 10
57.106176093456362
 20
113.3407380501758
 30
0.0
  0
VERTEX
  5
14CB0
  8
0
 10
55.856176093451012
 20
113.39544389669339
 30
0.0
  0
VERTEX
  5
14CB1
  8
0
 10
54.606176093445661
 20
113.5479974718218
 30
0.0
  0
SEQEND
  5
14CB2
  8
0
  0
LINE
  5
14477
  8
0
 10
54.606176093456362
 20
113.5479974718173
 30
0.0
 11
54.606176093456362
 21
116.8407380501671
 31
0.0
  0
LINE
  5
14478
  8
0
 10
49.606176093456362
 20
116.8407380501671
 30
0.0
 11
59.606176093456362
 21
116.8407380501671
 31
0.0
  0
POLYLINE
  5
14479
  8
0
 66
     1
 10
0.0
 20
0.0
 30
0.0
 70
   128
  0
VERTEX
  5
14CB3
  8
0
 10
54.606176093466978
 20
113.5479974718218
 30
0.0
  0
VERTEX
  5
14CB4
  8
0
 10
53.361796430052983
 20
113.3959271918838
 30
0.0
  0
VERTEX
  5
14CB5
  8
0
 10
52.106176093456298
 20
113.3407380501758
 30
0.0
  0
SEQEND
  5
14CB6
  8
0
  0
POLYLINE
  5
1447A
  8
0
 66
     1
 10
0.0
 20
0.0
 30
0.0
 70
   128
  0
VERTEX
  5
14CB7
  8
0
 10
52.106176093456298
 20
113.3407380501758
 30
0.0
  0
VERTEX
  5
14CB8
  8
0
 10
50.856176093457258
 20
113.395443896693
 30
0.0
  0
VERTEX
  5
14CB9
  8
0
 10
49.606176093458167
 20
113.54799747182
 30
0.0
  0
SEQEND
  5
14CBA
  8
0
  0
LINE
  5
1447B
  8
0
 10
49.606176093456362
 20
116.8407380501671
 30
0.0
 11
49.60617609345735
 21
113.3407380501783
 31
0.0
  0
LINE
  5
1447E
  8
0
 10
50.15617609345631
 20
117.3407380501671
 30
0.0
 11
59.056176093456337
 21
117.3407380501671
 31
0.0
  0
LINE
  5
14480
  8
0
 10
49.606176093448283
 20
113.340738050178
 30
0.0
 11
59.60617609345632
 21
113.3407380501783
 31
0.0
  0
LINE
  5
14483
  8
0
 10
57.606176093456362
 20
151.7272380501673
 30
0.0
 11
51.606176093456348
 21
151.72723805016719
 31
0.0
  0
LINE
  5
14485
  8
0
 10
56.992676093425672
 20
152.34073805019989
 30
0.0
 11
52.219676093486981
 21
152.34073805019989
 31
0.0
  0
LINE
  5
14496
  8
0
 10
378.90617609345691
 20
117.3407380501671
 30
0.0
 11
378.90617609345691
 21
116.8407380501671
 31
0.0
  0
LINE
  5
14497
  8
0
 10
387.80617609345688
 20
116.8407380501671
 30
0.0
 11
387.80617609345688
 21
117.3407380501671
 31
0.0
  0
LINE
  5
14499
  8
0
 10
380.35617609345678
 20
120.5507380501672
 30
0.0
 11
380.35617609345678
 21
117.3407380501671
 31
0.0
  0
LINE
  5
1449A
  8
0
 10
386.3561760934569
 20
117.3407380501671
 30
0.0
 11
386.35617609345672
 21
120.5507380501672
 31
0.0
  0
POLYLINE
  5
144DC
  8
0
 66
     1
 10
0.0
 20
0.0
 30
0.0
 70
   128
  0
VERTEX
  5
14CBB
  8
0
 10
392.10617609345661
 20
142.34073805016709
 30
0.0
  0
VERTEX
  5
14CBC
  8
0
 10
392.0625543941967
 20
141.751610948912
 30
0.0
  0
VERTEX
  5
14CBD
  8
0
 10
392.0273876409251
 20
141.5507380501671
 30
0.0
  0
SEQEND
  5
14CBE
  8
0
  0
LINE
  5
144DE
  8
0
 10
392.10617609345661
 20
142.34073805016709
 30
0.0
 11
392.10617609345661
 21
147.88982186440711
 31
0.0
  0
POLYLINE
  5
144E0
  8
0
 66
     1
 10
0.0
 20
0.0
 30
0.0
 70
   128
  0
VERTEX
  5
14CBF
  8
0
 10
374.68496454598812
 20
141.5507380501671
 30
0.0
  0
VERTEX
  5
14CC0
  8
0
 10
374.61075786111053
 20
142.14934016972799
 30
0.0
  0
VERTEX
  5
14CC1
  8
0
 10
374.60617609345661
 20
142.34073805016709
 30
0.0
  0
SEQEND
  5
14CC2
  8
0
  0
LINE
  5
144E2
  8
0
 10
374.60617609345661
 20
142.34073805016709
 30
0.0
 11
374.60617609345661
 21
147.88982186440711
 31
0.0
  0
ARC
  5
144E7
  8
0
 10
378.60617609345661
 20
142.34073805016709
 30
0.0
 40
3.9999999999999938
 50
191.39080377545611
 51
234.90036780461071
  0
ARC
  5
144E8
  8
0
 10
388.10617609345661
 20
142.34073805016709
 30
0.0
 40
3.9999999999999911
 50
305.09963219540111
 51
348.60919622454378
  0
POLYLINE
  5
144F9
  8
0
 66
     1
 10
0.0
 20
0.0
 30
0.0
 70
   128
  0
VERTEX
  5
14CC3
  8
0
 10
387.90617609345691
 20
113.49300490967561
 30
0.0
  0
VERTEX
  5
14CC4
  8
0
 10
387.11179643004721
 20
113.3959271918834
 30
0.0
  0
VERTEX
  5
14CC5
  8
0
 10
385.85617609345678
 20
113.3407380501758
 30
0.0
  0
SEQEND
  5
14CC6
  8
0
  0
POLYLINE
  5
144FA
  8
0
 66
     1
 10
0.0
 20
0.0
 30
0.0
 70
   128
  0
VERTEX
  5
14CC7
  8
0
 10
385.85617609345678
 20
113.3407380501758
 30
0.0
  0
VERTEX
  5
14CC8
  8
0
 10
384.60617609345633
 20
113.395443896693
 30
0.0
  0
VERTEX
  5
14CC9
  8
0
 10
383.3561760934557
 20
113.54799747182049
 30
0.0
  0
SEQEND
  5
14CCA
  8
0
  0
LINE
  5
144FB
  8
0
 10
383.35617609345678
 20
113.54799747180181
 30
0.0
 11
383.35617609345678
 21
116.8407380501671
 31
0.0
  0
LINE
  5
144FC
  8
0
 10
378.80617609345688
 20
116.8407380501671
 30
0.0
 11
387.90617609345691
 21
116.84073805016691
 31
0.0
  0
POLYLINE
  5
144FD
  8
0
 66
     1
 10
0.0
 20
0.0
 30
0.0
 70
   128
  0
VERTEX
  5
14CCB
  8
0
 10
383.35617609345798
 20
113.54799747182049
 30
0.0
  0
VERTEX
  5
14CCC
  8
0
 10
382.11179643004868
 20
113.3959271918836
 30
0.0
  0
VERTEX
  5
14CCD
  8
0
 10
380.85617609345678
 20
113.3407380501758
 30
0.0
  0
SEQEND
  5
14CCE
  8
0
  0
POLYLINE
  5
144FE
  8
0
 66
     1
 10
0.0
 20
0.0
 30
0.0
 70
   128
  0
VERTEX
  5
14CCF
  8
0
 10
380.85617609345678
 20
113.3407380501758
 30
0.0
  0
VERTEX
  5
14CD0
  8
0
 10
379.60617609345769
 20
113.395443896693
 30
0.0
  0
VERTEX
  5
14CD1
  8
0
 10
378.80617609345688
 20
113.4930781847745
 30
0.0
  0
SEQEND
  5
14CD2
  8
0
  0
LINE
  5
14501
  8
0
 10
378.90617609345691
 20
117.3407380501671
 30
0.0
 11
387.80617609345688
 21
117.3407380501671
 31
0.0
  0
LINE
  5
14505
  8
0
 10
378.806176093457
 20
113.340738050178
 30
0.0
 11
387.90617609345691
 21
113.340738050178
 31
0.0
  0
CIRCLE
  5
1450A
  8
0
 10
228.6061760934565
 20
131.55073805016721
 30
0.0
 40
4.0000000000017621
  0
LINE
  5
1450B
  8
0
 10
215.85617609345641
 20
107.57073805016709
 30
0.0
 11
215.85617609345641
 21
110.07073805016709
 31
0.0
  0
ARC
  5
1450C
  8
0
 10
218.60617609345641
 20
107.57073805016709
 30
0.0
 40
2.75
 50
180.0
 51
0.0
  0
LINE
  5
1450D
  8
0
 10
221.3561760934565
 20
110.07073805016709
 30
0.0
 11
221.3561760934565
 21
107.57073805016709
 31
0.0
  0
ARC
  5
1450E
  8
0
 10
218.60617609345641
 20
110.07073805016709
 30
0.0
 40
2.75
 50
0.0
 51
180.0
  0
LINE
  5
1450F
  8
0
 10
189.85617609345641
 20
107.57073805016709
 30
0.0
 11
189.85617609345641
 21
110.07073805016709
 31
0.0
  0
ARC
  5
14510
  8
0
 10
192.60617609345641
 20
107.57073805016709
 30
0.0
 40
2.7500000000000142
 50
180.0
 51
0.0
  0
LINE
  5
14511
  8
0
 10
195.35617609345641
 20
110.07073805016709
 30
0.0
 11
195.35617609345641
 21
107.57073805016709
 31
0.0
  0
ARC
  5
14512
  8
0
 10
192.60617609345641
 20
110.07073805016709
 30
0.0
 40
2.7500000000000142
 50
0.0
 51
180.0
  0
LINE
  5
14514
  8
0
 10
192.10617609345641
 20
154.55073805016721
 30
0.0
 11
194.20617609345641
 21
154.55073805016721
 31
0.0
  0
ARC
  5
14515
  8
0
 10
194.20617609345641
 20
148.55073805016721
 30
0.0
 40
6.0000000000000053
 50
41.000000000000441
 51
90.0
  0
LINE
  5
14516
  8
0
 10
198.73443357479309
 20
152.4870922241102
 30
0.0
 11
199.8235077787576
 21
151.2342556667503
 31
0.0
  0
ARC
  5
14517
  8
0
 10
197.60617609345641
 20
144.63948546561571
 30
0.0
 40
6.0
 50
0.0
 51
26.535773758966229
  0
LINE
  5
14518
  8
0
 10
203.60617609345641
 20
144.55073805016721
 30
0.0
 11
203.60617609345641
 21
144.63948546561571
 31
0.0
  0
ARC
  5
14519
  8
0
 10
210.6061760934565
 20
144.55073805016721
 30
0.0
 40
7.0000000000000204
 50
180.0
 51
273.25145653100202
  0
LINE
  5
1451A
  8
0
 10
211.00320326890289
 20
137.56200644693919
 30
0.0
 11
228.20914891800999
 21
138.53946965339509
 31
0.0
  0
ARC
  5
1451B
  8
0
 10
228.6061760934565
 20
131.55073805016721
 30
0.0
 40
6.999999999999968
 50
309.96999999999451
 51
93.251456531001935
  0
LINE
  5
1451C
  8
0
 10
233.1028810450797
 20
126.18607174385799
 30
0.0
 11
226.89424398515419
 21
120.9819439535861
 31
0.0
  0
ARC
  5
1451D
  8
0
 10
230.10617609345641
 20
117.1500394490797
 30
0.0
 40
5.0
 50
129.96999999999451
 51
180.0
  0
LINE
  5
1451E
  8
0
 10
225.1061760934565
 20
117.1500394490797
 30
0.0
 11
225.1061760934565
 21
106.07073805016709
 31
0.0
  0
ARC
  5
1451F
  8
0
 10
221.1061760934565
 20
106.07073805016709
 30
0.0
 40
4.0000000000000284
 50
270.0
 51
0.0
  0
LINE
  5
14520
  8
0
 10
221.1061760934565
 20
102.07073805016709
 30
0.0
 11
190.10617609345641
 21
102.07073805016709
 31
0.0
  0
ARC
  5
14521
  8
0
 10
190.10617609345641
 20
106.07073805016709
 30
0.0
 40
4.0
 50
180.0
 51
270.0
  0
LINE
  5
14522
  8
0
 10
186.10617609345641
 20
106.07073805016709
 30
0.0
 11
186.10617609345641
 21
119.0507380501672
 31
0.0
  0
ARC
  5
14523
  8
0
 10
184.60617609345641
 20
142.05073805016721
 30
0.0
 40
1.5000000000000331
 50
311.81031489577509
 51
0.0
  0
ARC
  5
14524
  8
0
 10
184.60617609345641
 20
119.0507380501672
 30
0.0
 40
1.5000000000000031
 50
0.0
 51
48.189685104224971
  0
LINE
  5
14525
  8
0
 10
186.10617609345641
 20
142.05073805016721
 30
0.0
 11
186.10617609345641
 21
148.55073805016721
 31
0.0
  0
ARC
  5
14526
  8
0
 10
192.10617609345641
 20
148.55073805016721
 30
0.0
 40
6.0
 50
90.0
 51
180.0
  0
LINE
  5
14527
  8
0
 10
181.60617609345641
 20
120.5507380501672
 30
0.0
 11
184.60617609345641
 21
120.5507380501672
 31
0.0
  0
LINE
  5
14528
  8
0
 10
181.60617609345641
 20
140.55073805016721
 30
0.0
 11
181.60617609345641
 21
120.5507380501672
 31
0.0
  0
LINE
  5
14529
  8
0
 10
184.60617609345641
 20
140.55073805016721
 30
0.0
 11
181.60617609345641
 21
140.55073805016721
 31
0.0
  0
ARC
  5
1452A
  8
0
 10
184.60617609345641
 20
142.05073805016721
 30
0.0
 40
1.5000000000001059
 50
270.00000000000171
 51
311.81031489577509
  0
ARC
  5
1452B
  8
0
 10
184.60617609345641
 20
119.0507380501669
 30
0.0
 40
1.50000000000024
 50
48.189685104224971
 51
89.999999999996746
  0
CIRCLE
  5
1452C
  8
0
 10
193.60617609345641
 20
147.55073805016721
 30
0.0
 40
4.0000000000017728
  0
LINE
  5
14533
  8
0
 10
224.26569764400779
 20
145.64240390800481
 30
0.0
 11
233.51585118351929
 21
136.54023607201401
 31
0.0
  0
LINE
  5
14534
  8
0
 10
212.434261286652
 20
137.64330430682901
 30
0.0
 11
210.73970619660719
 21
139.31074958447061
 31
0.0
  0
ARC
  5
14537
  8
0
 10
228.6061760934565
 20
286.79158194346411
 30
0.0
 40
60.000000000011909
 50
266.1774462707242
 51
270.0
  0
ARC
  5
14538
  8
0
 10
228.6061760934565
 20
286.79158194346411
 30
0.0
 40
60.000000000011909
 50
270.0
 51
273.8225537292775
  0
ARC
  5
14539
  8
0
 10
228.6061760934565
 20
183.89158194343301
 30
0.0
 40
60.000000000021693
 50
91.910213171709813
 51
93.822553729288856
  0
ARC
  5
1453A
  8
0
 10
228.6061760934565
 20
183.89158194343301
 30
0.0
 40
60.000000000021679
 50
86.177446270711144
 51
88.089786828290187
  0
LINE
  5
1453B
  8
0
 10
224.6061760934565
 20
243.75810013183559
 30
0.0
 11
224.6061760934565
 21
242.39158194345259
 31
0.0
  0
LINE
  5
1453C
  8
0
 10
232.6061760934565
 20
242.39158194345259
 30
0.0
 11
232.6061760934565
 21
243.75810013183559
 31
0.0
  0
LINE
  5
1453D
  8
0
 10
224.6061760934565
 20
228.29158194345251
 30
0.0
 11
224.6061760934565
 21
226.9250637550694
 31
0.0
  0
LINE
  5
1453E
  8
0
 10
232.60617609345641
 20
226.9250637550694
 30
0.0
 11
232.60617609345641
 21
228.29158194345251
 31
0.0
  0
LINE
  5
1453F
  8
0
 10
225.6061760934565
 20
230.84158194338829
 30
0.0
 11
225.6061760934565
 21
230.79158194345251
 31
0.0
  0
LINE
  5
14540
  8
0
 10
231.6061760934565
 20
230.79158194345251
 30
0.0
 11
231.6061760934565
 21
230.84158194338829
 31
0.0
  0
ARC
  5
14545
  8
0
 10
193.60617609345641
 20
286.79158194346411
 30
0.0
 40
60.000000000011909
 50
266.1774462707242
 51
270.0
  0
ARC
  5
14546
  8
0
 10
193.60617609345641
 20
286.79158194346411
 30
0.0
 40
60.000000000011909
 50
270.0
 51
271.93409985390872
  0
ARC
  5
14547
  8
0
 10
193.60617609345641
 20
183.89158194343301
 30
0.0
 40
60.000000000021679
 50
91.910213171709813
 51
93.822553729288856
  0
LINE
  5
14549
  8
0
 10
189.60617609345641
 20
243.75810013183559
 30
0.0
 11
189.60617609345641
 21
242.39158194345239
 31
0.0
  0
LINE
  5
1454B
  8
0
 10
189.60617609345641
 20
228.29158194345251
 30
0.0
 11
189.60617609345641
 21
226.9250637550694
 31
0.0
  0
LINE
  5
1454D
  8
0
 10
190.60617609345641
 20
239.89158194345239
 30
0.0
 11
190.60617609345641
 21
237.89158194345279
 31
0.0
  0
LINE
  5
14550
  8
0
 10
206.77750600816901
 20
232.79158194345291
 30
0.0
 11
206.57750600812699
 21
232.59158194345241
 31
0.0
  0
LINE
  5
14551
  8
0
 10
206.57750600820279
 20
232.59158194345241
 30
0.0
 11
206.57750600820279
 21
231.09158194338241
 31
0.0
  0
LINE
  5
14553
  8
0
 10
206.57750600821129
 20
231.09158194338241
 30
0.0
 11
206.8275060081867
 21
230.84158194338829
 31
0.0
  0
LINE
  5
14556
  8
0
 10
235.6061760934565
 20
232.84158194345241
 30
0.0
 11
235.6061760934565
 21
237.8415819434525
 31
0.0
  0
LINE
  5
14558
  8
0
 10
206.57750600820279
 20
239.7415819434525
 30
0.0
 11
206.57750600820279
 21
238.0415819434568
 31
0.0
  0
LINE
  5
14559
  8
0
 10
206.7775060081467
 20
239.94158194343461
 30
0.0
 11
206.57750600817371
 21
239.7415819434525
 31
0.0
  0
LINE
  5
1455A
  8
0
 10
206.5775060081686
 20
238.0415819434568
 30
0.0
 11
206.72750600814101
 21
237.89158194345259
 31
0.0
  0
LINE
  5
14569
  8
0
 10
234.60617609345641
 20
238.0415819433999
 30
0.0
 11
234.60617609345641
 21
239.7415819434525
 31
0.0
  0
LINE
  5
1456A
  8
0
 10
222.6061760934565
 20
239.7415819434525
 30
0.0
 11
222.6061760934565
 21
238.0415819433999
 31
0.0
  0
LINE
  5
1456B
  8
0
 10
222.60617609345289
 20
238.0415819433999
 30
0.0
 11
222.80617609343099
 21
237.84158194339329
 31
0.0
  0
LINE
  5
1456C
  8
0
 10
234.40617609348189
 20
237.84158194339329
 30
0.0
 11
234.60617609345999
 21
238.0415819433999
 31
0.0
  0
LINE
  5
1456D
  8
0
 10
234.60617609353511
 20
239.7415819434525
 30
0.0
 11
234.4561760935139
 21
239.89158194345259
 31
0.0
  0
LINE
  5
1456E
  8
0
 10
222.75617609339901
 20
239.89158194345259
 30
0.0
 11
222.6061760933778
 21
239.7415819434525
 31
0.0
  0
LINE
  5
1456F
  8
0
 10
222.6061760934565
 20
232.59158194345241
 30
0.0
 11
222.6061760934565
 21
231.09158194338241
 31
0.0
  0
LINE
  5
14570
  8
0
 10
234.60617609345641
 20
231.09158194338241
 30
0.0
 11
234.60617609345641
 21
232.59158194345241
 31
0.0
  0
LINE
  5
14571
  8
0
 10
222.60617609345289
 20
231.09158194338241
 30
0.0
 11
222.85617609342819
 21
230.84158194338829
 31
0.0
  0
LINE
  5
14572
  8
0
 10
234.35617609348469
 20
230.84158194338829
 30
0.0
 11
234.60617609345999
 21
231.09158194338241
 31
0.0
  0
LINE
  5
14573
  8
0
 10
234.60617609354441
 20
232.59158194345241
 30
0.0
 11
234.35617609349001
 21
232.84158194345471
 31
0.0
  0
LINE
  5
14574
  8
0
 10
222.8561760934229
 20
232.84158194345471
 30
0.0
 11
222.6061760933685
 21
232.59158194345241
 31
0.0
  0
LINE
  5
14575
  8
0
 10
224.60617609345471
 20
226.9250637550694
 30
0.0
 11
232.6061760934582
 21
226.9250637550694
 31
0.0
  0
LINE
  5
14576
  8
0
 10
230.6061760934565
 20
243.85823934571451
 30
0.0
 11
226.60617609345641
 21
243.85823934571451
 31
0.0
  0
LINE
  5
14577
  8
0
 10
232.60617609345641
 20
243.75810013183559
 30
0.0
 11
224.6061760934565
 21
243.75810013183559
 31
0.0
  0
LINE
  5
1457D
  8
0
 10
186.10617609345641
 20
239.89158194345239
 30
0.0
 11
186.10617609345641
 21
242.39158194345239
 31
0.0
  0
LINE
  5
14589
  8
0
 10
186.10617609345641
 20
228.29158194345251
 30
0.0
 11
186.10617609345641
 21
230.79158194345251
 31
0.0
  0
LINE
  5
14598
  8
0
 10
185.6061760934565
 20
239.89158194345259
 30
0.0
 11
194.65617609345639
 21
239.89158194345259
 31
0.0
  0
ARC
  5
1459D
  8
0
 10
185.6061760934561
 20
238.39158194345509
 30
0.0
 40
3.9999999999973279
 50
89.999999999995111
 51
104.47751218593341
  0
ARC
  5
1459E
  8
0
 10
185.6061760934565
 20
238.39158194345219
 30
0.0
 40
1.500000000000252
 50
90.000000000003254
 51
125.2300674407456
  0
ARC
  5
145A2
  8
0
 10
185.60617609345661
 20
232.2915819434547
 30
0.0
 40
4.0000000000022453
 50
255.5224878140769
 51
269.99999999999841
  0
ARC
  5
145A4
  8
0
 10
185.6061760934565
 20
232.29158194345271
 30
0.0
 40
1.500000000000113
 50
234.76993255923361
 51
270.0
  0
LINE
  5
145A7
  8
0
 10
184.10617609345641
 20
233.4517854483916
 30
0.0
 11
184.10617609345641
 21
237.2313784385137
 31
0.0
  0
LINE
  5
145A8
  8
0
 10
181.60617609345641
 20
238.37200107165381
 30
0.0
 11
181.60617609345641
 21
232.29158194345251
 31
0.0
  0
ARC
  5
145AB
  8
0
 10
185.60617609345641
 20
238.39158194345259
 30
0.0
 40
4.0000000000000142
 50
104.47751218592791
 51
144.32053088949351
  0
ARC
  5
145AC
  8
0
 10
185.60617609345641
 20
232.29158194345251
 30
0.0
 40
4.0000000000000187
 50
215.67946911049839
 51
255.5224878140713
  0
LINE
  5
145AF
  8
0
 10
244.34793718126829
 20
242.39158194345259
 30
0.0
 11
185.6061760934561
 21
242.39158194345259
 31
0.0
  0
LINE
  5
145B2
  8
0
 10
235.6061760934565
 20
230.79158194345251
 30
0.0
 11
218.65617609345639
 21
230.7915819434526
 31
0.0
  0
LINE
  5
145B3
  8
0
 10
218.65617609345639
 20
239.89158194345259
 30
0.0
 11
235.6061760934565
 21
239.89158194345259
 31
0.0
  0
LINE
  5
145B7
  8
0
 10
211.4306889342524
 20
230.79158194345251
 30
0.0
 11
200.65617609345631
 21
230.79158194345251
 31
0.0
  0
LINE
  5
145BA
  8
0
 10
213.65617609345631
 20
237.84158194345261
 30
0.0
 11
211.96444633272961
 21
237.84158194345241
 31
0.0
  0
LINE
  5
145BF
  8
0
 10
235.6061760934565
 20
237.84158194345241
 30
0.0
 11
218.65617609345639
 21
237.8415819434525
 31
0.0
  0
LINE
  5
145C1
  8
0
 10
195.6061760934565
 20
243.85823934571451
 30
0.0
 11
191.60617609345641
 21
243.85823934571451
 31
0.0
  0
LINE
  5
145C5
  8
0
 10
213.65617609345631
 20
230.84158194338829
 30
0.0
 11
206.8275060081867
 21
230.84158194338829
 31
0.0
  0
LINE
  5
145C7
  8
0
 10
211.96444633272961
 20
232.84158194345221
 30
0.0
 11
213.65617609345631
 21
232.84158194345221
 31
0.0
  0
LINE
  5
145CC
  8
0
 10
218.65617609345639
 20
232.84158194345241
 30
0.0
 11
235.6061760934565
 21
232.84158194345241
 31
0.0
  0
LINE
  5
145DE
  8
0
 10
234.35617609348469
 20
230.84158194338829
 30
0.0
 11
222.85617609342819
 21
230.84158194338829
 31
0.0
  0
ARC
  5
145E0
  8
0
 10
3.1561760934447132
 20
131.55073805016721
 30
0.0
 40
60.000000000011909
 50
356.17744627072909
 51
0.0
  0
ARC
  5
145E1
  8
0
 10
3.1561760934447132
 20
131.55073805016721
 30
0.0
 40
60.000000000011909
 50
0.0
 51
3.822553729270874
  0
ARC
  5
145E2
  8
0
 10
106.0561760934757
 20
131.55073805016721
 30
0.0
 40
60.0000000000217
 50
181.91021317170819
 51
183.82255372928381
  0
ARC
  5
145E3
  8
0
 10
106.0561760934757
 20
131.55073805016721
 30
0.0
 40
60.0000000000217
 50
176.1774462707161
 51
178.08978682829181
  0
LINE
  5
145E4
  8
0
 10
46.18965790507314
 20
127.5507380501672
 30
0.0
 11
47.556176093456202
 21
127.5507380501672
 31
0.0
  0
LINE
  5
145E5
  8
0
 10
47.556176093456202
 20
135.55073805016721
 30
0.0
 11
46.18965790507314
 21
135.55073805016721
 31
0.0
  0
LINE
  5
145E6
  8
0
 10
61.656176093456217
 20
127.5507380501672
 30
0.0
 11
63.022694281839222
 21
127.5507380501672
 31
0.0
  0
LINE
  5
145E7
  8
0
 10
63.022694281839222
 20
135.55073805016721
 30
0.0
 11
61.656176093456217
 21
135.55073805016721
 31
0.0
  0
LINE
  5
145FF
  8
0
 10
63.022694281839222
 20
127.5507380501635
 30
0.0
 11
63.022694281839222
 21
135.55073805017079
 31
0.0
  0
LINE
  5
14600
  8
0
 10
46.089518691194201
 20
133.55073805016721
 30
0.0
 11
46.089518691194201
 21
129.55073805016721
 31
0.0
  0
LINE
  5
14601
  8
0
 10
46.189657905073169
 20
135.55073805016721
 30
0.0
 11
46.18965790507314
 21
127.5507380501503
 31
0.0
  0
POLYLINE
  5
14603
  8
0
 66
     1
 10
0.0
 20
0.0
 30
0.0
 70
   128
  0
VERTEX
  5
14CD3
  8
0
 10
47.556176093456372
 20
120.168772038917
 30
0.0
  0
VERTEX
  5
14CD4
  8
0
 10
47.576887391539508
 20
120.4283394973304
 30
0.0
  0
VERTEX
  5
14CD5
  8
0
 10
47.651762813433884
 20
120.54502671949029
 30
0.0
  0
VERTEX
  5
14CD6
  8
0
 10
47.683192747248938
 20
120.5507380501672
 30
0.0
  0
SEQEND
  5
14CD7
  8
0
  0
LINE
  5
14604
  8
0
 10
47.556176093456372
 20
139.06812441577631
 30
0.0
 11
47.556176093456372
 21
102.07073805016709
 31
0.0
  0
LINE
  5
14607
  8
0
 10
51.556176093456372
 20
120.5507380501672
 30
0.0
 11
47.683192747248938
 21
120.5507380501672
 31
0.0
  0
LINE
  5
1460A
  8
0
 10
57.656176093456388
 20
120.5507380501672
 30
0.0
 11
57.606176093456362
 21
120.5507380501672
 31
0.0
  0
POLYLINE
  5
1460C
  8
0
 66
     1
 10
0.0
 20
0.0
 30
0.0
 70
   128
  0
VERTEX
  5
14CD8
  8
0
 10
61.529159439663772
 20
120.5507380501672
 30
0.0
  0
VERTEX
  5
14CD9
  8
0
 10
61.620650763366939
 20
120.47583545532009
 30
0.0
  0
VERTEX
  5
14CDA
  8
0
 10
61.654817750239033
 20
120.25390253085131
 30
0.0
  0
VERTEX
  5
14CDB
  8
0
 10
61.656176093456338
 20
120.168772038917
 30
0.0
  0
SEQEND
  5
14CDC
  8
0
  0
LINE
  5
1460E
  8
0
 10
61.656176093456338
 20
139.06812441577651
 30
0.0
 11
61.656176093456338
 21
102.07073805016741
 31
0.0
  0
LINE
  5
1460F
  8
0
 10
57.656176093456388
 20
120.5507380501672
 30
0.0
 11
61.529159439663772
 21
120.5507380501672
 31
0.0
  0
POLYLINE
  5
14612
  8
0
 66
     1
 10
0.0
 20
0.0
 30
0.0
 70
   128
  0
VERTEX
  5
14CDD
  8
0
 10
50.056176093456372
 20
120.168772038917
 30
0.0
  0
VERTEX
  5
14CDE
  8
0
 10
50.091609474222871
 20
120.38982995552421
 30
0.0
  0
VERTEX
  5
14CDF
  8
0
 10
50.217586333476099
 20
120.5155242729263
 30
0.0
  0
VERTEX
  5
14CE0
  8
0
 10
50.438142104706458
 20
120.5507380501672
 30
0.0
  0
SEQEND
  5
14CE1
  8
0
  0
POLYLINE
  5
14613
  8
0
 66
     1
 10
0.0
 20
0.0
 30
0.0
 70
   128
  0
VERTEX
  5
14CE2
  8
0
 10
58.774210082206253
 20
120.5507380501672
 30
0.0
  0
VERTEX
  5
14CE3
  8
0
 10
58.995267998813461
 20
120.51530466940061
 30
0.0
  0
VERTEX
  5
14CE4
  8
0
 10
59.120962316215461
 20
120.38932781014751
 30
0.0
  0
VERTEX
  5
14CE5
  8
0
 10
59.156176093456338
 20
120.168772038917
 30
0.0
  0
SEQEND
  5
14CE6
  8
0
  0
LINE
  5
14615
  8
0
 10
50.056176093456372
 20
120.168772038917
 30
0.0
 11
50.056176093456372
 21
116.8407380501671
 31
0.0
  0
LINE
  5
14620
  8
0
 10
59.156176093456338
 20
116.8407380501671
 30
0.0
 11
59.156176093456338
 21
120.168772038917
 31
0.0
  0
LINE
  5
14622
  8
0
 10
50.056176093456372
 20
102.07073805016741
 30
0.0
 11
50.056176093456372
 21
113.34073805017781
 31
0.0
  0
LINE
  5
14624
  8
0
 10
47.556176093456308
 20
102.07073805016709
 30
0.0
 11
50.056176093456372
 21
102.07073805016709
 31
0.0
  0
LINE
  5
14630
  8
0
 10
61.656176093456338
 20
102.07073805016709
 30
0.0
 11
59.156176093456338
 21
102.07073805016709
 31
0.0
  0
ARC
  5
14657
  8
0
 10
434.80617609346831
 20
131.55073805016721
 30
0.0
 40
60.00000000001188
 50
176.17744627072909
 51
180.0
  0
ARC
  5
14658
  8
0
 10
434.80617609346831
 20
131.55073805016721
 30
0.0
 40
60.00000000001188
 50
180.0
 51
183.82255372928381
  0
ARC
  5
14659
  8
0
 10
331.90617609343741
 20
131.55073805016721
 30
0.0
 40
60.000000000021657
 50
1.9102131717081761
 51
3.8225537292838729
  0
ARC
  5
1465A
  8
0
 10
331.90617609343741
 20
131.55073805016721
 30
0.0
 40
60.000000000021657
 50
356.17744627071608
 51
358.08978682829178
  0
LINE
  5
1465B
  8
0
 10
391.7726942818399
 20
135.55073805016721
 30
0.0
 11
390.40617609345679
 21
135.55073805016721
 31
0.0
  0
LINE
  5
1465C
  8
0
 10
390.40617609345679
 20
127.5507380501672
 30
0.0
 11
391.7726942818399
 21
127.5507380501672
 31
0.0
  0
LINE
  5
1465D
  8
0
 10
376.30617609345683
 20
135.55073805016721
 30
0.0
 11
374.93965790507377
 21
135.55073805016721
 31
0.0
  0
LINE
  5
1465E
  8
0
 10
374.93965790507377
 20
127.5507380501672
 30
0.0
 11
376.30617609345683
 21
127.5507380501672
 31
0.0
  0
LINE
  5
1465F
  8
0
 10
378.85617609339272
 20
134.55073805016721
 30
0.0
 11
378.80617609345683
 21
134.55073805016721
 31
0.0
  0
LINE
  5
14660
  8
0
 10
378.80617609345683
 20
128.55073805016721
 30
0.0
 11
378.85617609339272
 21
128.55073805016721
 31
0.0
  0
LINE
  5
14661
  8
0
 10
390.40617609345679
 20
138.5507380501671
 30
0.0
 11
387.90617609345679
 21
138.5507380501671
 31
0.0
  0
LINE
  5
14662
  8
0
 10
378.80617609345683
 20
138.5507380501671
 30
0.0
 11
376.30617609345683
 21
138.5507380501671
 31
0.0
  0
LINE
  5
1466A
  8
0
 10
380.60617609345678
 20
139.60255612812301
 30
0.0
 11
380.85617609345911
 21
139.85255612817741
 31
0.0
  0
LINE
  5
1466D
  8
0
 10
379.10617609338681
 20
139.60255612819881
 30
0.0
 11
380.60617609345678
 21
139.60255612819881
 31
0.0
  0
LINE
  5
1466F
  8
0
 10
378.85617609339272
 20
139.85255612818261
 30
0.0
 11
379.10617609338681
 21
139.6025561282074
 31
0.0
  0
LINE
  5
14670
  8
0
 10
380.85617609345678
 20
124.5507380501672
 30
0.0
 11
385.85617609345678
 21
124.5507380501672
 31
0.0
  0
LINE
  5
14672
  8
0
 10
387.75617609345687
 20
139.6025561281696
 30
0.0
 11
387.95617609340678
 21
139.8025561281338
 31
0.0
  0
LINE
  5
14673
  8
0
 10
386.0561760934612
 20
139.60255612819881
 30
0.0
 11
387.75617609345687
 21
139.60255612819881
 31
0.0
  0
LINE
  5
14676
  8
0
 10
385.85617609339772
 20
139.80255612818539
 30
0.0
 11
386.0561760934612
 21
139.60255612816471
 31
0.0
  0
LINE
  5
14684
  8
0
 10
386.05617609340442
 20
125.5507380501672
 30
0.0
 11
387.75617609345682
 21
125.5507380501672
 31
0.0
  0
LINE
  5
14685
  8
0
 10
387.75617609345682
 20
137.5507380501671
 30
0.0
 11
386.05617609340442
 21
137.5507380501671
 31
0.0
  0
LINE
  5
14686
  8
0
 10
386.05617609340442
 20
137.55073805017079
 30
0.0
 11
385.85617609339772
 21
137.3507380501926
 31
0.0
  0
LINE
  5
14687
  8
0
 10
385.85617609339772
 20
125.75073805014171
 30
0.0
 11
386.05617609340442
 21
125.5507380501635
 31
0.0
  0
LINE
  5
14688
  8
0
 10
387.75617609345682
 20
125.5507380500885
 30
0.0
 11
387.90617609345679
 21
125.70073805010971
 31
0.0
  0
LINE
  5
14689
  8
0
 10
387.90617609345679
 20
137.40073805022459
 30
0.0
 11
387.75617609345682
 21
137.5507380502458
 31
0.0
  0
LINE
  5
1468A
  8
0
 10
380.60617609345678
 20
137.5507380501671
 30
0.0
 11
379.10617609338681
 21
137.5507380501671
 31
0.0
  0
LINE
  5
1468B
  8
0
 10
379.10617609338681
 20
125.5507380501672
 30
0.0
 11
380.60617609345678
 21
125.5507380501672
 31
0.0
  0
LINE
  5
1468C
  8
0
 10
379.10617609338681
 20
137.55073805017079
 30
0.0
 11
378.85617609339272
 21
137.30073805019541
 31
0.0
  0
LINE
  5
1468D
  8
0
 10
378.85617609339272
 20
125.800738050139
 30
0.0
 11
379.10617609338681
 21
125.5507380501635
 31
0.0
  0
LINE
  5
1468E
  8
0
 10
380.60617609345678
 20
125.5507380500792
 30
0.0
 11
380.85617609345911
 21
125.8007380501335
 31
0.0
  0
LINE
  5
1468F
  8
0
 10
380.85617609345911
 20
137.30073805020081
 30
0.0
 11
380.60617609345678
 21
137.55073805025509
 31
0.0
  0
LINE
  5
14690
  8
0
 10
374.93965790507377
 20
135.55073805016721
 30
0.0
 11
374.93965790507377
 21
127.5507380501635
 31
0.0
  0
LINE
  5
14692
  8
0
 10
391.87283349571879
 20
129.55073805016721
 30
0.0
 11
391.87283349571879
 21
133.55073805016721
 31
0.0
  0
LINE
  5
14693
  8
0
 10
391.7726942818399
 20
127.5507380501503
 30
0.0
 11
391.7726942818399
 21
135.55073805018401
 31
0.0
  0
LINE
  5
146A6
  8
0
 10
390.40617609345691
 20
102.07073805016709
 30
0.0
 11
387.90617609345691
 21
102.07073805016709
 31
0.0
  0
LINE
  5
146AD
  8
0
 10
376.30617609345688
 20
102.07073805016709
 30
0.0
 11
378.80617609345688
 21
102.07073805016709
 31
0.0
  0
LINE
  5
146B2
  8
0
 10
387.90617609345691
 20
139.7525561281804
 30
0.0
 11
387.90617609345691
 21
102.07073805016709
 31
0.0
  0
LINE
  5
146B5
  8
0
 10
378.80617609345688
 20
102.07073805016741
 30
0.0
 11
378.80617609345688
 21
143.64677342347559
 31
0.0
  0
POLYLINE
  5
146C2
  8
0
 66
     1
 10
0.0
 20
0.0
 30
0.0
 70
   128
  0
VERTEX
  5
14CE7
  8
0
 10
387.90617609345702
 20
120.168772038917
 30
0.0
  0
VERTEX
  5
14CE8
  8
0
 10
387.87074271269051
 20
120.38982995552421
 30
0.0
  0
VERTEX
  5
14CE9
  8
0
 10
387.74476585343717
 20
120.5155242729263
 30
0.0
  0
VERTEX
  5
14CEA
  8
0
 10
387.52421008220688
 20
120.5507380501672
 30
0.0
  0
SEQEND
  5
14CEB
  8
0
  0
POLYLINE
  5
146C3
  8
0
 66
     1
 10
0.0
 20
0.0
 30
0.0
 70
   128
  0
VERTEX
  5
14CEC
  8
0
 10
378.806176093457
 20
140.9327040614173
 30
0.0
  0
VERTEX
  5
14CED
  8
0
 10
378.84160947422362
 20
140.7116461448102
 30
0.0
  0
VERTEX
  5
14CEE
  8
0
 10
378.85617609339272
 20
140.69711219576419
 30
0.0
  0
SEQEND
  5
14CEF
  8
0
  0
POLYLINE
  5
146C4
  8
0
 66
     1
 10
0.0
 20
0.0
 30
0.0
 70
   128
  0
VERTEX
  5
14CF0
  8
0
 10
379.18814210470708
 20
120.5507380501672
 30
0.0
  0
VERTEX
  5
14CF1
  8
0
 10
378.96708418809988
 20
120.51530466940061
 30
0.0
  0
VERTEX
  5
14CF2
  8
0
 10
378.84138987069792
 20
120.38932781014751
 30
0.0
  0
VERTEX
  5
14CF3
  8
0
 10
378.806176093457
 20
120.168772038917
 30
0.0
  0
SEQEND
  5
14CF4
  8
0
  0
LINE
  5
146C6
  8
0
 10
387.52421008220688
 20
120.5507380501672
 30
0.0
 11
379.18814210470708
 21
120.5507380501672
 31
0.0
  0
LINE
  5
146CA
  8
0
 10
385.85617609345678
 20
124.5507380501672
 30
0.0
 11
385.85617609345672
 21
147.88982186440711
 31
0.0
  0
LINE
  5
146D5
  8
0
 10
378.85617609339272
 20
139.85255612818261
 30
0.0
 11
378.85617609339261
 21
147.88982186440711
 31
0.0
  0
LINE
  5
146D6
  8
0
 10
380.85617609345678
 20
147.88982186440711
 30
0.0
 11
380.85617609345678
 21
124.5507380501672
 31
0.0
  0
LINE
  5
146E6
  8
0
 10
391.87283349571879
 20
144.3207380501687
 30
0.0
 11
391.87283349571879
 21
147.88982186440711
 31
0.0
  0
LINE
  5
146E9
  8
0
 10
376.30617609345688
 20
147.88982186440711
 30
0.0
 11
376.30617609345688
 21
102.07073805016709
 31
0.0
  0
LINE
  5
146EF
  8
0
 10
378.85617609339272
 20
125.800738050139
 30
0.0
 11
378.85617609339272
 21
137.30073805019541
 31
0.0
  0
ARC
  5
146F4
  8
0
 10
228.6061760934565
 20
-8.1292619498442491
 30
0.0
 40
60.000000000011909
 50
86.177446270722513
 51
90.0
  0
ARC
  5
146F5
  8
0
 10
228.6061760934565
 20
-8.1292619498442491
 30
0.0
 40
60.000000000011909
 50
90.0
 51
93.822553729277487
  0
ARC
  5
146F6
  8
0
 10
228.6061760934565
 20
94.770738050186523
 30
0.0
 40
60.000000000021679
 50
271.91021317170981
 51
273.82255372929052
  0
ARC
  5
146F7
  8
0
 10
228.6061760934565
 20
94.770738050186523
 30
0.0
 40
60.000000000021693
 50
266.17744627071119
 51
268.08978682829178
  0
LINE
  5
146F8
  8
0
 10
232.6061760934565
 20
34.904219861783993
 30
0.0
 11
232.6061760934565
 21
36.270738050167211
 31
0.0
  0
LINE
  5
146F9
  8
0
 10
224.6061760934565
 20
36.270738050167211
 30
0.0
 11
224.6061760934565
 21
34.904219861783993
 31
0.0
  0
LINE
  5
146FA
  8
0
 10
232.60617609345641
 20
50.37073805016712
 30
0.0
 11
232.60617609345641
 21
51.737256238550117
 31
0.0
  0
LINE
  5
146FB
  8
0
 10
224.6061760934565
 20
51.737256238550117
 30
0.0
 11
224.6061760934565
 21
50.37073805016712
 31
0.0
  0
LINE
  5
146FC
  8
0
 10
231.6061760934565
 20
47.820738050231277
 30
0.0
 11
231.6061760934565
 21
47.87073805016712
 31
0.0
  0
LINE
  5
146FD
  8
0
 10
225.6061760934565
 20
47.87073805016712
 30
0.0
 11
225.6061760934565
 21
47.820738050231277
 31
0.0
  0
LINE
  5
146FE
  8
0
 10
235.6061760934565
 20
36.270738050167211
 30
0.0
 11
235.6061760934565
 21
38.770738050167211
 31
0.0
  0
LINE
  5
146FF
  8
0
 10
235.6061760934565
 20
47.87073805016712
 30
0.0
 11
235.6061760934565
 21
50.37073805016712
 31
0.0
  0
LINE
  5
14700
  8
0
 10
235.6061760934565
 20
40.820738050167158
 30
0.0
 11
235.6061760934565
 21
45.820738050167158
 31
0.0
  0
LINE
  5
14701
  8
0
 10
205.57750600820279
 20
45.820738050167158
 30
0.0
 11
205.57750600820279
 21
40.820738050167158
 31
0.0
  0
ARC
  5
14702
  8
0
 10
193.60617609345641
 20
-8.1292619498444765
 30
0.0
 40
60.000000000011909
 50
86.177446270722513
 51
90.0
  0
ARC
  5
14703
  8
0
 10
193.60617609345641
 20
-8.1292619498444765
 30
0.0
 40
60.000000000011909
 50
90.0
 51
93.822553729277487
  0
ARC
  5
14704
  8
0
 10
193.60617609345641
 20
94.770738050186523
 30
0.0
 40
60.0000000000217
 50
271.91021317170981
 51
273.82255372929052
  0
ARC
  5
14705
  8
0
 10
193.60617609345641
 20
94.770738050186523
 30
0.0
 40
60.0000000000217
 50
266.17744627071119
 51
268.08978682829178
  0
LINE
  5
14706
  8
0
 10
197.60617609345641
 20
34.904219861783993
 30
0.0
 11
197.60617609345641
 21
36.270738050166983
 31
0.0
  0
LINE
  5
14707
  8
0
 10
189.60617609345641
 20
36.270738050166983
 30
0.0
 11
189.60617609345641
 21
34.904219861783993
 31
0.0
  0
LINE
  5
14708
  8
0
 10
197.60617609345641
 20
50.37073805016712
 30
0.0
 11
197.60617609345641
 21
51.737256238550117
 31
0.0
  0
LINE
  5
14709
  8
0
 10
189.60617609345641
 20
51.737256238550117
 30
0.0
 11
189.60617609345641
 21
50.37073805016712
 31
0.0
  0
LINE
  5
1470A
  8
0
 10
196.60617609345641
 20
38.770738050167211
 30
0.0
 11
196.60617609345641
 21
40.770738050167438
 31
0.0
  0
LINE
  5
1470B
  8
0
 10
190.60617609345641
 20
47.87073805016734
 30
0.0
 11
190.60617609345641
 21
45.870738050167567
 31
0.0
  0
LINE
  5
1470C
  8
0
 10
218.5775060082029
 20
46.070738050167172
 30
0.0
 11
218.5775060082029
 21
47.570738050237189
 31
0.0
  0
LINE
  5
1470D
  8
0
 10
206.57750600820279
 20
47.570738050237189
 30
0.0
 11
206.57750600820279
 21
46.070738050167172
 31
0.0
  0
LINE
  5
1470E
  8
0
 10
206.57750600812699
 20
46.070738050167172
 30
0.0
 11
206.8275060081813
 21
45.820738050164891
 31
0.0
  0
LINE
  5
1470F
  8
0
 10
218.3275060082243
 20
45.820738050164891
 30
0.0
 11
218.57750600827879
 21
46.070738050167172
 31
0.0
  0
LINE
  5
14710
  8
0
 10
218.57750600819429
 20
47.570738050237189
 30
0.0
 11
218.3275060082191
 21
47.820738050231277
 31
0.0
  0
LINE
  5
14711
  8
0
 10
206.8275060081867
 20
47.820738050231277
 30
0.0
 11
206.57750600821129
 21
47.570738050237189
 31
0.0
  0
LINE
  5
14714
  8
0
 10
218.42750600822151
 20
38.770738050167211
 30
0.0
 11
218.57750600823201
 21
38.920738050167067
 31
0.0
  0
LINE
  5
14715
  8
0
 10
206.57750600820279
 20
40.620738050162799
 30
0.0
 11
206.57750600820279
 21
38.920738050167067
 31
0.0
  0
LINE
  5
14716
  8
0
 10
218.57750600820279
 20
38.920738050167067
 30
0.0
 11
218.57750600820279
 21
40.620738050162799
 31
0.0
  0
LINE
  5
14717
  8
0
 10
218.57750600823709
 20
40.620738050162799
 30
0.0
 11
218.37750600821619
 21
40.820738050226282
 31
0.0
  0
LINE
  5
14718
  8
0
 10
206.7775060081895
 20
40.820738050226282
 30
0.0
 11
206.5775060081686
 21
40.620738050162799
 31
0.0
  0
LINE
  5
14719
  8
0
 10
206.57750600817371
 20
38.920738050167067
 30
0.0
 11
206.7275060081667
 21
38.770738050167211
 31
0.0
  0
LINE
  5
14722
  8
0
 10
217.4306889342524
 20
47.820738050231277
 30
0.0
 11
217.4306889342524
 21
47.87073805016734
 31
0.0
  0
LINE
  5
14723
  8
0
 10
211.4306889342524
 20
47.87073805016734
 30
0.0
 11
211.4306889342524
 21
47.820738050231277
 31
0.0
  0
LINE
  5
14724
  8
0
 10
222.6061760934565
 20
40.620738050219643
 30
0.0
 11
222.6061760934565
 21
38.920738050167067
 31
0.0
  0
LINE
  5
14725
  8
0
 10
234.60617609345641
 20
38.920738050167067
 30
0.0
 11
234.60617609345641
 21
40.620738050219643
 31
0.0
  0
LINE
  5
14726
  8
0
 10
234.60617609345999
 20
40.620738050219643
 30
0.0
 11
234.40617609348189
 21
40.820738050226282
 31
0.0
  0
LINE
  5
14727
  8
0
 10
222.80617609343099
 20
40.820738050226282
 30
0.0
 11
222.60617609345289
 21
40.620738050219643
 31
0.0
  0
LINE
  5
14728
  8
0
 10
222.6061760933778
 20
38.920738050167067
 30
0.0
 11
222.75617609339889
 21
38.770738050167211
 31
0.0
  0
LINE
  5
14729
  8
0
 10
234.4561760935139
 20
38.770738050167211
 30
0.0
 11
234.60617609353511
 21
38.920738050167067
 31
0.0
  0
LINE
  5
1472A
  8
0
 10
234.60617609345641
 20
46.070738050167172
 30
0.0
 11
234.60617609345641
 21
47.570738050237189
 31
0.0
  0
LINE
  5
1472B
  8
0
 10
222.6061760934565
 20
47.570738050237189
 30
0.0
 11
222.6061760934565
 21
46.070738050167172
 31
0.0
  0
LINE
  5
1472C
  8
0
 10
234.60617609345999
 20
47.570738050237189
 30
0.0
 11
234.35617609348469
 21
47.820738050231277
 31
0.0
  0
LINE
  5
1472D
  8
0
 10
222.85617609342819
 20
47.820738050231277
 30
0.0
 11
222.60617609345289
 21
47.570738050237189
 31
0.0
  0
LINE
  5
1472E
  8
0
 10
222.6061760933685
 20
46.070738050167172
 30
0.0
 11
222.8561760934229
 21
45.820738050164891
 31
0.0
  0
LINE
  5
1472F
  8
0
 10
234.35617609349001
 20
45.820738050164891
 30
0.0
 11
234.60617609354441
 21
46.070738050167172
 31
0.0
  0
LINE
  5
14730
  8
0
 10
232.6061760934582
 20
51.737256238550117
 30
0.0
 11
224.60617609345471
 21
51.737256238550117
 31
0.0
  0
LINE
  5
14731
  8
0
 10
228.6061760934565
 20
34.804080647905039
 30
0.0
 11
230.6061760934565
 21
34.804080647905039
 31
0.0
  0
LINE
  5
14732
  8
0
 10
226.60617609345641
 20
34.804080647905039
 30
0.0
 11
228.6061760934565
 21
34.804080647905039
 31
0.0
  0
LINE
  5
14733
  8
0
 10
224.6061760934565
 20
34.904219861783993
 30
0.0
 11
232.60617609345641
 21
34.904219861783993
 31
0.0
  0
LINE
  5
14736
  8
0
 10
225.1061760934565
 20
36.270738050167211
 30
0.0
 11
225.1061760934565
 21
38.770738050167211
 31
0.0
  0
LINE
  5
1473B
  8
0
 10
186.10617609345641
 20
36.270738050167211
 30
0.0
 11
186.10617609345641
 21
38.770738050167211
 31
0.0
  0
LINE
  5
1473E
  8
0
 10
225.1061760934565
 20
50.37073805016712
 30
0.0
 11
225.1061760934565
 21
47.87073805016712
 31
0.0
  0
LINE
  5
14745
  8
0
 10
186.10617609345641
 20
50.37073805016712
 30
0.0
 11
186.10617609345641
 21
47.87073805016712
 31
0.0
  0
ARC
  5
1474E
  8
0
 10
185.6061760934565
 20
40.270738050167431
 30
0.0
 40
4.0000000000002949
 50
255.52248781407209
 51
270.0
  0
ARC
  5
14750
  8
0
 10
185.60617609345641
 20
40.270738050167211
 30
0.0
 40
1.499999999999946
 50
228.18968510422499
 51
270.00000000000171
  0
LINE
  5
14751
  8
0
 10
185.60617609345641
 20
38.770738050167211
 30
0.0
 11
235.6061760934565
 21
38.770738050167211
 31
0.0
  0
LINE
  5
14752
  8
0
 10
251.21458999382
 20
36.270738050167211
 30
0.0
 11
185.60617609345641
 21
36.270738050167211
 31
0.0
  0
ARC
  5
14753
  8
0
 10
185.6061760934563
 20
46.370738050167347
 30
0.0
 40
3.9999999999997509
 50
89.999999999998366
 51
104.47751218592791
  0
ARC
  5
14754
  8
0
 10
185.60617609345641
 20
46.370738050167112
 30
0.0
 40
1.4999999999999849
 50
89.999999999998366
 51
131.81031489577501
  0
LINE
  5
14756
  8
0
 10
185.60617609345641
 20
50.37073805016712
 30
0.0
 11
251.21458999382
 21
50.37073805016712
 31
0.0
  0
LINE
  5
14757
  8
0
 10
235.6061760934565
 20
47.87073805016712
 30
0.0
 11
185.60617609345641
 21
47.87073805016712
 31
0.0
  0
LINE
  5
14758
  8
0
 10
184.10617609345641
 20
40.270738050167211
 30
0.0
 11
184.10617609345641
 21
46.370738050167112
 31
0.0
  0
LINE
  5
14759
  8
0
 10
181.60617609345641
 20
46.370738050167112
 30
0.0
 11
181.60617609345641
 21
40.270738050167211
 31
0.0
  0
ARC
  5
1475A
  8
0
 10
185.60617609345641
 20
46.370738050167112
 30
0.0
 40
1.5
 50
131.81031489577501
 51
180.0
  0
ARC
  5
1475B
  8
0
 10
185.60617609345641
 20
40.270738050167211
 30
0.0
 40
1.5
 50
180.0
 51
228.18968510422499
  0
ARC
  5
1475C
  8
0
 10
185.60617609345641
 20
46.370738050167112
 30
0.0
 40
4.0000000000000142
 50
104.47751218592791
 51
180.0
  0
ARC
  5
1475D
  8
0
 10
185.60617609345641
 20
40.270738050167211
 30
0.0
 40
4.0000000000000142
 50
180.0
 51
255.5224878140713
  0
LINE
  5
1476A
  8
0
 10
205.57750600820279
 20
40.820738050167158
 30
0.0
 11
235.6061760934565
 21
40.820738050167158
 31
0.0
  0
LINE
  5
14770
  8
0
 10
201.65617609345639
 20
51.73725623854989
 30
0.0
 11
189.6061760934528
 21
51.737256238550117
 31
0.0
  0
LINE
  5
14771
  8
0
 10
191.60617609345749
 20
34.804080647904982
 30
0.0
 11
195.6061760934565
 21
34.804080647905039
 31
0.0
  0
LINE
  5
14773
  8
0
 10
189.60617609345641
 20
34.904219861783993
 30
0.0
 11
201.65617609345639
 21
34.904219861783993
 31
0.0
  0
LINE
  5
14777
  8
0
 10
206.8275060081867
 20
47.820738050231277
 30
0.0
 11
218.3275060082191
 21
47.820738050231277
 31
0.0
  0
LINE
  5
14779
  8
0
 10
235.6061760934565
 20
45.820738050167158
 30
0.0
 11
205.57750600820279
 21
45.820738050167158
 31
0.0
  0
LINE
  5
1478E
  8
0
 10
222.85617609342819
 20
47.820738050231277
 30
0.0
 11
234.35617609348469
 21
47.820738050231277
 31
0.0
  0
ARC
  5
148DB
  8
0
 10
276.9656984873281
 20
86.270568379414271
 30
0.0
 40
90.321013734980497
 50
89.752296972845713
 51
100.9195297723852
  0
ARC
  5
148DC
  8
0
 10
277.74661505159952
 20
86.270154586907665
 30
0.0
 40
90.321427356545399
 50
79.080495878701484
 51
90.247677376068637
  0
ARC
  5
148DD
  8
0
 10
277.70445719963129
 20
215.50799588671589
 30
0.0
 40
67.618154788956161
 50
269.70488508944311
 51
284.69393359362061
  0
ARC
  5
148DE
  8
0
 10
277.00756680446261
 20
215.50539783681731
 30
0.0
 40
67.615558464755082
 50
255.3057769765318
 51
270.29540434040911
  0
LINE
  5
148DF
  8
0
 10
278.06019188036811
 20
166.1407380501673
 30
0.0
 11
276.6521603065446
 21
166.1407380501673
 31
0.0
  0
LINE
  5
148E0
  8
0
 10
278.06019188036811
 20
159.6407380501673
 30
0.0
 11
278.06019188036811
 21
166.1407380501673
 31
0.0
  0
LINE
  5
148E1
  8
0
 10
276.6521603065446
 20
159.6407380501673
 30
0.0
 11
278.06019188036811
 21
159.6407380501673
 31
0.0
  0
LINE
  5
148E2
  8
0
 10
276.6521603065446
 20
166.1407380501673
 30
0.0
 11
276.6521603065446
 21
159.6407380501673
 31
0.0
  0
LINE
  5
148E3
  8
0
 10
283.0589088632745
 20
159.6407380501673
 30
0.0
 11
283.0589088632745
 21
166.1407380501673
 31
0.0
  0
LINE
  5
148E4
  8
0
 10
281.65650769984671
 20
166.1407380501673
 30
0.0
 11
281.65650769984671
 21
159.6407380501673
 31
0.0
  0
LINE
  5
148E5
  8
0
 10
281.65650769984671
 20
166.1407380501673
 30
0.0
 11
283.0589088632745
 21
166.1407380501673
 31
0.0
  0
LINE
  5
148E6
  8
0
 10
281.65650769984671
 20
159.6407380501673
 30
0.0
 11
283.0589088632745
 21
159.6407380501673
 31
0.0
  0
LINE
  5
148E7
  8
0
 10
273.05584448706622
 20
159.6407380501673
 30
0.0
 11
273.05584448706622
 21
166.1407380501673
 31
0.0
  0
LINE
  5
148E8
  8
0
 10
271.6534433236381
 20
166.1407380501673
 30
0.0
 11
271.6534433236381
 21
159.6407380501673
 31
0.0
  0
LINE
  5
148E9
  8
0
 10
271.6534433236381
 20
166.1407380501673
 30
0.0
 11
273.05584448706622
 21
166.1407380501673
 31
0.0
  0
LINE
  5
148EA
  8
0
 10
271.6534433236381
 20
159.6407380501673
 30
0.0
 11
273.05584448706622
 21
159.6407380501673
 31
0.0
  0
LINE
  5
148F7
  8
0
 10
268.04361457633979
 20
159.6407380501673
 30
0.0
 11
268.04361457633979
 21
166.1407380501673
 31
0.0
  0
LINE
  5
148F8
  8
0
 10
266.65825188670408
 20
159.6407380501673
 30
0.0
 11
268.04361457633979
 21
159.6407380501673
 31
0.0
  0
LINE
  5
148F9
  8
0
 10
266.65825188670408
 20
166.1407380501673
 30
0.0
 11
266.65825188670408
 21
159.6407380501673
 31
0.0
  0
LINE
  5
148FA
  8
0
 10
266.65825188670408
 20
166.1407380501673
 30
0.0
 11
268.04361457633979
 21
166.1407380501673
 31
0.0
  0
LINE
  5
148FB
  8
0
 10
288.0541003002088
 20
159.6407380501673
 30
0.0
 11
288.0541003002088
 21
166.1407380501673
 31
0.0
  0
LINE
  5
148FC
  8
0
 10
286.66873761057298
 20
166.1407380501673
 30
0.0
 11
286.66873761057298
 21
159.6407380501673
 31
0.0
  0
LINE
  5
148FD
  8
0
 10
286.66873761057298
 20
166.1407380501673
 30
0.0
 11
288.0541003002088
 21
166.1407380501673
 31
0.0
  0
LINE
  5
148FE
  8
0
 10
286.66873761057298
 20
159.6407380501673
 30
0.0
 11
288.0541003002088
 21
159.6407380501673
 31
0.0
  0
ARC
  5
14907
  8
0
 10
290.4919172022382
 20
175.9658539847396
 30
0.0
 40
26.230153096280841
 50
279.57760140996447
 51
310.90345711961038
  0
ARC
  5
14908
  8
0
 10
287.85408288830888
 20
134.259245308488
 30
0.0
 40
41.294979542318728
 50
61.328211145787812
 51
80.237598500258017
  0
ARC
  5
14909
  8
0
 10
264.22043498467468
 20
175.96585398474051
 30
0.0
 40
26.230153096281391
 50
229.09654288039081
 51
260.42239859002859
  0
ARC
  5
1490A
  8
0
 10
266.85970974937499
 20
134.25511286775051
 30
0.0
 40
41.299296395907568
 50
99.763398829334307
 51
118.67079152461839
  0
ARC
  5
1490B
  8
0
 10
253.27192583753089
 20
165.1375485395142
 30
0.0
 40
10.94137243127811
 50
216.39033233200331
 51
235.3131226475972
  0
LINE
  5
1490C
  8
0
 10
244.46418760827351
 20
166.49073805016721
 30
0.0
 11
244.46418760826441
 21
158.6462175539113
 31
0.0
  0
LINE
  5
1490D
  8
0
 10
243.17176122280549
 20
166.49073805016721
 30
0.0
 11
244.46418760827351
 21
166.49073805016721
 31
0.0
  0
LINE
  5
1490E
  8
0
 10
243.17176122280549
 20
166.29073805016739
 30
0.0
 11
243.17176122280549
 21
166.49073805016721
 31
0.0
  0
ARC
  5
1490F
  8
0
 10
249.944478883204
 20
163.4775539675579
 30
0.0
 40
7.5888118159785929
 50
112.45979396614359
 51
158.24111160067019
  0
ARC
  5
14910
  8
0
 10
304.56148945149118
 20
163.25118567674409
 30
0.0
 40
7.8775452685598193
 50
8.3174930949099046
 51
66.781952340647294
  0
ARC
  5
14911
  8
0
 10
301.45038209831358
 20
165.13174978080539
 30
0.0
 40
10.93093962335514
 50
304.66126506415708
 51
356.11292055241591
  0
LINE
  5
14912
  8
0
 10
237.02032967795321
 20
153.29073805016739
 30
0.0
 11
251.0775694334213
 21
153.29073805016739
 31
0.0
  0
ARC
  5
14913
  8
0
 10
237.02032967795321
 20
143.29073805016691
 30
0.0
 40
10.00000000000014
 50
90.0
 51
130.00000000000131
  0
LINE
  5
14914
  8
0
 10
218.2270831661055
 20
140.5754047267751
 30
0.0
 11
230.59245358108771
 21
150.95118248135711
 31
0.0
  0
ARC
  5
14915
  8
0
 10
213.40617609345639
 20
146.32073805016711
 30
0.0
 40
7.5000000000000266
 50
218.8309183322265
 51
310.00000000000131
  0
LINE
  5
14916
  8
0
 10
192.20317805812749
 20
160.70156814838629
 30
0.0
 11
207.56367819846119
 21
141.61805601254491
 31
0.0
  0
ARC
  5
14917
  8
0
 10
197.65617609345639
 20
165.09073805016709
 30
0.0
 40
7.0000000000000009
 50
71.37999999999866
 51
218.8309183322265
  0
LINE
  5
14918
  8
0
 10
214.4646496871662
 20
166.81416790548789
 30
0.0
 11
199.89120695757319
 21
171.7243371514428
 31
0.0
  0
ARC
  5
14919
  8
0
 10
217.65755092161879
 20
176.29073805016739
 30
0.0
 40
10.00000000000006
 50
251.3799999999986
 51
270.0
  0
LINE
  5
1491A
  8
0
 10
244.46418760827299
 20
166.29073805016739
 30
0.0
 11
217.65755092161899
 21
166.29073805016739
 31
0.0
  0
LINE
  5
1491B
  8
0
 10
213.65617609345639
 20
168.29073805016739
 30
0.0
 11
218.65617609345639
 21
168.29073805016739
 31
0.0
  0
LINE
  5
1491C
  8
0
 10
218.65617609345639
 20
168.29073805016739
 30
0.0
 11
218.65617609345639
 21
166.29073805016739
 31
0.0
  0
LINE
  5
1491D
  8
0
 10
213.65617609345639
 20
168.29073805016739
 30
0.0
 11
213.65617609345639
 21
167.08656353976991
 31
0.0
  0
CIRCLE
  5
1491E
  8
0
 10
197.65617609345639
 20
165.09073805016709
 30
0.0
 40
4.0000000000017897
  0
CIRCLE
  5
1491F
  8
0
 10
213.40617609345639
 20
146.32073805016711
 30
0.0
 40
4.0000000000017621
  0
LINE
  5
14920
  8
0
 10
136.10617609350871
 20
134.84073805018579
 30
0.0
 11
136.87967878535341
 21
135.28732003754681
 31
0.0
  0
LINE
  5
14921
  8
0
 10
125.3326734015593
 20
135.28732003754681
 30
0.0
 11
126.1061760934041
 21
134.84073805018579
 31
0.0
  0
LINE
  5
14922
  8
0
 10
126.106176093461
 20
138.0407380501951
 30
0.0
 11
125.3326734232206
 21
137.59415607530761
 31
0.0
  0
LINE
  5
14923
  8
0
 10
136.87967877868701
 20
137.59415606665041
 30
0.0
 11
136.10617609345189
 21
138.0407380501951
 31
0.0
  0
ARC
  5
14924
  8
0
 10
131.10617609345641
 20
140.54073805016691
 30
0.0
 40
10.000000000000041
 50
109.9484435888026
 51
132.45415020439989
  0
LINE
  5
14925
  8
0
 10
124.3561760934893
 20
141.04073805016691
 30
0.0
 11
124.6448512280928
 21
140.54073805011831
 31
0.0
  0
LINE
  5
14926
  8
0
 10
124.3561760934564
 20
147.9189153318539
 30
0.0
 11
124.3561760934564
 21
141.04073805016691
 31
0.0
  0
LINE
  5
14927
  8
0
 10
126.65617609345639
 20
117.3407380501671
 30
0.0
 11
126.65617609345639
 21
116.8407380501671
 31
0.0
  0
LINE
  5
14928
  8
0
 10
135.55617609345649
 20
116.8407380501671
 30
0.0
 11
135.55617609345649
 21
117.3407380501671
 31
0.0
  0
LINE
  5
14929
  8
0
 10
128.10617609345641
 20
151.72723805016719
 30
0.0
 11
128.10617609345641
 21
149.940738050167
 31
0.0
  0
LINE
  5
1492A
  8
0
 10
128.10617609345641
 20
138.34073805016709
 30
0.0
 11
128.10617609345641
 21
138.0407380501951
 31
0.0
  0
LINE
  5
1492B
  8
0
 10
128.1061760934565
 20
134.84073805018579
 30
0.0
 11
128.1061760934565
 21
117.3407380501671
 31
0.0
  0
LINE
  5
1492C
  8
0
 10
134.1061760934565
 20
117.3407380501671
 30
0.0
 11
134.1061760934565
 21
134.84073805018579
 31
0.0
  0
LINE
  5
1492D
  8
0
 10
134.10617609345641
 20
138.0407380501951
 30
0.0
 11
134.1061760934565
 21
138.34073805016709
 31
0.0
  0
LINE
  5
1492E
  8
0
 10
134.10617609345641
 20
151.70554314029519
 30
0.0
 11
134.1061760934565
 21
151.72723805016719
 31
0.0
  0
LINE
  5
1492F
  8
0
 10
134.10617609344129
 20
151.72723805016719
 30
0.0
 11
133.4926760934257
 21
152.34073805019989
 31
0.0
  0
LINE
  5
14930
  8
0
 10
128.7196760934871
 20
152.34073805019989
 30
0.0
 11
128.1061760934715
 21
151.72723805016719
 31
0.0
  0
LINE
  5
14931
  8
0
 10
136.1061760934725
 20
113.34073805018031
 30
0.0
 11
136.87967878535281
 21
113.5479974718203
 31
0.0
  0
LINE
  5
14932
  8
0
 10
125.3326734015412
 20
113.5479974718255
 30
0.0
 11
126.1061760934403
 21
113.34073805018031
 31
0.0
  0
POLYLINE
  5
14933
  8
0
 66
     1
 10
0.0
 20
0.0
 30
0.0
 70
   128
  0
VERTEX
  5
14CF5
  8
0
 10
136.87967878535341
 20
135.28732003754681
 30
0.0
  0
VERTEX
  5
14CF6
  8
0
 10
136.1725282529402
 20
134.96331164680441
 30
0.0
  0
VERTEX
  5
14CF7
  8
0
 10
135.4363031123782
 20
134.84073805015569
 30
0.0
  0
SEQEND
  5
14CF8
  8
0
  0
POLYLINE
  5
14934
  8
0
 66
     1
 10
0.0
 20
0.0
 30
0.0
 70
   128
  0
VERTEX
  5
14CF9
  8
0
 10
135.4363031123826
 20
134.84073805015299
 30
0.0
  0
VERTEX
  5
14CFA
  8
0
 10
134.71461527589111
 20
134.9586127670959
 30
0.0
  0
VERTEX
  5
14CFB
  8
0
 10
133.9929274394037
 20
135.28732003754681
 30
0.0
  0
SEQEND
  5
14CFC
  8
0
  0
LINE
  5
14935
  8
0
 10
133.99292743107509
 20
137.5941560579931
 30
0.0
 11
133.9929274394041
 21
135.28732003754649
 31
0.0
  0
POLYLINE
  5
14936
  8
0
 66
     1
 10
0.0
 20
0.0
 30
0.0
 70
   128
  0
VERTEX
  5
14CFD
  8
0
 10
133.99292742274559
 20
137.59415605318389
 30
0.0
  0
VERTEX
  5
14CFE
  8
0
 10
134.70007796307911
 20
137.91816445069361
 30
0.0
  0
VERTEX
  5
14CFF
  8
0
 10
135.4363031123786
 20
138.0407380501926
 30
0.0
  0
SEQEND
  5
14D00
  8
0
  0
POLYLINE
  5
14937
  8
0
 66
     1
 10
0.0
 20
0.0
 30
0.0
 70
   128
  0
VERTEX
  5
14D01
  8
0
 10
135.4363031123786
 20
138.0407380501926
 30
0.0
  0
VERTEX
  5
14D02
  8
0
 10
136.1579909422
 20
137.92286333538729
 30
0.0
  0
VERTEX
  5
14D03
  8
0
 10
136.87967877202141
 20
137.59415607049871
 30
0.0
  0
SEQEND
  5
14D04
  8
0
  0
LINE
  5
14938
  8
0
 10
136.87967878535341
 20
135.28732003754681
 30
0.0
 11
136.87967877868701
 21
137.59415606665041
 31
0.0
  0
POLYLINE
  5
14939
  8
0
 66
     1
 10
0.0
 20
0.0
 30
0.0
 70
   128
  0
VERTEX
  5
14D05
  8
0
 10
131.10617609345681
 20
138.0407380501924
 30
0.0
  0
VERTEX
  5
14D06
  8
0
 10
132.5495517231092
 20
137.92286334018939
 30
0.0
  0
VERTEX
  5
14D07
  8
0
 10
133.99292735276151
 20
137.59415608781359
 30
0.0
  0
SEQEND
  5
14D08
  8
0
  0
POLYLINE
  5
1493B
  8
0
 66
     1
 10
0.0
 20
0.0
 30
0.0
 70
   128
  0
VERTEX
  5
14D09
  8
0
 10
131.1061760934561
 20
134.84073805015299
 30
0.0
  0
VERTEX
  5
14D0A
  8
0
 10
129.6628004204814
 20
134.9586127670959
 30
0.0
  0
VERTEX
  5
14D0B
  8
0
 10
128.21942474750671
 20
135.28732003754681
 30
0.0
  0
SEQEND
  5
14D0C
  8
0
  0
LINE
  5
1493C
  8
0
 10
128.2194247475079
 20
135.28732003754681
 30
0.0
 11
128.21942473085051
 21
137.5941560579931
 31
0.0
  0
POLYLINE
  5
1493D
  8
0
 66
     1
 10
0.0
 20
0.0
 30
0.0
 70
   128
  0
VERTEX
  5
14D0D
  8
0
 10
128.21942471419271
 20
137.59415605318461
 30
0.0
  0
VERTEX
  5
14D0E
  8
0
 10
129.63372579485889
 20
137.91816445069389
 30
0.0
  0
VERTEX
  5
14D0F
  8
0
 10
131.10617609345681
 20
138.0407380501924
 30
0.0
  0
SEQEND
  5
14D10
  8
0
  0
POLYLINE
  5
1493E
  8
0
 66
     1
 10
0.0
 20
0.0
 30
0.0
 70
   128
  0
VERTEX
  5
14D11
  8
0
 10
133.9929274394062
 20
135.28732003754681
 30
0.0
  0
VERTEX
  5
14D12
  8
0
 10
132.57862637457961
 20
134.96331164680441
 30
0.0
  0
VERTEX
  5
14D13
  8
0
 10
131.1061760934553
 20
134.84073805015569
 30
0.0
  0
SEQEND
  5
14D14
  8
0
  0
POLYLINE
  5
14940
  8
0
 66
     1
 10
0.0
 20
0.0
 30
0.0
 70
   128
  0
VERTEX
  5
14D15
  8
0
 10
128.21942474750909
 20
135.28732003754681
 30
0.0
  0
VERTEX
  5
14D16
  8
0
 10
127.5122742150958
 20
134.96331164680441
 30
0.0
  0
VERTEX
  5
14D17
  8
0
 10
126.7760490745337
 20
134.84073805015569
 30
0.0
  0
SEQEND
  5
14D18
  8
0
  0
POLYLINE
  5
14942
  8
0
 66
     1
 10
0.0
 20
0.0
 30
0.0
 70
   128
  0
VERTEX
  5
14D19
  8
0
 10
126.77604907453011
 20
134.84073805015299
 30
0.0
  0
VERTEX
  5
14D1A
  8
0
 10
126.05436123804679
 20
134.9586127670959
 30
0.0
  0
VERTEX
  5
14D1B
  8
0
 10
125.3326734015593
 20
135.28732003754681
 30
0.0
  0
SEQEND
  5
14D1C
  8
0
  0
LINE
  5
14943
  8
0
 10
125.3326734015593
 20
135.28732003754681
 30
0.0
 11
125.3326734232206
 21
137.59415607530761
 31
0.0
  0
POLYLINE
  5
14944
  8
0
 66
     1
 10
0.0
 20
0.0
 30
0.0
 70
   128
  0
VERTEX
  5
14D1D
  8
0
 10
125.3326734448811
 20
137.59415608781319
 30
0.0
  0
VERTEX
  5
14D1E
  8
0
 10
126.0398239566957
 20
137.91816446095589
 30
0.0
  0
VERTEX
  5
14D1F
  8
0
 10
126.7760490745341
 20
138.0407380501924
 30
0.0
  0
SEQEND
  5
14D20
  8
0
  0
POLYLINE
  5
14945
  8
0
 66
     1
 10
0.0
 20
0.0
 30
0.0
 70
   128
  0
VERTEX
  5
14D21
  8
0
 10
126.7760490745341
 20
138.0407380501924
 30
0.0
  0
VERTEX
  5
14D22
  8
0
 10
127.49773688936099
 20
137.92286334018939
 30
0.0
  0
VERTEX
  5
14D23
  8
0
 10
128.2194247041879
 20
137.59415608781291
 30
0.0
  0
SEQEND
  5
14D24
  8
0
  0
LINE
  5
14948
  8
0
 10
126.10617609343031
 20
134.8407380501728
 30
0.0
 11
136.10617609343339
 21
134.84073805014219
 31
0.0
  0
LINE
  5
14949
  8
0
 10
126.1061760934587
 20
138.04073805019399
 30
0.0
 11
136.10617609345991
 21
138.04073805019061
 31
0.0
  0
LINE
  5
1494C
  8
0
 10
169.60617609345641
 20
138.34073805016709
 30
0.0
 11
169.60617609345641
 21
141.5507380501671
 31
0.0
  0
LINE
  5
1494D
  8
0
 10
169.60617609345641
 20
138.34073805016709
 30
0.0
 11
125.6061760934564
 21
138.34073805016709
 31
0.0
  0
POLYLINE
  5
1494E
  8
0
 66
     1
 10
0.0
 20
0.0
 30
0.0
 70
   128
  0
VERTEX
  5
14D25
  8
0
 10
169.60617609345641
 20
141.5507380501671
 30
0.0
  0
VERTEX
  5
14D26
  8
0
 10
169.6978586401857
 20
142.14934016972799
 30
0.0
  0
VERTEX
  5
14D27
  8
0
 10
169.76881385372241
 20
142.34073805016709
 30
0.0
  0
SEQEND
  5
14D28
  8
0
  0
LINE
  5
1494F
  8
0
 10
174.00617609345639
 20
162.73330427716519
 30
0.0
 11
176.11319785716049
 21
163.31565346815071
 31
0.0
  0
LINE
  5
14950
  8
0
 10
176.11319785716049
 20
143.55073805016721
 30
0.0
 11
174.00617609345639
 21
143.55073805016721
 31
0.0
  0
LINE
  5
14951
  8
0
 10
125.6061760934564
 20
138.34073805016709
 30
0.0
 11
125.6061760934564
 21
145.55073805016721
 31
0.0
  0
ARC
  5
14952
  8
0
 10
130.60617609345641
 20
145.55073805016721
 30
0.0
 40
5.0000000000000098
 50
105.4500000000005
 51
180.0
  0
LINE
  5
14953
  8
0
 10
129.27418935236079
 20
150.37005452883341
 30
0.0
 11
174.00617609345639
 21
162.73330427716519
 31
0.0
  0
LINE
  5
14954
  8
0
 10
174.00617609345639
 20
143.55073805016721
 30
0.0
 11
171.60617609345641
 21
143.55073805016721
 31
0.0
  0
ARC
  5
14955
  8
0
 10
171.60617609345641
 20
141.5507380501671
 30
0.0
 40
1.999999999999988
 50
90.0
 51
156.73402593846461
  0
LINE
  5
14956
  8
0
 10
183.14110289269931
 20
165.2580609374368
 30
0.0
 11
187.95266521160431
 21
168.0360177374794
 31
0.0
  0
ARC
  5
14959
  8
0
 10
185.39507354252839
 20
142.55073805016721
 30
0.0
 40
1.0
 50
44.675307151565178
 51
90.0
  0
LINE
  5
1495A
  8
0
 10
176.11319785716049
 20
163.31565346815071
 30
0.0
 11
183.14110289269931
 21
165.2580609374368
 31
0.0
  0
LINE
  5
1495B
  8
0
 10
185.39507354252839
 20
143.55073805016721
 30
0.0
 11
176.11319785716049
 21
143.55073805016721
 31
0.0
  0
LINE
  5
1495D
  8
0
 10
187.95266521160431
 20
168.0360177374794
 30
0.0
 11
189.00617609345639
 21
168.6442625287109
 31
0.0
  0
ARC
  5
14960
  8
0
 10
197.65617609345639
 20
164.40073805016709
 30
0.0
 40
7.9999999999999707
 50
90.0
 51
120.0000000000019
  0
LINE
  5
14961
  8
0
 10
197.65617609345639
 20
172.40073805016709
 30
0.0
 11
203.0561760934566
 21
172.40073805016709
 31
0.0
  0
ARC
  5
14962
  8
0
 10
203.0561760934564
 20
162.8907380501671
 30
0.0
 40
9.5100000000000282
 50
32.093874245082063
 51
90.0
  0
LINE
  5
1496C
  8
0
 10
189.00617609345639
 20
168.6442625287109
 30
0.0
 11
193.65617609345639
 21
171.32894128044259
 31
0.0
  0
ARC
  5
1496D
  8
0
 10
171.60617609345641
 20
141.5507380501671
 30
0.0
 40
2.0000000000000462
 50
156.73402593846461
 51
175.96344172690451
  0
LINE
  5
1496E
  8
0
 10
128.2128729367289
 20
149.940738050167
 30
0.0
 11
127.6944316716101
 21
149.940738050167
 31
0.0
  0
LINE
  5
1496F
  8
0
 10
124.3561760934564
 20
147.9189153318539
 30
0.0
 11
126.2025711653887
 21
147.9189153318539
 31
0.0
  0
LINE
  5
14970
  8
0
 10
124.3561760934893
 20
141.04073805016691
 30
0.0
 11
125.6061760934563
 21
141.04073805016691
 31
0.0
  0
LINE
  5
14971
  8
0
 10
124.6448512280747
 20
140.54073805012871
 30
0.0
 11
125.6061760934563
 21
140.54073805011831
 31
0.0
  0
LINE
  5
14974
  8
0
 10
136.87967878535329
 20
113.54799747180181
 30
0.0
 11
136.8796787853527
 21
116.8407380501671
 31
0.0
  0
POLYLINE
  5
14975
  8
0
 66
     1
 10
0.0
 20
0.0
 30
0.0
 70
   128
  0
VERTEX
  5
14D29
  8
0
 10
136.87967878535329
 20
113.54799747182049
 30
0.0
  0
VERTEX
  5
14D2A
  8
0
 10
136.16123585170979
 20
113.3959271918836
 30
0.0
  0
VERTEX
  5
14D2B
  8
0
 10
135.4363031123786
 20
113.3407380501758
 30
0.0
  0
SEQEND
  5
14D2C
  8
0
  0
POLYLINE
  5
14976
  8
0
 66
     1
 10
0.0
 20
0.0
 30
0.0
 70
   128
  0
VERTEX
  5
14D2D
  8
0
 10
135.4363031123786
 20
113.3407380501758
 30
0.0
  0
VERTEX
  5
14D2E
  8
0
 10
134.7146152758921
 20
113.395443896693
 30
0.0
  0
VERTEX
  5
14D2F
  8
0
 10
133.99292743940561
 20
113.54799747182
 30
0.0
  0
SEQEND
  5
14D30
  8
0
  0
LINE
  5
14977
  8
0
 10
133.99292743940401
 20
113.54799747182
 30
0.0
 11
133.9929274394045
 21
116.8407380501671
 31
0.0
  0
POLYLINE
  5
14978
  8
0
 66
     1
 10
0.0
 20
0.0
 30
0.0
 70
   128
  0
VERTEX
  5
14D31
  8
0
 10
133.99292743940239
 20
113.54799747182
 30
0.0
  0
VERTEX
  5
14D32
  8
0
 10
132.55604157211721
 20
113.3959271918834
 30
0.0
  0
VERTEX
  5
14D33
  8
0
 10
131.10617609345641
 20
113.3407380501758
 30
0.0
  0
SEQEND
  5
14D34
  8
0
  0
POLYLINE
  5
14979
  8
0
 66
     1
 10
0.0
 20
0.0
 30
0.0
 70
   128
  0
VERTEX
  5
14D35
  8
0
 10
131.1061760934565
 20
113.3407380501758
 30
0.0
  0
VERTEX
  5
14D36
  8
0
 10
129.66280042048339
 20
113.395443896693
 30
0.0
  0
VERTEX
  5
14D37
  8
0
 10
128.2194247475104
 20
113.54799747182
 30
0.0
  0
SEQEND
  5
14D38
  8
0
  0
LINE
  5
1497A
  8
0
 10
128.21942474750881
 20
113.54799747182
 30
0.0
 11
128.2194247475083
 21
116.8407380501671
 31
0.0
  0
POLYLINE
  5
1497C
  8
0
 66
     1
 10
0.0
 20
0.0
 30
0.0
 70
   128
  0
VERTEX
  5
14D39
  8
0
 10
128.21942474750719
 20
113.54799747182
 30
0.0
  0
VERTEX
  5
14D3A
  8
0
 10
127.5009818138646
 20
113.3959271918834
 30
0.0
  0
VERTEX
  5
14D3B
  8
0
 10
126.7760490745342
 20
113.3407380501758
 30
0.0
  0
SEQEND
  5
14D3C
  8
0
  0
POLYLINE
  5
1497D
  8
0
 66
     1
 10
0.0
 20
0.0
 30
0.0
 70
   128
  0
VERTEX
  5
14D3D
  8
0
 10
126.7760490745342
 20
113.3407380501758
 30
0.0
  0
VERTEX
  5
14D3E
  8
0
 10
126.05436123804419
 20
113.39544389669339
 30
0.0
  0
VERTEX
  5
14D3F
  8
0
 10
125.332673401554
 20
113.5479974718218
 30
0.0
  0
SEQEND
  5
14D40
  8
0
  0
LINE
  5
1497E
  8
0
 10
125.3326734015414
 20
113.5479974718173
 30
0.0
 11
125.3326734015602
 21
116.8407380501671
 31
0.0
  0
LINE
  5
1497F
  8
0
 10
125.3326734015601
 20
116.8407380501671
 30
0.0
 11
136.87967878535261
 21
116.8407380501671
 31
0.0
  0
LINE
  5
14982
  8
0
 10
126.65617609345639
 20
117.3407380501671
 30
0.0
 11
135.55617609345649
 21
117.3407380501671
 31
0.0
  0
LINE
  5
14983
  8
0
 10
134.1061760934565
 20
151.72723805016719
 30
0.0
 11
128.10617609345641
 21
151.72723805016719
 31
0.0
  0
LINE
  5
14984
  8
0
 10
133.4926760934257
 20
152.34073805019989
 30
0.0
 11
128.7196760934871
 21
152.34073805019989
 31
0.0
  0
LINE
  5
14986
  8
0
 10
126.1061760934483
 20
113.3407380501783
 30
0.0
 11
136.10617609345189
 21
113.34073805017491
 31
0.0
  0
LINE
  5
149B3
  8
0
 10
51.606176093456348
 20
120.5507380501672
 30
0.0
 11
51.556176093456372
 21
120.5507380501672
 31
0.0
  0
LINE
  5
149B5
  8
0
 10
59.156176093456303
 20
113.34073805017781
 30
0.0
 11
59.156176093456367
 21
102.07073805016709
 31
0.0
  0
LINE
  5
149BB
  8
0
 10
190.60617609345641
 20
232.79158194345251
 30
0.0
 11
190.60617609345641
 21
230.79158194345251
 31
0.0
  0
LINE
  5
149C0
  8
0
 10
235.6061760934565
 20
239.89158194345259
 30
0.0
 11
235.6061760934565
 21
239.94158194345249
 31
0.0
  0
LINE
  5
149C1
  8
0
 10
235.6061760934565
 20
230.79158194345251
 30
0.0
 11
235.6061760934565
 21
230.74158194345279
 31
0.0
  0
LINE
  5
149C4
  8
0
 10
211.4306889342524
 20
230.84158194338849
 30
0.0
 11
211.43068893425249
 21
230.74158194345279
 31
0.0
  0
LINE
  5
149E1
  8
0
 10
190.60617609345641
 20
40.770738050167438
 30
0.0
 11
190.60617609345641
 21
38.770738050167211
 31
0.0
  0
LINE
  5
149E2
  8
0
 10
196.60617609345641
 20
45.870738050167567
 30
0.0
 11
196.60617609345641
 21
47.87073805016734
 31
0.0
  0
LINE
  5
149E3
  8
0
 10
184.10617609345641
 20
45.210534545228249
 30
0.0
 11
185.39507354252839
 21
44.622476304345128
 31
0.0
  0
LINE
  5
149E4
  8
0
 10
182.3570057893821
 20
48.703738764937953
 30
0.0
 11
176.11319785716049
 21
51.605102315119673
 31
0.0
  0
LINE
  5
149E5
  8
0
 10
181.6061760934565
 20
40.290318921966218
 30
0.0
 11
175.04389369592411
 21
37.296283790893767
 31
0.0
  0
LINE
  5
149E6
  8
0
 10
184.74088451143939
 20
39.045474618047137
 30
0.0
 11
185.39507354252839
 21
39.349462221499152
 31
0.0
  0
LINE
  5
14A22
  8
0
 10
378.75617609345682
 20
143.64677342347559
 30
0.0
 11
378.85617609339272
 21
143.64677342347559
 31
0.0
  0
LINE
  5
14A32
  8
3
 10
385.81467609345691
 20
117.3407380501671
 30
0.0
 11
385.81467609345691
 21
120.5507380501672
 31
0.0
  0
LINE
  5
14A33
  8
3
 10
380.89767609345699
 20
117.3407380501671
 30
0.0
 11
380.89767609345699
 21
120.5507380501672
 31
0.0
  0
CIRCLE
  5
14A34
  8
0
 10
131.10617609345641
 20
235.34158194345309
 30
0.0
 40
3.0
  0
CIRCLE
  5
14A35
  8
3
 10
131.10617609345641
 20
235.34158194345309
 30
0.0
 40
2.458499999999999
  0
ARC
  5
14A3B
  8
0
 10
113.4152476115453
 20
222.1658219305335
 30
0.0
 40
81.811218989710397
 50
232.27406190272299
 51
233.80789561609939
  0
LINE
  5
14A3C
  8
3
 10
57.064676112214919
 20
117.3407380501671
 30
0.0
 11
57.064676112214919
 21
134.84073805017081
 31
0.0
  0
LINE
  5
14A3D
  8
3
 10
52.147676112214889
 20
117.3407380501671
 30
0.0
 11
52.147676112214889
 21
134.84073805017081
 31
0.0
  0
LINE
  5
14A40
  8
3
 10
52.147676112214889
 20
149.940738050167
 30
0.0
 11
52.147676112214889
 21
152.26873806892581
 31
0.0
  0
LINE
  5
14A41
  8
3
 10
57.064676112214919
 20
149.940738050167
 30
0.0
 11
57.064676112214919
 21
152.2687380314087
 31
0.0
  0
LINE
  5
14A44
  8
3
 10
57.064668912456078
 20
138.0407380501938
 30
0.0
 11
57.064668912456078
 21
138.34073805016709
 31
0.0
  0
LINE
  5
14A45
  8
3
 10
52.147668912456062
 20
138.0407380501938
 30
0.0
 11
52.147668912456062
 21
138.34073805016709
 31
0.0
  0
ARC
  5
14A6A
  8
0
 10
286.48381592358157
 20
255.7931412419149
 30
0.0
 40
0.200000000001121
 50
260.62478705450297
 51
337.60939190425739
  0
ARC
  5
14A6B
  8
0
 10
273.24687834951987
 20
256.39069538219701
 30
0.0
 40
0.2000000000001801
 50
197.2211167033507
 51
274.2057215533062
  0
ARC
  5
14A6C
  8
0
 10
286.48381591050662
 20
214.89002267672799
 30
0.0
 40
0.2000000000011009
 50
22.39060595802
 51
99.375210807775673
  0
ARC
  5
14A6D
  8
0
 10
273.2468783495201
 20
214.29246850470909
 30
0.0
 40
0.2000000000002343
 50
85.794278446732974
 51
162.77888329667661
  0
LINE
  5
14A75
  8
0
 10
244.34793718126829
 20
228.29158194345271
 30
0.0
 11
185.6061760934561
 21
228.29158194345271
 31
0.0
  0
CIRCLE
  5
14A83
  8
0
 10
131.10617609345641
 20
43.320738050167392
 30
0.0
 40
5.0000000000080389
  0
LINE
  5
14AB8
  8
1
 10
54.606176093456362
 20
181.59163273039979
 30
0.0
 11
54.606176093456412
 21
97.070738050167193
 31
0.0
  0
LINE
  5
14AB9
  8
1
 10
383.35617609345672
 20
97.070738050167407
 30
0.0
 11
383.35617609345672
 21
181.59163273039979
 31
0.0
  0
LINE
  5
14ABB
  8
1
 10
131.1061760934565
 20
155.34073805019989
 30
0.0
 11
131.1061760934565
 21
110.3407380501766
 31
0.0
  0
LINE
  5
14AC9
  8
3
 10
133.56467611221501
 20
117.3407380501671
 30
0.0
 11
133.56467611221501
 21
134.84073805017081
 31
0.0
  0
LINE
  5
14ACA
  8
3
 10
133.5646761122151
 20
151.55588067290799
 30
0.0
 11
133.56467611221501
 21
152.2687380314087
 31
0.0
  0
LINE
  5
14ACB
  8
3
 10
128.64767611221501
 20
117.3407380501671
 30
0.0
 11
128.64767611221501
 21
134.84073805017081
 31
0.0
  0
LINE
  5
14ACC
  8
3
 10
128.64767611221501
 20
150.15120300748151
 30
0.0
 11
128.64767611221501
 21
152.26873806892581
 31
0.0
  0
LINE
  5
14ACD
  8
3
 10
133.5646689124562
 20
138.0407380501938
 30
0.0
 11
133.5646689124562
 21
138.34073805016709
 31
0.0
  0
LINE
  5
14ACE
  8
3
 10
128.6476689124562
 20
138.0407380501938
 30
0.0
 11
128.6476689124562
 21
138.34073805016709
 31
0.0
  0
LINE
  5
14ACF
  8
1
 10
119.3561760934563
 20
235.34158194345241
 30
0.0
 11
317.3561760934569
 21
235.34158194345241
 31
0.0
  0
LINE
  5
14AD0
  8
1
 10
317.3561760934569
 20
43.320738050167158
 30
0.0
 11
119.3561760934563
 21
43.320738050167158
 31
0.0
  0
LINE
  5
14AD9
  8
1
 10
218.40617609345821
 20
146.32073805016711
 30
0.0
 11
208.4061760934546
 21
146.32073805016711
 31
0.0
  0
LINE
  5
14ADA
  8
1
 10
213.40617609345639
 20
151.32073805016901
 30
0.0
 11
213.40617609345639
 21
141.32073805016529
 31
0.0
  0
LINE
  5
14ADB
  8
1
 10
198.6061760934582
 20
147.55073805016721
 30
0.0
 11
188.60617609345471
 21
147.55073805016721
 31
0.0
  0
LINE
  5
14ADC
  8
1
 10
193.60617609345641
 20
152.550738050169
 30
0.0
 11
193.60617609345641
 21
142.55073805016531
 31
0.0
  0
LINE
  5
14ADD
  8
1
 10
233.60617609345829
 20
131.55073805016721
 30
0.0
 11
223.60617609345471
 21
131.55073805016721
 31
0.0
  0
LINE
  5
14ADE
  8
1
 10
228.6061760934565
 20
136.550738050169
 30
0.0
 11
228.6061760934565
 21
126.55073805016529
 31
0.0
  0
LINE
  5
14ADF
  8
1
 10
196.35617609345641
 20
110.07073805016709
 30
0.0
 11
188.85617609345641
 21
110.07073805016709
 31
0.0
  0
LINE
  5
14AE0
  8
1
 10
192.60617609345641
 20
113.82073805016709
 30
0.0
 11
192.60617609345641
 21
103.82073805016709
 31
0.0
  0
LINE
  5
14AE1
  8
1
 10
196.35617609345641
 20
107.57073805016709
 30
0.0
 11
188.85617609345641
 21
107.57073805016709
 31
0.0
  0
LINE
  5
14AE4
  8
1
 10
222.35617609345641
 20
110.07073805016709
 30
0.0
 11
214.8561760934565
 21
110.07073805016709
 31
0.0
  0
LINE
  5
14AE5
  8
1
 10
218.60617609345641
 20
113.82073805016709
 30
0.0
 11
218.60617609345641
 21
103.82073805016709
 31
0.0
  0
LINE
  5
14AE6
  8
1
 10
222.35617609345641
 20
107.57073805016709
 30
0.0
 11
214.8561760934565
 21
107.57073805016709
 31
0.0
  0
LINE
  5
14AE7
  8
1
 10
131.10617609345641
 20
35.320738050159378
 30
0.0
 11
131.10617609345641
 21
51.3207380501754
 31
0.0
  0
LINE
  5
14AE8
  8
1
 10
163.10617609345641
 20
49.370738050167461
 30
0.0
 11
163.10617609345641
 21
37.270738050167331
 31
0.0
  0
LINE
  5
14B1A
  8
0
 10
200.65617609345639
 20
239.89158194345259
 30
0.0
 11
206.7275060081669
 21
239.89158194345259
 31
0.0
  0
LINE
  5
14B1B
  8
0
 10
194.65617609345639
 20
230.79158194345251
 30
0.0
 11
185.6061760934565
 21
230.79158194345251
 31
0.0
  0
LINE
  5
14B1C
  8
0
 10
218.65617609345639
 20
47.870738050167127
 30
0.0
 11
218.65617609345639
 21
45.820738050167158
 31
0.0
  0
LINE
  5
14B1D
  8
0
 10
218.65617609345639
 20
40.820738050167158
 30
0.0
 11
218.65617609345639
 21
38.770738050167211
 31
0.0
  0
LINE
  5
14B59
  8
1
 10
46.556176093456372
 20
110.07073805016709
 30
0.0
 11
51.056176093456379
 21
110.07073805016709
 31
0.0
  0
LINE
  5
14B5A
  8
1
 10
46.556176093456337
 20
107.57073805016709
 30
0.0
 11
51.056176093456379
 21
107.57073805016709
 31
0.0
  0
LINE
  5
14B63
  8
1
 10
375.30617609345688
 20
110.07073805016709
 30
0.0
 11
379.80617609345688
 21
110.07073805016719
 31
0.0
  0
LINE
  5
14B64
  8
1
 10
375.30617609345688
 20
107.57073805016709
 30
0.0
 11
379.80617609345688
 21
107.57073805016709
 31
0.0
  0
LINE
  5
14B65
  8
1
 10
58.156176093456331
 20
110.07073805016709
 30
0.0
 11
62.656176093456338
 21
110.07073805016709
 31
0.0
  0
LINE
  5
14B66
  8
1
 10
58.156176093456331
 20
107.57073805016709
 30
0.0
 11
62.656176093456338
 21
107.57073805016709
 31
0.0
  0
LINE
  5
14B67
  8
1
 10
386.90617609345691
 20
110.07073805016709
 30
0.0
 11
391.40617609345691
 21
110.07073805016709
 31
0.0
  0
LINE
  5
14B68
  8
1
 10
386.90617609345691
 20
107.57073805016709
 30
0.0
 11
391.40617609345691
 21
107.57073805016709
 31
0.0
  0
TEXT
  5
14BE2
  8
0
 62
     3
 10
0.0
 20
0.0
 30
0.0
 40
10.0
  1
TCDHS06160
  7
STANDARD1
  0
ENDSEC
  0
EOF
