  0
SECTION
  2
HEADER
  9
$ACADVER
  1
AC1009
  9
$INSBASE
 10
0.0
 20
0.0
 30
0.0
  9
$EXTMIN
 10
0.0
 20
-2.960436562073669
 30
0.0
  9
$EXTMAX
 10
639.99999999999977
 20
215.00000000000011
 30
0.0
  9
$LIMMIN
 10
0.0
 20
0.0
  9
$LIMMAX
 10
187.5
 20
135.0
  9
$ORTHOMODE
 70
     1
  9
$REGENMODE
 70
     1
  9
$FILLMODE
 70
     1
  9
$QTEXTMODE
 70
     0
  9
$MIRRTEXT
 70
     0
  9
$DRAGMODE
 70
     2
  9
$LTSCALE
 40
5.0
  9
$OSMODE
 70
    37
  9
$ATTMODE
 70
     1
  9
$TEXTSIZE
 40
5.0
  9
$TRACEWID
 40
0.05
  9
$TEXTSTYLE
  7
STANDARD
  9
$CLAYER
  8
0
  9
$CELTYPE
  6
BYLAYER
  9
$CECOLOR
 62
   256
  9
$DIMSCALE
 40
0.5
  9
$DIMASZ
 40
3.0
  9
$DIMEXO
 40
2.0
  9
$DIMDLI
 40
0.38
  9
$DIMRND
 40
0.0
  9
$DIMDLE
 40
0.0
  9
$DIMEXE
 40
2.0
  9
$DIMTP
 40
0.0
  9
$DIMTM
 40
0.0
  9
$DIMTXT
 40
3.2000000000000002
  9
$DIMCEN
 40
0.0
  9
$DIMTSZ
 40
0.0
  9
$DIMTOL
 70
     0
  9
$DIMLIM
 70
     0
  9
$DIMTIH
 70
     0
  9
$DIMTOH
 70
     0
  9
$DIMSE1
 70
     0
  9
$DIMSE2
 70
     0
  9
$DIMTAD
 70
     1
  9
$DIMZIN
 70
     0
  9
$DIMBLK
  1

  9
$DIMASO
 70
     0
  9
$DIMSHO
 70
     0
  9
$DIMPOST
  1

  9
$DIMAPOST
  1

  9
$DIMALT
 70
     0
  9
$DIMALTD
 70
     2
  9
$DIMALTF
 40
25.399999999999999
  9
$DIMLFAC
 40
1.0
  9
$DIMTOFL
 70
     1
  9
$DIMTVP
 40
1.6000000000000001
  9
$DIMTIX
 70
     1
  9
$DIMSOXD
 70
     0
  9
$DIMSAH
 70
     0
  9
$DIMBLK1
  1

  9
$DIMBLK2
  1

  9
$DIMSTYLE
  2
STANDARD
  9
$DIMCLRD
 70
     0
  9
$DIMCLRE
 70
     0
  9
$DIMCLRT
 70
     0
  9
$DIMTFAC
 40
1.0
  9
$DIMGAP
 40
0.09
  9
$LUNITS
 70
     2
  9
$LUPREC
 70
     4
  9
$SKETCHINC
 40
0.1
  9
$FILLETRAD
 40
0.0
  9
$AUNITS
 70
     0
  9
$AUPREC
 70
     4
  9
$MENU
  1
E:\r13\win\SUPPORT\ACAD
  9
$ELEVATION
 40
0.0
  9
$PELEVATION
 40
0.0
  9
$THICKNESS
 40
0.0
  9
$LIMCHECK
 70
     0
  9
$BLIPMODE
 70
     0
  9
$CHAMFERA
 40
0.0
  9
$CHAMFERB
 40
0.0
  9
$SKPOLY
 70
     0
  9
$TDCREATE
 40
2449840.6523611108
  9
$TDUPDATE
 40
2456981.56126191
  9
$TDINDWG
 40
0.2331629282
  9
$TDUSRTIMER
 40
0.2331629282
  9
$USRTIMER
 70
     1
  9
$ANGBASE
 50
0.0
  9
$ANGDIR
 70
     0
  9
$PDMODE
 70
     0
  9
$PDSIZE
 40
0.0
  9
$PLINEWID
 40
0.0
  9
$COORDS
 70
     1
  9
$SPLFRAME
 70
     0
  9
$SPLINETYPE
 70
     6
  9
$SPLINESEGS
 70
     8
  9
$ATTDIA
 70
     0
  9
$ATTREQ
 70
     1
  9
$HANDLING
 70
     1
  9
$HANDSEED
  5
939
  9
$SURFTAB1
 70
     6
  9
$SURFTAB2
 70
     6
  9
$SURFTYPE
 70
     6
  9
$SURFU
 70
     6
  9
$SURFV
 70
     6
  9
$UCSNAME
  2

  9
$UCSORG
 10
0.0
 20
0.0
 30
0.0
  9
$UCSXDIR
 10
1.0
 20
0.0
 30
0.0
  9
$UCSYDIR
 10
0.0
 20
1.0
 30
0.0
  9
$PUCSNAME
  2

  9
$PUCSORG
 10
0.0
 20
0.0
 30
0.0
  9
$PUCSXDIR
 10
1.0
 20
0.0
 30
0.0
  9
$PUCSYDIR
 10
0.0
 20
1.0
 30
0.0
  9
$USERI1
 70
     0
  9
$USERI2
 70
     1
  9
$USERI3
 70
     0
  9
$USERI4
 70
     0
  9
$USERI5
 70
     0
  9
$USERR1
 40
0.0
  9
$USERR2
 40
0.0
  9
$USERR3
 40
0.0
  9
$USERR4
 40
0.0
  9
$USERR5
 40
0.0
  9
$WORLDVIEW
 70
     1
  9
$SHADEDGE
 70
     3
  9
$SHADEDIF
 70
    70
  9
$TILEMODE
 70
     1
  9
$MAXACTVP
 70
    16
  9
$PLIMCHECK
 70
     0
  9
$PEXTMIN
 10
1.0000000000000000E+020
 20
1.0000000000000000E+020
 30
1.0000000000000000E+020
  9
$PEXTMAX
 10
-1.0000000000000000E+020
 20
-1.0000000000000000E+020
 30
-1.0000000000000000E+020
  9
$PLIMMIN
 10
0.0
 20
0.0
  9
$PLIMMAX
 10
12.0
 20
9.0
  9
$UNITMODE
 70
     0
  9
$VISRETAIN
 70
     0
  9
$PLINEGEN
 70
     0
  9
$PSLTSCALE
 70
     0
  0
ENDSEC
  0
SECTION
  2
TABLES
  0
TABLE
  2
VPORT
 70
     1
  0
VPORT
  2
*ACTIVE
 70
     0
 10
0.0
 20
0.0
 11
1.0
 21
1.0
 12
425.83430994788239
 22
106.0247212022938
 13
0.0
 23
0.0
 14
5.0
 24
5.0
 15
5.0
 25
5.0
 16
0.0
 26
0.0
 36
1.0
 17
0.0
 27
0.0
 37
0.0
 40
328.44950131309719
 41
2.6019575856443709
 42
50.0
 43
0.0
 44
0.0
 50
0.0
 51
0.0
 71
     0
 72
   500
 73
     1
 74
     0
 75
     0
 76
     0
 77
     0
 78
     2
  0
ENDTAB
  0
TABLE
  2
LTYPE
 70
     3
  0
LTYPE
  2
CONTINUOUS
 70
     0
  3
Solid Line
 72
    65
 73
     0
 40
0.0
  0
LTYPE
  2
CENTER
 70
     0
  3
____ _ ____ _ ____ _ ____ _ ____ _ ____ _ ____
 72
    65
 73
     4
 40
2.0
 49
1.25
 49
-0.25
 49
0.25
 49
-0.25
  0
LTYPE
  2
PHANTOM2
 70
     0
  3
___ _ _ ___ _ _ ___ _ _ ___ _ _
 72
    65
 73
     6
 40
1.25
 49
0.625
 49
-0.125
 49
0.125
 49
-0.125
 49
0.125
 49
-0.125
  0
ENDTAB
  0
TABLE
  2
LAYER
 70
     2
  0
LAYER
  2
0
 70
     0
 62
     7
  6
CONTINUOUS
  0
LAYER
  2
1
 70
     0
 62
     1
  6
CENTER
  0
ENDTAB
  0
TABLE
  2
STYLE
 70
     2
  0
STYLE
  2
STANDARD
 70
     0
 40
0.0
 41
1.0
 50
0.0
 71
     0
 42
5.0
  3
TXT
  4
BIGFONT
  0
STYLE
  2
STANDARD1
 70
     0
 40
0.0
 41
1.0
 50
0.0
 71
     0
 42
3.0
  3
txt
  4

  0
ENDTAB
  0
TABLE
  2
VIEW
 70
     0
  0
ENDTAB
  0
TABLE
  2
UCS
 70
     0
  0
ENDTAB
  0
TABLE
  2
APPID
 70
     4
  0
APPID
  2
ACAD
 70
     0
  0
APPID
  2
ACAD_MLEADERVER
 70
     0
  0
APPID
  2
ACAD_NAV_VCDISPLAY
 70
     0
  0
APPID
  2
ACAD_EXEMPT_FROM_CAD_STANDARDS
 70
     0
  0
ENDTAB
  0
TABLE
  2
DIMSTYLE
 70
     1
  0
DIMSTYLE
  2
STANDARD
 70
     0
  3

  4

  5

  6

  7

 40
1.0
 41
0.18
 42
0.0625
 43
0.38
 44
0.18
 45
0.0
 46
0.0
 47
0.0
 48
0.0
140
0.18
141
0.09
142
0.0
143
25.399999999999999
144
1.0
145
0.0
146
1.0
147
0.09
 71
     0
 72
     0
 73
     1
 74
     1
 75
     0
 76
     0
 77
     0
 78
     0
170
     0
171
     2
172
     0
173
     0
174
     0
175
     0
176
     0
177
     0
178
     0
  0
ENDTAB
  0
ENDSEC
  0
SECTION
  2
BLOCKS
  0
BLOCK
  8
0
  2
$MODEL_SPACE
 70
     0
 10
0.0
 20
0.0
 30
0.0
  3
$MODEL_SPACE
  1

  0
ENDBLK
  5
629
  8
0
  0
BLOCK
 67
     1
  8
0
  2
$PAPER_SPACE
 70
     0
 10
0.0
 20
0.0
 30
0.0
  3
$PAPER_SPACE
  1

  0
ENDBLK
  5
627
 67
     1
  8
0
  0
ENDSEC
  0
SECTION
  2
ENTITIES
  0
LINE
  5
590
  8
0
 10
100.0
 20
140.0
 30
0.0
 11
599.99999999999989
 21
140.0
 31
0.0
  0
LINE
  5
591
  8
0
 10
100.0
 20
145.0
 30
0.0
 11
599.99999999999989
 21
145.0
 31
0.0
  0
LINE
  5
592
  8
0
 10
115.0
 20
195.0
 30
0.0
 11
599.99999999999989
 21
195.00000000000011
 31
0.0
  0
LINE
  5
593
  8
0
 10
115.0
 20
215.0
 30
0.0
 11
599.99999999999989
 21
215.00000000000011
 31
0.0
  0
LINE
  5
594
  8
1
 10
126.0
 20
80.0
 30
0.0
 11
134.0
 21
80.0
 31
0.0
  0
CIRCLE
  5
59A
  8
0
 10
130.0
 20
80.0
 30
0.0
 40
2.75
  0
LINE
  5
59B
  8
1
 10
130.0
 20
76.0
 30
0.0
 11
130.0
 21
84.0
 31
0.0
  0
LINE
  5
59C
  8
0
 10
65.0
 20
215.0
 30
0.0
 11
65.0
 21
195.0
 31
0.0
  0
LINE
  5
59D
  8
0
 10
60.0
 20
215.0
 30
0.0
 11
60.0
 21
195.0
 31
0.0
  0
LINE
  5
59E
  8
0
 10
60.0
 20
195.0
 30
0.0
 11
65.0
 21
195.0
 31
0.0
  0
LINE
  5
59F
  8
0
 10
60.0
 20
201.65000000000001
 30
0.0
 11
65.0
 21
201.65000000000001
 31
0.0
  0
LINE
  5
5A0
  8
0
 10
60.0
 20
208.34999999999999
 30
0.0
 11
65.0
 21
208.34999999999999
 31
0.0
  0
LINE
  5
5A1
  8
0
 10
65.0
 20
215.0
 30
0.0
 11
60.0
 21
215.0
 31
0.0
  0
LINE
  5
5A2
  8
1
 10
137.0
 20
205.0
 30
0.0
 11
123.0
 21
205.0
 31
0.0
  0
CIRCLE
  5
5A3
  8
0
 10
130.0
 20
205.0
 30
0.0
 40
5.0
  0
LINE
  5
5A4
  8
0
 10
100.0
 20
145.0
 30
0.0
 11
100.0
 21
140.0
 31
0.0
  0
LINE
  5
5A5
  8
0
 10
115.0
 20
145.0
 30
0.0
 11
115.0
 21
140.0
 31
0.0
  0
LINE
  5
5A6
  8
0
 10
100.0
 20
208.34999999999999
 30
0.0
 11
100.0
 21
201.65000000000001
 31
0.0
  0
LINE
  5
5A7
  8
0
 10
100.0
 20
201.65000000000001
 30
0.0
 11
115.0
 21
201.65000000000001
 31
0.0
  0
LINE
  5
5A8
  8
0
 10
115.0
 20
201.65000000000001
 30
0.0
 11
115.0
 21
195.0
 31
0.0
  0
LINE
  5
5A9
  8
0
 10
100.0
 20
208.34999999999999
 30
0.0
 11
115.0
 21
208.34999999999999
 31
0.0
  0
LINE
  5
5AA
  8
0
 10
115.0
 20
208.34999999999999
 30
0.0
 11
115.0
 21
215.0
 31
0.0
  0
CIRCLE
  5
5AB
  8
0
 10
130.0
 20
205.0
 30
0.0
 40
2.75
  0
LINE
  5
5AC
  8
1
 10
130.0
 20
212.0
 30
0.0
 11
130.0
 21
198.0
 31
0.0
  0
LINE
  5
5B2
  8
0
 10
585.49999999999977
 20
208.5
 30
0.0
 11
599.99999999999989
 21
208.5
 31
0.0
  0
LINE
  5
5B3
  8
0
 10
585.49999999999977
 20
201.5
 30
0.0
 11
599.99999999999989
 21
201.5
 31
0.0
  0
LINE
  5
5B5
  8
0
 10
599.99999999999989
 20
145.0
 30
0.0
 11
599.99999999999989
 21
140.0
 31
0.0
  0
LINE
  5
5B6
  8
0
 10
599.99999999999989
 20
201.5
 30
0.0
 11
599.99999999999989
 21
195.0
 31
0.0
  0
LINE
  5
5B7
  8
0
 10
599.99999999999989
 20
215.0
 30
0.0
 11
599.99999999999989
 21
208.5
 31
0.0
  0
LINE
  5
5B8
  8
0
 10
634.99999999999977
 20
215.0
 30
0.0
 11
634.99999999999977
 21
195.0
 31
0.0
  0
LINE
  5
5B9
  8
0
 10
639.99999999999977
 20
215.0
 30
0.0
 11
639.99999999999977
 21
195.0
 31
0.0
  0
LINE
  5
5BA
  8
0
 10
634.99999999999977
 20
195.0
 30
0.0
 11
639.99999999999977
 21
195.0
 31
0.0
  0
LINE
  5
5BB
  8
0
 10
634.99999999999977
 20
201.5
 30
0.0
 11
639.99999999999977
 21
201.5
 31
0.0
  0
LINE
  5
5BC
  8
0
 10
634.99999999999977
 20
208.5
 30
0.0
 11
639.99999999999977
 21
208.5
 31
0.0
  0
LINE
  5
5BD
  8
0
 10
634.99999999999977
 20
215.0
 30
0.0
 11
639.99999999999977
 21
215.0
 31
0.0
  0
ARC
  5
648
  8
0
 10
585.49999999999977
 20
205.0
 30
0.0
 40
3.5
 50
90.0
 51
270.0
  0
ARC
  5
6C5
  8
0
 10
585.49999999999977
 20
80.0
 30
0.0
 40
3.5
 50
90.0
 51
270.0
  0
LINE
  5
6C6
  8
0
 10
599.99999999999989
 20
90.0
 30
0.0
 11
599.99999999999989
 21
83.499999999999986
 31
0.0
  0
LINE
  5
6C7
  8
0
 10
599.99999999999989
 20
76.5
 30
0.0
 11
599.99999999999989
 21
70.0
 31
0.0
  0
LINE
  5
6C8
  8
0
 10
585.49999999999977
 20
76.5
 30
0.0
 11
599.99999999999989
 21
76.5
 31
0.0
  0
LINE
  5
6C9
  8
0
 10
585.49999999999977
 20
83.500000000000028
 30
0.0
 11
599.99999999999989
 21
83.499999999999986
 31
0.0
  0
LINE
  5
6CA
  8
0
 10
115.0
 20
83.349999999999994
 30
0.0
 11
115.0
 21
90.0
 31
0.0
  0
LINE
  5
6CB
  8
0
 10
100.0
 20
83.349999999999994
 30
0.0
 11
115.0
 21
83.349999999999994
 31
0.0
  0
LINE
  5
6CC
  8
0
 10
115.0
 20
76.650000000000034
 30
0.0
 11
115.0
 21
70.0
 31
0.0
  0
LINE
  5
6CD
  8
0
 10
100.0
 20
76.650000000000006
 30
0.0
 11
115.0
 21
76.650000000000006
 31
0.0
  0
LINE
  5
6CE
  8
0
 10
100.0
 20
83.349999999999994
 30
0.0
 11
100.0
 21
76.650000000000006
 31
0.0
  0
LINE
  5
6CF
  8
0
 10
115.0
 20
90.0
 30
0.0
 11
599.99999999999989
 21
90.000000000000099
 31
0.0
  0
LINE
  5
6D0
  8
0
 10
115.0
 20
70.0
 30
0.0
 11
599.99999999999989
 21
70.000000000000099
 31
0.0
  0
TEXT
  5
7B6
  8
0
 62
     3
 10
0.0
 20
0.0
 30
0.0
 40
10.0
  1
TCR20X5
  7
STANDARD1
  0
ENDSEC
  0
EOF
