  0
SECTION
  2
HEADER
  9
$ACADVER
  1
AC1009
  9
$INSBASE
 10
0.0
 20
0.0
 30
0.0
  9
$EXTMIN
 10
0.0
 20
-2.960436562073669
 30
0.0
  9
$EXTMAX
 10
279.5000000000046
 20
203.3149583217282
 30
0.0
  9
$LIMMIN
 10
0.0
 20
0.0
  9
$LIMMAX
 10
375.0
 20
270.0
  9
$ORTHOMODE
 70
     1
  9
$REGENMODE
 70
     1
  9
$FILLMODE
 70
     1
  9
$QTEXTMODE
 70
     0
  9
$MIRRTEXT
 70
     0
  9
$DRAGMODE
 70
     2
  9
$LTSCALE
 40
10.0
  9
$OSMODE
 70
    55
  9
$ATTMODE
 70
     1
  9
$TEXTSIZE
 40
5.0
  9
$TRACEWID
 40
0.05
  9
$TEXTSTYLE
  7
STANDARD
  9
$CLAYER
  8
0
  9
$CELTYPE
  6
BYLAYER
  9
$CECOLOR
 62
   256
  9
$DIMSCALE
 40
1.0
  9
$DIMASZ
 40
3.0
  9
$DIMEXO
 40
2.0
  9
$DIMDLI
 40
0.38
  9
$DIMRND
 40
0.0
  9
$DIMDLE
 40
0.0
  9
$DIMEXE
 40
2.0
  9
$DIMTP
 40
0.0
  9
$DIMTM
 40
0.0
  9
$DIMTXT
 40
3.2000000000000002
  9
$DIMCEN
 40
0.0
  9
$DIMTSZ
 40
0.0
  9
$DIMTOL
 70
     0
  9
$DIMLIM
 70
     0
  9
$DIMTIH
 70
     0
  9
$DIMTOH
 70
     0
  9
$DIMSE1
 70
     0
  9
$DIMSE2
 70
     0
  9
$DIMTAD
 70
     1
  9
$DIMZIN
 70
     0
  9
$DIMBLK
  1

  9
$DIMASO
 70
     1
  9
$DIMSHO
 70
     0
  9
$DIMPOST
  1

  9
$DIMAPOST
  1

  9
$DIMALT
 70
     0
  9
$DIMALTD
 70
     2
  9
$DIMALTF
 40
25.399999999999999
  9
$DIMLFAC
 40
1.0
  9
$DIMTOFL
 70
     1
  9
$DIMTVP
 40
1.6000000000000001
  9
$DIMTIX
 70
     1
  9
$DIMSOXD
 70
     0
  9
$DIMSAH
 70
     0
  9
$DIMBLK1
  1

  9
$DIMBLK2
  1

  9
$DIMSTYLE
  2
STANDARD
  9
$DIMCLRD
 70
     0
  9
$DIMCLRE
 70
     0
  9
$DIMCLRT
 70
     0
  9
$DIMTFAC
 40
1.0
  9
$DIMGAP
 40
0.09
  9
$LUNITS
 70
     2
  9
$LUPREC
 70
     4
  9
$SKETCHINC
 40
0.1
  9
$FILLETRAD
 40
0.0
  9
$AUNITS
 70
     0
  9
$AUPREC
 70
     4
  9
$MENU
  1
E:\r13\win\SUPPORT\ACAD
  9
$ELEVATION
 40
0.0
  9
$PELEVATION
 40
0.0
  9
$THICKNESS
 40
0.0
  9
$LIMCHECK
 70
     0
  9
$BLIPMODE
 70
     0
  9
$CHAMFERA
 40
0.0
  9
$CHAMFERB
 40
0.0
  9
$SKPOLY
 70
     0
  9
$TDCREATE
 40
2449839.7851041672
  9
$TDUPDATE
 40
2456598.4381825812
  9
$TDINDWG
 40
0.0001929398
  9
$TDUSRTIMER
 40
0.0001929398
  9
$USRTIMER
 70
     1
  9
$ANGBASE
 50
0.0
  9
$ANGDIR
 70
     0
  9
$PDMODE
 70
     0
  9
$PDSIZE
 40
0.0
  9
$PLINEWID
 40
0.0
  9
$COORDS
 70
     1
  9
$SPLFRAME
 70
     0
  9
$SPLINETYPE
 70
     6
  9
$SPLINESEGS
 70
     8
  9
$ATTDIA
 70
     0
  9
$ATTREQ
 70
     1
  9
$HANDLING
 70
     1
  9
$HANDSEED
  5
2A4
  9
$SURFTAB1
 70
     6
  9
$SURFTAB2
 70
     6
  9
$SURFTYPE
 70
     6
  9
$SURFU
 70
     6
  9
$SURFV
 70
     6
  9
$UCSNAME
  2

  9
$UCSORG
 10
0.0
 20
0.0
 30
0.0
  9
$UCSXDIR
 10
1.0
 20
0.0
 30
0.0
  9
$UCSYDIR
 10
0.0
 20
1.0
 30
0.0
  9
$PUCSNAME
  2

  9
$PUCSORG
 10
0.0
 20
0.0
 30
0.0
  9
$PUCSXDIR
 10
1.0
 20
0.0
 30
0.0
  9
$PUCSYDIR
 10
0.0
 20
1.0
 30
0.0
  9
$USERI1
 70
     0
  9
$USERI2
 70
     1
  9
$USERI3
 70
     1
  9
$USERI4
 70
     0
  9
$USERI5
 70
     0
  9
$USERR1
 40
0.0
  9
$USERR2
 40
0.0
  9
$USERR3
 40
0.0
  9
$USERR4
 40
0.0
  9
$USERR5
 40
0.0
  9
$WORLDVIEW
 70
     1
  9
$SHADEDGE
 70
     3
  9
$SHADEDIF
 70
    70
  9
$TILEMODE
 70
     1
  9
$MAXACTVP
 70
    16
  9
$PLIMCHECK
 70
     0
  9
$PEXTMIN
 10
1.0000000000000000E+020
 20
1.0000000000000000E+020
 30
1.0000000000000000E+020
  9
$PEXTMAX
 10
-1.0000000000000000E+020
 20
-1.0000000000000000E+020
 30
-1.0000000000000000E+020
  9
$PLIMMIN
 10
0.0
 20
0.0
  9
$PLIMMAX
 10
12.0
 20
9.0
  9
$UNITMODE
 70
     0
  9
$VISRETAIN
 70
     0
  9
$PLINEGEN
 70
     0
  9
$PSLTSCALE
 70
     0
  0
ENDSEC
  0
SECTION
  2
TABLES
  0
TABLE
  2
VPORT
 70
     1
  0
VPORT
  2
*ACTIVE
 70
     0
 10
0.0
 20
0.0
 11
1.0
 21
1.0
 12
187.4942783906524
 22
197.0509055860143
 13
0.0
 23
0.0
 14
10.0
 24
10.0
 15
10.0
 25
10.0
 16
0.0
 26
0.0
 36
1.0
 17
0.0
 27
0.0
 37
0.0
 40
403.57315882993248
 41
1.7807262569832401
 42
50.0
 43
0.0
 44
0.0
 50
0.0
 51
0.0
 71
     0
 72
   500
 73
     1
 74
     0
 75
     0
 76
     0
 77
     0
 78
     2
  0
ENDTAB
  0
TABLE
  2
LTYPE
 70
     4
  0
LTYPE
  2
CONTINUOUS
 70
     0
  3
Solid Line
 72
    65
 73
     0
 40
0.0
  0
LTYPE
  2
CENTER
 70
     0
  3
____ _ ____ _ ____ _ ____ _ ____ _ ____ _ ____
 72
    65
 73
     4
 40
2.0
 49
1.25
 49
-0.25
 49
0.25
 49
-0.25
  0
LTYPE
  2
HIDDEN
 70
     0
  3
_ _ _ _ _ _ _ _ _ _ _ _ _ _ _ _ _ _ _ _ _ _ _
 72
    65
 73
     2
 40
0.375
 49
0.25
 49
-0.125
  0
LTYPE
  2
PHANTOM2
 70
     0
  3
___ _ _ ___ _ _ ___ _ _ ___ _ _
 72
    65
 73
     6
 40
1.25
 49
0.625
 49
-0.125
 49
0.125
 49
-0.125
 49
0.125
 49
-0.125
  0
ENDTAB
  0
TABLE
  2
LAYER
 70
     3
  0
LAYER
  2
0
 70
     0
 62
     7
  6
CONTINUOUS
  0
LAYER
  2
1
 70
     0
 62
     1
  6
CENTER
  0
LAYER
  2
2
 70
     0
 62
     2
  6
HIDDEN
  0
ENDTAB
  0
TABLE
  2
STYLE
 70
     2
  0
STYLE
  2
STANDARD
 70
     0
 40
0.0
 41
1.0
 50
0.0
 71
     0
 42
5.0
  3
TXT
  4
BIGFONT
  0
STYLE
  2
STANDARD1
 70
     0
 40
0.0
 41
1.0
 50
0.0
 71
     0
 42
3.0
  3
txt
  4

  0
ENDTAB
  0
TABLE
  2
VIEW
 70
     1
  0
VIEW
  2
ALL
 70
     0
 40
270.0
 10
220.99159663865549
 20
135.0
 41
0.0
 11
0.0
 21
0.0
 31
1.0
 12
0.0
 22
0.0
 32
0.0
 42
0.0
 43
0.0
 44
0.0
 50
0.0
 71
     0
  0
ENDTAB
  0
TABLE
  2
UCS
 70
     0
  0
ENDTAB
  0
TABLE
  2
APPID
 70
     3
  0
APPID
  2
ACAD
 70
     0
  0
APPID
  2
ACAD_MLEADERVER
 70
     0
  0
APPID
  2
ACAD_NAV_VCDISPLAY
 70
     0
  0
ENDTAB
  0
TABLE
  2
DIMSTYLE
 70
     1
  0
DIMSTYLE
  2
STANDARD
 70
     0
  3

  4

  5

  6

  7

 40
1.0
 41
0.18
 42
0.0625
 43
0.38
 44
0.18
 45
0.0
 46
0.0
 47
0.0
 48
0.0
140
0.18
141
0.09
142
0.0
143
25.399999999999999
144
1.0
145
0.0
146
1.0
147
0.09
 71
     0
 72
     0
 73
     1
 74
     1
 75
     0
 76
     0
 77
     0
 78
     0
170
     0
171
     2
172
     0
173
     0
174
     0
175
     0
176
     0
177
     0
178
     0
  0
ENDTAB
  0
ENDSEC
  0
SECTION
  2
BLOCKS
  0
BLOCK
  8
0
  2
$MODEL_SPACE
 70
     0
 10
0.0
 20
0.0
 30
0.0
  3
$MODEL_SPACE
  1

  0
ENDBLK
  5
EC
  8
0
  0
BLOCK
 67
     1
  8
0
  2
$PAPER_SPACE
 70
     0
 10
0.0
 20
0.0
 30
0.0
  3
$PAPER_SPACE
  1

  0
ENDBLK
  5
EA
 67
     1
  8
0
  0
BLOCK
  8
0
  2
ELLIPSE
 70
     0
 10
0.0
 20
0.0
 30
0.0
  3
ELLIPSE
  1

  0
CIRCLE
  5
2D
  8
0
 10
0.5
 20
0.5
 30
0.0
 40
0.5
  0
ENDBLK
  5
2E
  8
0
  0
ENDSEC
  0
SECTION
  2
ENTITIES
  0
LINE
  5
3A
  8
1
 10
180.0
 20
203.3149583217282
 30
0.0
 11
180.0
 21
174.3149583217282
 31
0.0
  0
LINE
  5
3B
  8
1
 10
140.5000000000002
 20
188.8149583217282
 30
0.0
 11
219.5000000000006
 21
188.8149583217282
 31
0.0
  0
ARC
  5
3C
  8
0
 10
180.0
 20
289.31495832172823
 30
0.0
 40
110.0
 50
253.78286584822251
 51
286.21713415177749
  0
ARC
  5
3D
  8
0
 10
180.0
 20
88.314958321728227
 30
0.0
 40
110.0
 50
73.782865848222414
 51
106.2171341517776
  0
ARC
  5
3E
  8
0
 10
150.86199999999971
 20
188.8149583217282
 30
0.0
 40
5.3620000000000001
 50
107.1667006035305
 51
252.8332993964697
  0
ARC
  5
3F
  8
0
 10
209.13800000000029
 20
188.8149583217282
 30
0.0
 40
5.3620000000000001
 50
287.16670060353022
 51
72.833299396469457
  0
LINE
  5
40
  8
1
 10
180.0
 20
130.0151494401093
 30
0.0
 11
180.0
 21
80.015149440109326
 31
0.0
  0
LINE
  5
41
  8
0
 10
174.0
 20
85.615149440109818
 30
0.0
 11
174.60000000000051
 21
85.015149440109326
 31
0.0
  0
LINE
  5
42
  8
0
 10
186.0
 20
85.615149440109803
 30
0.0
 11
185.39999999999949
 21
85.015149440109326
 31
0.0
  0
LINE
  5
43
  8
0
 10
174.60000000000051
 20
85.015149440109326
 30
0.0
 11
185.39999999999949
 21
85.015149440109326
 31
0.0
  0
ARC
  5
44
  8
0
 10
180.0
 20
45.015149440109333
 30
0.0
 40
80.0
 50
66.964314276588823
 51
113.0356824884712
  0
ARC
  5
45
  8
0
 10
209.24999999999989
 20
113.80468352778909
 30
0.0
 40
5.250000000000056
 50
260.39211586467343
 51
66.964291246897545
  0
LINE
  5
46
  8
0
 10
188.30000000000439
 20
101.5151494401093
 30
0.0
 11
171.6999999999955
 21
101.5151494401093
 31
0.0
  0
LINE
  5
47
  8
0
 10
189.50000000000441
 20
102.7151494401093
 30
0.0
 11
189.50000000000449
 21
108.0824975923131
 31
0.0
  0
LINE
  5
48
  8
0
 10
186.0
 20
85.615149440109803
 30
0.0
 11
186.0
 21
101.5151494401093
 31
0.0
  0
LINE
  5
49
  8
0
 10
174.0
 20
85.615149440109818
 30
0.0
 11
174.0
 21
101.5151494401093
 31
0.0
  0
ARC
  5
4A
  8
0
 10
192.0
 20
108.0824975923131
 30
0.0
 40
2.4999999999955702
 50
85.891708279371244
 51
180.0
  0
ARC
  5
4B
  8
0
 10
188.30000000000439
 20
102.7151494401093
 30
0.0
 40
1.1999999999999991
 50
270.0
 51
360.0
  0
ARC
  5
4C
  8
0
 10
171.6999999999955
 20
102.7151494401093
 30
0.0
 40
1.1999999999999991
 50
180.0
 51
270.0
  0
ARC
  5
4D
  8
0
 10
167.99999999999989
 20
108.0824975923131
 30
0.0
 40
2.4999999999955702
 50
360.0
 51
94.108291720628728
  0
LINE
  5
4E
  8
0
 10
170.49999999999551
 20
102.7151494401093
 30
0.0
 11
170.49999999999551
 21
108.0824975923131
 31
0.0
  0
ARC
  5
4F
  8
0
 10
150.75
 20
113.80468352778909
 30
0.0
 40
5.250000000000056
 50
113.0357087531024
 51
279.60788413532657
  0
ARC
  5
50
  8
0
 10
180.0
 20
106.6818164288936
 30
0.0
 40
10.333333011215659
 50
23.16805056214238
 51
156.8319494378575
  0
ARC
  5
51
  8
0
 10
180.0
 20
-58.987098684213102
 30
0.0
 40
169.99999999999989
 50
80.392115864673514
 51
85.891708279371855
  0
ARC
  5
52
  8
0
 10
180.0
 20
-58.987098684213102
 30
0.0
 40
169.99999999999989
 50
94.108291720628117
 51
99.607884135326472
  0
ARC
  5
53
  8
1
 10
179.99999999999989
 20
14.15412232296439
 30
0.0
 40
102.8610271171448
 50
67.984056759857609
 51
112.01594324014231
  0
LINE
  5
54
  8
2
 10
177.0000070299705
 20
85.015149440109326
 30
0.0
 11
177.0000070299705
 21
110.0151494401093
 31
0.0
  0
LINE
  5
55
  8
2
 10
177.0000070299705
 20
110.0151494401093
 30
0.0
 11
182.9999929700295
 21
110.0151494401093
 31
0.0
  0
LINE
  5
56
  8
2
 10
177.0000070299705
 20
110.0151494401093
 30
0.0
 11
180.0
 21
111.7471961889228
 31
0.0
  0
LINE
  5
57
  8
2
 62
     0
 10
179.92998219107619
 20
111.7067713880927
 30
0.0
 11
180.0
 21
111.7767891970164
 31
0.0
  0
LINE
  5
58
  8
0
 10
260.49999999999562
 20
102.7151494401093
 30
0.0
 11
260.49999999999551
 21
117.0151494401092
 31
0.0
  0
ARC
  5
59
  8
0
 10
261.69999999999561
 20
102.7151494401093
 30
0.0
 40
1.1999999999999991
 50
180.0
 51
270.0
  0
ARC
  5
5A
  8
0
 10
278.30000000000439
 20
102.7151494401093
 30
0.0
 40
1.1999999999999991
 50
270.0
 51
360.0
  0
LINE
  5
5B
  8
0
 10
264.0
 20
85.615149440109775
 30
0.0
 11
264.0
 21
101.5151494401093
 31
0.0
  0
LINE
  5
5C
  8
0
 10
276.0
 20
85.615149440109775
 30
0.0
 11
276.0
 21
101.5151494401093
 31
0.0
  0
LINE
  5
5D
  8
0
 10
279.50000000000438
 20
102.7151494401093
 30
0.0
 11
279.50000000000449
 21
117.0151494401092
 31
0.0
  0
LINE
  5
5E
  8
0
 10
278.30000000000439
 20
101.5151494401093
 30
0.0
 11
261.69999999999561
 21
101.5151494401093
 31
0.0
  0
LINE
  5
5F
  8
0
 10
264.60000000000048
 20
85.015149440109312
 30
0.0
 11
275.39999999999952
 21
85.015149440109312
 31
0.0
  0
LINE
  5
60
  8
0
 10
276.0
 20
85.615149440109775
 30
0.0
 11
275.39999999999952
 21
85.015149440109312
 31
0.0
  0
LINE
  5
61
  8
0
 10
264.0
 20
85.615149440109775
 30
0.0
 11
264.60000000000048
 21
85.015149440109312
 31
0.0
  0
LINE
  5
62
  8
1
 10
270.0
 20
130.0151494401093
 30
0.0
 11
270.0
 21
80.015149440109312
 31
0.0
  0
INSERT
  5
63
  8
0
  2
ELLIPSE
 10
260.49999999999562
 20
108.554683527789
 30
0.0
 41
19.000000000008949
 42
16.460465912320242
 43
19.000000000008949
  0
LINE
  5
6D
  8
2
 10
182.9999929700295
 20
110.0151494401093
 30
0.0
 11
180.0
 21
111.7471961889228
 31
0.0
  0
LINE
  5
6E
  8
2
 10
182.9999929700295
 20
85.015149440109326
 30
0.0
 11
182.9999929700295
 21
110.0151494401093
 31
0.0
  0
LINE
  5
6F
  8
0
 10
174.0
 20
85.615149440109846
 30
0.0
 11
186.0
 21
85.615149440109818
 31
0.0
  0
LINE
  5
70
  8
0
 10
264.0
 20
85.615149440109775
 30
0.0
 11
276.0
 21
85.615149440109818
 31
0.0
  0
LINE
  5
71
  8
0
 10
96.0
 20
85.615149440109775
 30
0.0
 11
84.0
 21
85.615149440109818
 31
0.0
  0
INSERT
  5
72
  8
0
  2
ELLIPSE
 10
99.500000000004434
 20
108.554683527789
 30
0.0
 41
-19.000000000008949
 42
16.460465912320242
 43
19.000000000008949
 50
0.0000000000000254
  0
LINE
  5
73
  8
1
 10
90.0
 20
130.0151494401093
 30
0.0
 11
90.0
 21
80.015149440109312
 31
0.0
  0
LINE
  5
74
  8
0
 10
96.0
 20
85.615149440109775
 30
0.0
 11
95.399999999999523
 21
85.015149440109312
 31
0.0
  0
LINE
  5
75
  8
0
 10
84.0
 20
85.615149440109775
 30
0.0
 11
84.600000000000477
 21
85.015149440109312
 31
0.0
  0
LINE
  5
76
  8
0
 10
95.399999999999523
 20
85.015149440109312
 30
0.0
 11
84.600000000000477
 21
85.015149440109312
 31
0.0
  0
LINE
  5
77
  8
0
 10
81.699999999995555
 20
101.5151494401093
 30
0.0
 11
98.300000000004445
 21
101.5151494401093
 31
0.0
  0
LINE
  5
78
  8
0
 10
80.499999999995566
 20
102.7151494401093
 30
0.0
 11
80.499999999995509
 21
117.0151494401092
 31
0.0
  0
LINE
  5
79
  8
0
 10
84.0
 20
85.615149440109775
 30
0.0
 11
84.0
 21
101.5151494401093
 31
0.0
  0
LINE
  5
7A
  8
0
 10
96.0
 20
85.615149440109775
 30
0.0
 11
96.0
 21
101.5151494401093
 31
0.0
  0
ARC
  5
7B
  8
0
 10
81.699999999995555
 20
102.7151494401093
 30
0.0
 40
1.1999999999999991
 50
180.0
 51
270.00000000000011
  0
ARC
  5
7C
  8
0
 10
98.300000000004445
 20
102.7151494401093
 30
0.0
 40
1.1999999999999991
 50
270.00000000000011
 51
0.0000000000000509
  0
LINE
  5
7D
  8
0
 10
99.500000000004434
 20
102.7151494401093
 30
0.0
 11
99.500000000004505
 21
117.0151494401092
 31
0.0
  0
LINE
  5
7E
  8
2
 10
272.99999297002961
 20
85.015149440109298
 30
0.0
 11
272.99999297002961
 21
110.0151494401093
 31
0.0
  0
LINE
  5
7F
  8
2
 10
272.99999297002961
 20
110.0151494401093
 30
0.0
 11
270.00000000000011
 21
111.7471961889228
 31
0.0
  0
LINE
  5
80
  8
2
 62
     0
 10
269.92998219107631
 20
111.7067713880927
 30
0.0
 11
270.00000000000011
 21
111.7767891970164
 31
0.0
  0
LINE
  5
81
  8
2
 10
267.0000070299705
 20
110.0151494401093
 30
0.0
 11
270.0
 21
111.7471961889228
 31
0.0
  0
LINE
  5
82
  8
2
 10
267.0000070299705
 20
110.0151494401093
 30
0.0
 11
272.99999297002961
 21
110.0151494401093
 31
0.0
  0
LINE
  5
83
  8
2
 10
267.0000070299705
 20
85.015149440109298
 30
0.0
 11
267.0000070299705
 21
110.0151494401093
 31
0.0
  0
LINE
  5
84
  8
2
 10
92.999992970029524
 20
85.015149440109326
 30
0.0
 11
92.999992970029524
 21
110.0151494401093
 31
0.0
  0
LINE
  5
85
  8
2
 10
92.999992970029496
 20
110.0151494401093
 30
0.0
 11
90.000000000000028
 21
111.7471961889228
 31
0.0
  0
LINE
  5
86
  8
2
 62
     0
 10
89.929982191076277
 20
111.7067713880927
 30
0.0
 11
90.000000000000028
 21
111.7767891970164
 31
0.0
  0
LINE
  5
87
  8
2
 10
87.000007029970504
 20
110.0151494401093
 30
0.0
 11
89.999999999999986
 21
111.7471961889228
 31
0.0
  0
LINE
  5
88
  8
2
 10
87.000007029970476
 20
110.0151494401093
 30
0.0
 11
92.999992970029524
 21
110.0151494401093
 31
0.0
  0
LINE
  5
89
  8
2
 10
87.000007029970476
 20
85.015149440109326
 30
0.0
 11
87.000007029970476
 21
110.0151494401093
 31
0.0
  0
TEXT
  5
20F
  8
0
 62
     3
 10
0.0
 20
0.0
 30
0.0
 40
10.0
  1
TH70
  7
STANDARD1
  0
ENDSEC
  0
EOF
