  0
SECTION
  2
HEADER
  9
$ACADVER
  1
AC1009
  9
$INSBASE
 10
0.0
 20
0.0
 30
0.0
  9
$EXTMIN
 10
0.0
 20
-2.960436562073669
 30
0.0
  9
$EXTMAX
 10
126.6062056300145
 20
126.72946225853281
 30
0.0
  9
$LIMMIN
 10
0.0
 20
0.0
  9
$LIMMAX
 10
187.5
 20
135.0
  9
$ORTHOMODE
 70
     1
  9
$REGENMODE
 70
     1
  9
$FILLMODE
 70
     1
  9
$QTEXTMODE
 70
     0
  9
$MIRRTEXT
 70
     0
  9
$DRAGMODE
 70
     2
  9
$LTSCALE
 40
5.0
  9
$OSMODE
 70
    37
  9
$ATTMODE
 70
     1
  9
$TEXTSIZE
 40
4.000000000000048
  9
$TRACEWID
 40
0.05
  9
$TEXTSTYLE
  7
STANDARD
  9
$CLAYER
  8
0
  9
$CELTYPE
  6
BYLAYER
  9
$CECOLOR
 62
   256
  9
$DIMSCALE
 40
1.0
  9
$DIMASZ
 40
3.0
  9
$DIMEXO
 40
2.0
  9
$DIMDLI
 40
0.38
  9
$DIMRND
 40
0.0
  9
$DIMDLE
 40
0.0
  9
$DIMEXE
 40
2.0
  9
$DIMTP
 40
0.0
  9
$DIMTM
 40
0.0
  9
$DIMTXT
 40
3.2000000000000002
  9
$DIMCEN
 40
0.09
  9
$DIMTSZ
 40
0.0
  9
$DIMTOL
 70
     0
  9
$DIMLIM
 70
     0
  9
$DIMTIH
 70
     0
  9
$DIMTOH
 70
     0
  9
$DIMSE1
 70
     0
  9
$DIMSE2
 70
     0
  9
$DIMTAD
 70
     1
  9
$DIMZIN
 70
     8
  9
$DIMBLK
  1

  9
$DIMASO
 70
     1
  9
$DIMSHO
 70
     0
  9
$DIMPOST
  1

  9
$DIMAPOST
  1

  9
$DIMALT
 70
     0
  9
$DIMALTD
 70
     2
  9
$DIMALTF
 40
25.399999999999999
  9
$DIMLFAC
 40
1.0
  9
$DIMTOFL
 70
     0
  9
$DIMTVP
 40
1.6000000000000001
  9
$DIMTIX
 70
     1
  9
$DIMSOXD
 70
     0
  9
$DIMSAH
 70
     0
  9
$DIMBLK1
  1

  9
$DIMBLK2
  1

  9
$DIMSTYLE
  2
STANDARD
  9
$DIMCLRD
 70
     0
  9
$DIMCLRE
 70
     0
  9
$DIMCLRT
 70
     0
  9
$DIMTFAC
 40
1.0
  9
$DIMGAP
 40
0.09
  9
$LUNITS
 70
     2
  9
$LUPREC
 70
     1
  9
$SKETCHINC
 40
0.1
  9
$FILLETRAD
 40
1.8999999999999999
  9
$AUNITS
 70
     0
  9
$AUPREC
 70
     0
  9
$MENU
  1
E:\r13\win\SUPPORT\ACAD
  9
$ELEVATION
 40
0.0
  9
$PELEVATION
 40
0.0
  9
$THICKNESS
 40
0.0
  9
$LIMCHECK
 70
     0
  9
$BLIPMODE
 70
     0
  9
$CHAMFERA
 40
0.0
  9
$CHAMFERB
 40
0.0
  9
$SKPOLY
 70
     0
  9
$TDCREATE
 40
2451582.7089806711
  9
$TDUPDATE
 40
2458183.5884652319
  9
$TDINDWG
 40
0.1970038542
  9
$TDUSRTIMER
 40
0.1970038542
  9
$USRTIMER
 70
     1
  9
$ANGBASE
 50
0.0
  9
$ANGDIR
 70
     0
  9
$PDMODE
 70
     0
  9
$PDSIZE
 40
0.0
  9
$PLINEWID
 40
0.0
  9
$COORDS
 70
     1
  9
$SPLFRAME
 70
     0
  9
$SPLINETYPE
 70
     6
  9
$SPLINESEGS
 70
     8
  9
$ATTDIA
 70
     0
  9
$ATTREQ
 70
     1
  9
$HANDLING
 70
     1
  9
$HANDSEED
  5
1C6E
  9
$SURFTAB1
 70
     6
  9
$SURFTAB2
 70
     6
  9
$SURFTYPE
 70
     6
  9
$SURFU
 70
     6
  9
$SURFV
 70
     6
  9
$UCSNAME
  2

  9
$UCSORG
 10
0.0
 20
0.0
 30
0.0
  9
$UCSXDIR
 10
1.0
 20
0.0
 30
0.0
  9
$UCSYDIR
 10
0.0
 20
1.0
 30
0.0
  9
$PUCSNAME
  2

  9
$PUCSORG
 10
0.0
 20
0.0
 30
0.0
  9
$PUCSXDIR
 10
1.0
 20
0.0
 30
0.0
  9
$PUCSYDIR
 10
0.0
 20
1.0
 30
0.0
  9
$USERI1
 70
     0
  9
$USERI2
 70
     1
  9
$USERI3
 70
     1
  9
$USERI4
 70
     0
  9
$USERI5
 70
     0
  9
$USERR1
 40
0.0
  9
$USERR2
 40
0.0
  9
$USERR3
 40
0.0
  9
$USERR4
 40
0.0
  9
$USERR5
 40
0.0
  9
$WORLDVIEW
 70
     1
  9
$SHADEDGE
 70
     3
  9
$SHADEDIF
 70
    70
  9
$TILEMODE
 70
     1
  9
$MAXACTVP
 70
    16
  9
$PLIMCHECK
 70
     0
  9
$PEXTMIN
 10
1.0000000000000000E+020
 20
1.0000000000000000E+020
 30
1.0000000000000000E+020
  9
$PEXTMAX
 10
-1.0000000000000000E+020
 20
-1.0000000000000000E+020
 30
-1.0000000000000000E+020
  9
$PLIMMIN
 10
0.0
 20
0.0
  9
$PLIMMAX
 10
12.0
 20
9.0
  9
$UNITMODE
 70
     0
  9
$VISRETAIN
 70
     0
  9
$PLINEGEN
 70
     0
  9
$PSLTSCALE
 70
     0
  0
ENDSEC
  0
SECTION
  2
TABLES
  0
TABLE
  2
VPORT
 70
     1
  0
VPORT
  2
*ACTIVE
 70
     0
 10
0.0
 20
0.0
 11
1.0
 21
1.0
 12
172.54273504273499
 22
95.0
 13
0.0
 23
0.0
 14
5.0
 24
5.0
 15
5.0
 25
5.0
 16
0.0
 26
0.0
 36
1.0
 17
0.0
 27
0.0
 37
0.0
 40
190.0
 41
1.816239316239316
 42
50.0
 43
0.0
 44
0.0
 50
0.0
 51
0.0
 71
     0
 72
   500
 73
     1
 74
     0
 75
     0
 76
     0
 77
     0
 78
     2
  0
ENDTAB
  0
TABLE
  2
LTYPE
 70
     4
  0
LTYPE
  2
CONTINUOUS
 70
     0
  3
Solid Line
 72
    65
 73
     0
 40
0.0
  0
LTYPE
  2
CENTER
 70
     0
  3
____ _ ____ _ ____ _ ____ _ ____ _ ____ _ ____
 72
    65
 73
     4
 40
2.0
 49
1.25
 49
-0.25
 49
0.25
 49
-0.25
  0
LTYPE
  2
HIDDEN
 70
     0
  3
_ _ _ _ _ _ _ _ _ _ _ _ _ _ _ _ _ _ _ _ _ _ _
 72
    65
 73
     2
 40
0.375
 49
0.25
 49
-0.125
  0
LTYPE
  2
PHANTOM2
 70
     0
  3
___ _ _ ___ _ _ ___ _ _ ___ _ _
 72
    65
 73
     6
 40
1.25
 49
0.625
 49
-0.125
 49
0.125
 49
-0.125
 49
0.125
 49
-0.125
  0
ENDTAB
  0
TABLE
  2
LAYER
 70
     4
  0
LAYER
  2
0
 70
     0
 62
     7
  6
CONTINUOUS
  0
LAYER
  2
1
 70
     0
 62
     1
  6
CENTER
  0
LAYER
  2
2
 70
     0
 62
     2
  6
HIDDEN
  0
LAYER
  2
DEFPOINTS
 70
     0
 62
     7
  6
CONTINUOUS
  0
ENDTAB
  0
TABLE
  2
STYLE
 70
     2
  0
STYLE
  2
STANDARD
 70
     0
 40
0.0
 41
1.0
 50
0.0
 71
     0
 42
4.000000000000048
  3
TXT
  4
BIGFONT
  0
STYLE
  2
STANDARD1
 70
     0
 40
0.0
 41
1.0
 50
0.0
 71
     0
 42
3.0
  3
txt
  4

  0
ENDTAB
  0
TABLE
  2
VIEW
 70
     2
  0
VIEW
  2
ALL
 70
     0
 40
135.0
 10
110.4957983193277
 20
67.5
 41
0.0
 11
0.0
 21
0.0
 31
1.0
 12
0.0
 22
0.0
 32
0.0
 42
0.0
 43
0.0
 44
0.0
 50
0.0
 71
     0
  0
VIEW
  2
OLE1
 70
     0
 40
235.2079806749349
 10
722.79185871078926
 20
95.257412002191856
 41
302.2278937573451
 11
0.0
 21
0.0
 31
1.0
 12
0.0
 22
0.0
 32
0.0
 42
50.0
 43
0.0
 44
0.0
 50
0.0
 71
     0
  0
ENDTAB
  0
TABLE
  2
UCS
 70
     0
  0
ENDTAB
  0
TABLE
  2
APPID
 70
    44
  0
APPID
  2
ACAD
 70
     0
  0
APPID
  2
ACAD_MLEADERVER
 70
     0
  0
APPID
  2
ACAD_NAV_VCDISPLAY
 70
     0
  0
APPID
  2
ACAD_DSTYLE_DIMJAG
 70
     0
  0
APPID
  2
ACAD_DSTYLE_DIMTALN
 70
     0
  0
APPID
  2
ACAD_EXEMPT_FROM_CAD_STANDARDS
 70
     0
  0
APPID
  2
GENIUS_GENODEF_13
 70
     0
  0
APPID
  2
GENIUS_GENFIL_13
 70
     0
  0
APPID
  2
GENIUS_GENOBJ-N-CHA_13
 70
     0
  0
APPID
  2
ACAD_DSTYLE_DIMRADIAL_EXTENSION
 70
     0
  0
APPID
  2
GENIUS_GENOREF_13
 70
     0
  0
APPID
  2
DCO15
 70
     0
  0
APPID
  2
GENIUS_GENOENT_13
 70
     0
  0
APPID
  2
GENIUS_GENBH_13
 70
     0
  0
APPID
  2
GENIUS_GENOBJ_13
 70
     0
  0
APPID
  2
GENIUS_GENOLIS_13
 70
     0
  0
APPID
  2
GENIUS_GENOBJ-NBEHI-BHF_13
 70
     0
  0
APPID
  2
GENIUS_GENOBJ-NBEHI-BHB_13
 70
     0
  0
APPID
  2
GENIUS_GENOBJ-F-PART_13
 70
     0
  0
APPID
  2
GENIUS_GEFSTDP_13
 70
     0
  0
APPID
  2
GENIUS_GENOBJ-N-RSSYM_13
 70
     0
  0
APPID
  2
GENIUS_GENSYMENT_13
 70
     0
  0
APPID
  2
GENIUS_GENOBJ-N-TIT_13
 70
     0
  0
APPID
  2
GENIUS_GENTITLE_13
 70
     0
  0
APPID
  2
GENIUS_GENZVEED_13
 70
     0
  0
APPID
  2
GENIUS_GENOBJ-N-LEADER_13
 70
     0
  0
APPID
  2
GENIUS_GENOBJ-N-FIL_13
 70
     0
  0
APPID
  2
GENIUS_GENOBJ-N-SEC_13
 70
     0
  0
APPID
  2
GENIUS_GENOBJ-N-CRS_13
 70
     0
  0
APPID
  2
GENIUS_GENOBJ-N-ZOO_13
 70
     0
  0
APPID
  2
GENIUS_GENZOO_13
 70
     0
  0
APPID
  2
GENIUS_GENOBJ-F-TOL_13
 70
     0
  0
APPID
  2
_CALL_MAC$
 70
     0
  0
APPID
  2
ASM_BASE
 70
     0
  0
APPID
  2
ASM_EXPLO_VER_2_00
 70
     0
  0
APPID
  2
ASM_CADM_VER_12_00
 70
     0
  0
APPID
  2
ASM_BASEFORO
 70
     0
  0
APPID
  2
ASM_BASETRAVI
 70
     0
  0
APPID
  2
ASM_BASETRAVI1
 70
     0
  0
APPID
  2
ASM_GRUPPI
 70
     0
  0
APPID
  2
ASM_CADM_ALBERO
 70
     0
  0
APPID
  2
ASM_GOLE
 70
     0
  0
APPID
  2
GENIUS_GENOBJ-N-CEN_13
 70
     0
  0
APPID
  2
GENIUS_GENCEN_19
 70
     0
  0
ENDTAB
  0
TABLE
  2
DIMSTYLE
 70
     1
  0
DIMSTYLE
  2
STANDARD
 70
     0
  3

  4

  5

  6

  7

 40
1.0
 41
0.18
 42
0.0625
 43
0.38
 44
0.18
 45
0.0
 46
0.0
 47
0.0
 48
0.0
140
0.18
141
0.09
142
0.0
143
25.399999999999999
144
1.0
145
0.0
146
1.0
147
0.09
 71
     0
 72
     0
 73
     1
 74
     1
 75
     0
 76
     0
 77
     0
 78
     0
170
     0
171
     2
172
     0
173
     0
174
     0
175
     0
176
     0
177
     0
178
     0
  0
ENDTAB
  0
ENDSEC
  0
SECTION
  2
BLOCKS
  0
BLOCK
  8
0
  2
$MODEL_SPACE
 70
     0
 10
0.0
 20
0.0
 30
0.0
  3
$MODEL_SPACE
  1

  0
ENDBLK
  5
968
  8
0
  0
BLOCK
 67
     1
  8
0
  2
$PAPER_SPACE
 70
     0
 10
0.0
 20
0.0
 30
0.0
  3
$PAPER_SPACE
  1

  0
ENDBLK
  5
966
 67
     1
  8
0
  0
ENDSEC
  0
SECTION
  2
ENTITIES
  0
POLYLINE
  5
EA8
  8
0
 66
     1
 10
0.0
 20
0.0
 30
0.0
  0
VERTEX
  5
1BDC
  8
0
 10
39.99999999999995
 20
99.729462258532593
 30
0.0
  0
VERTEX
  5
1BDD
  8
0
 10
41.173594579234241
 20
99.064405262419243
 30
0.0
  0
VERTEX
  5
1BDE
  8
0
 10
42.38119961793489
 20
98.457848723423695
 30
0.0
  0
VERTEX
  5
1BDF
  8
0
 10
43.618184014091241
 20
97.912370036009946
 30
0.0
  0
VERTEX
  5
1BE0
  8
0
 10
44.913707713076171
 20
97.418342763366326
 30
0.0
  0
VERTEX
  5
1BE1
  8
0
 10
46.234964431008471
 20
96.990972075922897
 30
0.0
  0
VERTEX
  5
1BE2
  8
0
 10
47.576503900776309
 20
96.632196858194746
 30
0.0
  0
VERTEX
  5
1BE3
  8
0
 10
49.011645222637412
 20
96.329136145395324
 30
0.0
  0
VERTEX
  5
1BE4
  8
0
 10
50.462972991321912
 20
96.104331772646063
 30
0.0
  0
VERTEX
  5
1BE5
  8
0
 10
51.923731321749983
 20
95.958928431290914
 30
0.0
  0
VERTEX
  5
1BE6
  8
0
 10
53.433857125091457
 20
95.892925455331863
 30
0.0
  0
VERTEX
  5
1BE7
  8
0
 10
54.94662491159113
 20
95.911694229977698
 30
0.0
  0
VERTEX
  5
1BE8
  8
0
 10
56.454547658778999
 20
96.015133337769171
 30
0.0
  0
VERTEX
  5
1BE9
  8
0
 10
57.900440926854799
 20
96.195079309923344
 30
0.0
  0
VERTEX
  5
1BEA
  8
0
 10
59.335037255700172
 20
96.452979254223294
 30
0.0
  0
VERTEX
  5
1BEB
  8
0
 10
60.751763841881818
 20
96.78753983562703
 30
0.0
  0
VERTEX
  5
1BEC
  8
0
 10
62.187308061629317
 20
97.211123291192493
 30
0.0
  0
VERTEX
  5
1BED
  8
0
 10
63.597084766800542
 20
97.713684536976814
 30
0.0
  0
VERTEX
  5
1BEE
  8
0
 10
64.974360688388003
 20
98.292580446448284
 30
0.0
  0
VERTEX
  5
1BEF
  8
0
 10
65.673658897551718
 20
98.621886686415266
 30
0.0
  0
VERTEX
  5
1BF0
  8
0
 10
66.362791477951532
 20
98.970906643803588
 30
0.0
  0
VERTEX
  5
1BF1
  8
0
 10
67.043489471062344
 20
99.340608244907216
 30
0.0
  0
VERTEX
  5
1BF2
  8
0
 10
67.712812921102
 20
99.729462258532948
 30
0.0
  0
SEQEND
  5
1BF3
  8
0
  0
POLYLINE
  5
EA9
  8
0
 66
     1
 10
0.0
 20
0.0
 30
0.0
  0
VERTEX
  5
1BF4
  8
0
 10
53.856406460551
 20
123.72946225853281
 30
0.0
  0
VERTEX
  5
1BF5
  8
0
 10
52.693652460099997
 20
123.0456277525375
 30
0.0
  0
VERTEX
  5
1BF6
  8
0
 10
51.56455613970445
 20
122.3030890497532
 30
0.0
  0
VERTEX
  5
1BF7
  8
0
 10
50.473665144818618
 20
121.50456810835109
 30
0.0
  0
VERTEX
  5
1BF8
  8
0
 10
49.398062737213202
 20
120.6296248659325
 30
0.0
  0
VERTEX
  5
1BF9
  8
0
 10
48.367320158388161
 20
119.6990678396573
 30
0.0
  0
VERTEX
  5
1BFA
  8
0
 10
47.385841670326577
 20
118.7166476622269
 30
0.0
  0
VERTEX
  5
1BFB
  8
0
 10
46.405812874937958
 20
117.6253090589983
 30
0.0
  0
VERTEX
  5
1BFC
  8
0
 10
45.485462840940549
 20
116.4808244200085
 30
0.0
  0
VERTEX
  5
1BFD
  8
0
 10
44.629160841864604
 20
115.2884721681978
 30
0.0
  0
VERTEX
  5
1BFE
  8
0
 10
43.816937849938078
 20
114.0136662551441
 30
0.0
  0
VERTEX
  5
1BFF
  8
0
 10
43.076808360806552
 20
112.69418645224
 30
0.0
  0
VERTEX
  5
1C00
  8
0
 10
42.412428054649858
 20
111.33656742023121
 30
0.0
  0
VERTEX
  5
1C01
  8
0
 10
41.845319369945003
 20
109.9944140650568
 30
0.0
  0
VERTEX
  5
1C02
  8
0
 10
41.351369278579448
 20
108.6230671697148
 30
0.0
  0
VERTEX
  5
1C03
  8
0
 10
40.93274412040256
 20
107.2288656167278
 30
0.0
  0
VERTEX
  5
1C04
  8
0
 10
40.581806223305762
 20
105.7738560872468
 30
0.0
  0
VERTEX
  5
1C05
  8
0
 10
40.312148857904781
 20
104.3016729954296
 30
0.0
  0
VERTEX
  5
1C06
  8
0
 10
40.124849643011203
 20
102.81946908660611
 30
0.0
  0
VERTEX
  5
1C07
  8
0
 10
40.060388258821519
 20
102.04920676364689
 30
0.0
  0
VERTEX
  5
1C08
  8
0
 10
40.01808222217872
 20
101.2778912790907
 30
0.0
  0
VERTEX
  5
1C09
  8
0
 10
39.997904261206152
 20
100.5035395502513
 30
0.0
  0
VERTEX
  5
1C0A
  8
0
 10
39.99999999999995
 20
99.729462258532593
 30
0.0
  0
SEQEND
  5
1C0B
  8
0
  0
POLYLINE
  5
EAA
  8
0
 66
     1
 10
0.0
 20
0.0
 30
0.0
  0
VERTEX
  5
1C0C
  8
0
 10
67.712812921102
 20
99.729462258532948
 30
0.0
  0
VERTEX
  5
1C0D
  8
0
 10
67.701971754327474
 20
101.07835740117871
 30
0.0
  0
VERTEX
  5
1C0E
  8
0
 10
67.623462081889727
 20
102.4274562306004
 30
0.0
  0
VERTEX
  5
1C0F
  8
0
 10
67.477367367705483
 20
103.7714593512344
 30
0.0
  0
VERTEX
  5
1C10
  8
0
 10
67.257444302681165
 20
105.1404335033278
 30
0.0
  0
VERTEX
  5
1C11
  8
0
 10
66.966928006065984
 20
106.4983647020865
 30
0.0
  0
VERTEX
  5
1C12
  8
0
 10
66.606864502004896
 20
107.8395633838589
 30
0.0
  0
VERTEX
  5
1C13
  8
0
 10
66.151750862546919
 20
109.2339621142267
 30
0.0
  0
VERTEX
  5
1C14
  8
0
 10
65.620772051280596
 20
110.6032504781937
 30
0.0
  0
VERTEX
  5
1C15
  8
0
 10
65.016314685060593
 20
111.9410053651406
 30
0.0
  0
VERTEX
  5
1C16
  8
0
 10
64.318410856998753
 20
113.2818134652999
 30
0.0
  0
VERTEX
  5
1C17
  8
0
 10
63.54577159325504
 20
114.58252364780969
 30
0.0
  0
VERTEX
  5
1C18
  8
0
 10
62.702228240920078
 20
115.83670267449121
 30
0.0
  0
VERTEX
  5
1C19
  8
0
 10
61.823442789952018
 20
116.9989091877335
 30
0.0
  0
VERTEX
  5
1C1A
  8
0
 10
60.882795735847481
 20
118.11235522151119
 30
0.0
  0
VERTEX
  5
1C1B
  8
0
 10
59.884693546084122
 20
119.1719952331359
 30
0.0
  0
VERTEX
  5
1C1C
  8
0
 10
58.800086500994212
 20
120.2034202762723
 30
0.0
  0
VERTEX
  5
1C1D
  8
0
 10
57.659966500841684
 20
121.1730410525826
 30
0.0
  0
VERTEX
  5
1C1E
  8
0
 10
56.469989198723283
 20
122.0763479492576
 30
0.0
  0
VERTEX
  5
1C1F
  8
0
 10
55.835157095456402
 20
122.51730093332139
 30
0.0
  0
VERTEX
  5
1C20
  8
0
 10
55.188335425083643
 20
122.9395936463446
 30
0.0
  0
VERTEX
  5
1C21
  8
0
 10
54.527820457855249
 20
123.3442412272727
 30
0.0
  0
VERTEX
  5
1C22
  8
0
 10
53.856406460551
 20
123.72946225853281
 30
0.0
  0
SEQEND
  5
1C23
  8
0
  0
CIRCLE
  5
EAB
  8
0
 10
53.856406460550971
 20
107.72946225853281
 30
0.0
 40
5.449086943711217
  0
LINE
  5
EAD
  8
1
 10
34.856406460550971
 20
107.72946225853281
 30
0.0
 11
72.856406460550943
 21
107.72946225853281
 31
0.0
  0
LINE
  5
EAE
  8
1
 10
53.856406460550971
 20
126.72946225853281
 30
0.0
 11
53.856406460550971
 21
88.729462258532806
 31
0.0
  0
LINE
  5
EB0
  8
2
 10
123.0647056300144
 20
110.18796225853281
 30
0.0
 11
111.6062056300144
 21
110.18796225853281
 31
0.0
  0
LINE
  5
EB1
  8
2
 10
111.6062056300144
 20
105.2709622585328
 30
0.0
 11
123.0647056300144
 21
105.2709622585328
 31
0.0
  0
LINE
  5
EB2
  8
2
 10
123.0647056300144
 20
105.2709622585328
 30
0.0
 11
123.6062056300144
 21
104.72946225853281
 31
0.0
  0
LINE
  5
EB3
  8
2
 10
123.6062056300144
 20
110.72946225853281
 30
0.0
 11
123.0647056300144
 21
110.18796225853281
 31
0.0
  0
LINE
  5
EB4
  8
2
 10
123.0647056300144
 20
105.2709622585328
 30
0.0
 11
123.0647056300144
 21
110.18796225853281
 31
0.0
  0
LINE
  5
EB5
  8
0
 10
123.6062056300144
 20
111.6294622585328
 30
0.0
 11
123.4062056300144
 21
111.6294622585328
 31
0.0
  0
LINE
  5
EB6
  8
0
 10
123.4062056300144
 20
103.8294622585328
 30
0.0
 11
123.6062056300144
 21
103.8294622585328
 31
0.0
  0
LINE
  5
EB7
  8
0
 10
123.6062056300144
 20
103.8294622585328
 30
0.0
 11
123.6062056300144
 21
111.6294622585328
 31
0.0
  0
LINE
  5
EBA
  8
2
 10
111.6062056300144
 20
104.72946225853281
 30
0.0
 11
111.6062056300144
 21
110.72946225853281
 31
0.0
  0
LINE
  5
EBF
  8
0
 10
123.4062056300144
 20
114.72946225853281
 30
0.0
 11
107.6062056300145
 21
114.72946225853281
 31
0.0
  0
LINE
  5
EC0
  8
0
 10
107.6062056300145
 20
100.72946225853281
 30
0.0
 11
123.4062056300144
 21
100.72946225853281
 31
0.0
  0
LINE
  5
EC1
  8
0
 10
123.4062056300144
 20
100.72946225853281
 30
0.0
 11
123.4062056300144
 21
114.72946225853281
 31
0.0
  0
LINE
  5
EC2
  8
0
 10
107.6062056300145
 20
123.72946225853281
 30
0.0
 11
107.6062056300145
 21
95.889462258532802
 31
0.0
  0
LINE
  5
EC3
  8
0
 10
98.472872296681047
 20
95.889462258532816
 30
0.0
 11
107.6062056300145
 21
95.889462258532802
 31
0.0
  0
LINE
  5
EC4
  8
0
 10
99.339538963347763
 20
123.72946225853281
 30
0.0
 11
107.6062056300145
 21
123.72946225853281
 31
0.0
  0
LINE
  5
EC5
  8
0
 10
99.339538963347763
 20
99.729462258532593
 30
0.0
 11
107.6062056300145
 21
99.729462258532806
 31
0.0
  0
LINE
  5
EC6
  8
0
 10
99.339538963347763
 20
99.729462258532749
 30
0.0
 11
98.472872296684329
 21
95.889462258547525
 31
0.0
  0
POLYLINE
  5
EC7
  8
0
 66
     1
 10
0.0
 20
0.0
 30
0.0
  0
VERTEX
  5
1C24
  8
0
 10
99.339538963347763
 20
123.72946225853281
 30
0.0
  0
VERTEX
  5
1C25
  8
0
 10
99.186508413428655
 20
123.0456277525375
 30
0.0
  0
VERTEX
  5
1C26
  8
0
 10
99.047883969341214
 20
122.3030890497532
 30
0.0
  0
VERTEX
  5
1C27
  8
0
 10
98.924045449118694
 20
121.50456810835109
 30
0.0
  0
VERTEX
  5
1C28
  8
0
 10
98.812620128902594
 20
120.6296248659325
 30
0.0
  0
VERTEX
  5
1C29
  8
0
 10
98.716832265129256
 20
119.6990678396574
 30
0.0
  0
VERTEX
  5
1C2A
  8
0
 10
98.636884844495285
 20
118.7166476622269
 30
0.0
  0
VERTEX
  5
1C2B
  8
0
 10
98.569699448121071
 20
117.6253090589983
 30
0.0
  0
VERTEX
  5
1C2C
  8
0
 10
98.520091199744343
 20
116.4808244200085
 30
0.0
  0
VERTEX
  5
1C2D
  8
0
 10
98.488119900652464
 20
115.2884721681978
 30
0.0
  0
VERTEX
  5
1C2E
  8
0
 10
98.475497038798949
 20
114.3368111707664
 30
0.0
  0
VERTEX
  5
1C2F
  8
0
 10
98.473348794523304
 20
113.3591021736267
 30
0.0
  0
VERTEX
  5
1C30
  8
0
 10
98.481673988699583
 20
112.35810198678099
 30
0.0
  0
VERTEX
  5
1C31
  8
0
 10
98.500471442201913
 20
111.33656742023121
 30
0.0
  0
VERTEX
  5
1C32
  8
0
 10
98.540094625714104
 20
109.9944140650568
 30
0.0
  0
VERTEX
  5
1C33
  8
0
 10
98.597112108201543
 20
108.6230671697148
 30
0.0
  0
VERTEX
  5
1C34
  8
0
 10
98.671446833750807
 20
107.2288656167278
 30
0.0
  0
VERTEX
  5
1C35
  8
0
 10
98.740704151629174
 20
106.13949789520051
 30
0.0
  0
VERTEX
  5
1C36
  8
0
 10
98.820346495291744
 20
105.0394641900471
 30
0.0
  0
VERTEX
  5
1C37
  8
0
 10
98.910246469562594
 20
103.9317820657037
 30
0.0
  0
VERTEX
  5
1C38
  8
0
 10
99.010276679265985
 20
102.81946908660611
 30
0.0
  0
VERTEX
  5
1C39
  8
0
 10
99.085278867123861
 20
102.04920676364689
 30
0.0
  0
VERTEX
  5
1C3A
  8
0
 10
99.165077234106676
 20
101.2778912790907
 30
0.0
  0
VERTEX
  5
1C3B
  8
0
 10
99.249934233435511
 20
100.5035395502513
 30
0.0
  0
VERTEX
  5
1C3C
  8
0
 10
99.339538963347763
 20
99.729462258532593
 30
0.0
  0
SEQEND
  5
1C3D
  8
0
  0
ARC
  5
EC8
  8
0
 10
158.57565007445959
 20
109.2183279992736
 30
0.0
 40
60.987620686974097
 50
166.23536311419869
 51
176.27688833172371
  0
ARC
  5
EC9
  8
0
 10
158.57565007445601
 20
106.2405965177916
 30
0.0
 40
60.987620686970487
 50
183.7231116682778
 51
189.7718402213408
  0
LINE
  5
ECA
  8
0
 10
97.716743371481641
 20
102.2803753148216
 30
0.0
 11
97.716743371481641
 21
113.178549202244
 31
0.0
  0
LINE
  5
ECB
  8
2
 10
123.6062056300144
 20
104.72946225853281
 30
0.0
 11
111.6062056300144
 21
104.72946225853281
 31
0.0
  0
LINE
  5
ECD
  8
2
 10
123.6062056300144
 20
110.72946225853281
 30
0.0
 11
111.6062056300144
 21
110.72946225853281
 31
0.0
  0
LINE
  5
ECF
  8
1
 10
126.6062056300145
 20
107.72946225853281
 30
0.0
 11
94.716743371481627
 21
107.72946225853281
 31
0.0
  0
LINE
  5
ED3
  8
2
 10
56.314906460550951
 20
40.541499999999992
 30
0.0
 11
56.314906460550951
 21
52.0
 31
0.0
  0
LINE
  5
ED4
  8
2
 10
51.397906460550963
 20
52.0
 30
0.0
 11
51.397906460550963
 21
40.541499999999992
 31
0.0
  0
LINE
  5
ED5
  8
2
 10
51.397906460550963
 20
40.541499999999992
 30
0.0
 11
56.314906460550951
 21
40.541499999999992
 31
0.0
  0
LINE
  5
ED6
  8
2
 10
51.397906460550963
 20
40.541499999999992
 30
0.0
 11
50.856406460550971
 21
40.0
 31
0.0
  0
LINE
  5
ED7
  8
2
 10
56.85640646055095
 20
40.0
 30
0.0
 11
56.314906460550951
 21
40.541499999999992
 31
0.0
  0
LINE
  5
ED8
  8
0
 10
49.956406460550973
 20
40.0
 30
0.0
 11
57.75640646055092
 21
40.0
 31
0.0
  0
LINE
  5
ED9
  8
0
 10
57.75640646055092
 20
40.0
 30
0.0
 11
57.75640646055092
 21
40.199999999999982
 31
0.0
  0
LINE
  5
EDA
  8
0
 10
49.956406460550973
 20
40.199999999999982
 30
0.0
 11
49.956406460550973
 21
40.0
 31
0.0
  0
LINE
  5
EDC
  8
2
 10
50.856406460550971
 20
52.0
 30
0.0
 11
56.85640646055095
 21
52.0
 31
0.0
  0
LINE
  5
EE2
  8
0
 10
46.856406460550971
 20
40.199999999999982
 30
0.0
 11
60.856406460550943
 21
40.199999999999982
 31
0.0
  0
LINE
  5
EE3
  8
0
 10
60.856406460550943
 20
40.199999999999982
 30
0.0
 11
60.856406460550943
 21
55.999999999999979
 31
0.0
  0
LINE
  5
EE4
  8
0
 10
46.856406460550971
 20
56.0
 30
0.0
 11
46.856406460550971
 21
40.199999999999982
 31
0.0
  0
LINE
  5
EE5
  8
0
 10
39.99606954962033
 20
64.320479055208409
 30
0.0
 11
39.99606954962033
 21
56.0
 31
0.0
  0
POLYLINE
  5
EE6
  8
0
 66
     1
 10
0.0
 20
0.0
 30
0.0
  0
VERTEX
  5
1C3E
  8
0
 10
39.996069549899516
 20
64.320479058299028
 30
0.0
  0
VERTEX
  5
1C3F
  8
0
 10
40.001672150638029
 20
64.382500380191033
 30
0.0
  0
VERTEX
  5
1C40
  8
0
 10
40.04118101615628
 20
64.490249816490703
 30
0.0
  0
VERTEX
  5
1C41
  8
0
 10
40.119163299478998
 20
64.590379944624928
 30
0.0
  0
VERTEX
  5
1C42
  8
0
 10
40.235445553396417
 20
64.682161058159579
 30
0.0
  0
VERTEX
  5
1C43
  8
0
 10
40.393176715183976
 20
64.766981431474591
 30
0.0
  0
VERTEX
  5
1C44
  8
0
 10
40.590377822577153
 20
64.843026419059754
 30
0.0
  0
VERTEX
  5
1C45
  8
0
 10
40.828453274077617
 20
64.910646759099933
 30
0.0
  0
VERTEX
  5
1C46
  8
0
 10
41.075492948781992
 20
64.963681072209241
 30
0.0
  0
SEQEND
  5
1C47
  8
0
  0
LINE
  5
EE8
  8
0
 10
67.716743371481641
 20
55.999999999999979
 30
0.0
 11
67.716743371481641
 21
64.320486439039243
 31
0.0
  0
LINE
  5
EE9
  8
0
 10
67.716743371418033
 20
64.320486440279694
 30
0.0
 11
67.712812921102
 21
64.266666666666623
 31
0.0
  0
LINE
  5
EEA
  8
0
 10
67.716743371481641
 20
55.999999999999979
 30
0.0
 11
39.99606954962033
 21
56.0
 31
0.0
  0
LINE
  5
EEB
  8
0
 10
67.712812921102
 20
64.266666666666637
 30
0.0
 11
67.712812921102
 21
55.999999999999979
 31
0.0
  0
LINE
  5
EEC
  8
0
 10
39.999999999999972
 20
64.266666666666922
 30
0.0
 11
39.999999999999972
 21
56.0
 31
0.0
  0
POLYLINE
  5
EED
  8
0
 66
     1
 10
0.0
 20
0.0
 30
0.0
  0
VERTEX
  5
1C48
  8
0
 10
67.712812921102
 20
64.266666666666637
 30
0.0
  0
VERTEX
  5
1C49
  8
0
 10
66.539218341867695
 20
64.419697158429983
 30
0.0
  0
VERTEX
  5
1C4A
  8
0
 10
65.331613303167046
 20
64.558321555900562
 30
0.0
  0
VERTEX
  5
1C4B
  8
0
 10
64.094628907010701
 20
64.682160041461202
 30
0.0
  0
VERTEX
  5
1C4C
  8
0
 10
62.799105208025772
 20
64.793585336608658
 30
0.0
  0
VERTEX
  5
1C4D
  8
0
 10
61.477848490093493
 20
64.889373188543146
 30
0.0
  0
VERTEX
  5
1C4E
  8
0
 10
60.136309020325591
 20
64.969320610709303
 30
0.0
  0
VERTEX
  5
1C4F
  8
0
 10
58.701167698464531
 20
65.036506048006629
 30
0.0
  0
VERTEX
  5
1C50
  8
0
 10
57.249839929780023
 20
65.086114337088048
 30
0.0
  0
VERTEX
  5
1C51
  8
0
 10
55.789081599351952
 20
65.118085676575163
 30
0.0
  0
VERTEX
  5
1C52
  8
0
 10
54.657027394582137
 20
65.130708569420449
 30
0.0
  0
VERTEX
  5
1C53
  8
0
 10
53.522434211751062
 20
65.132856844560493
 30
0.0
  0
VERTEX
  5
1C54
  8
0
 10
52.388460638463158
 20
65.12453168110936
 30
0.0
  0
VERTEX
  5
1C55
  8
0
 10
51.258265262322908
 20
65.105734258181059
 30
0.0
  0
VERTEX
  5
1C56
  8
0
 10
49.812371994247108
 20
65.066111114119295
 30
0.0
  0
VERTEX
  5
1C57
  8
0
 10
48.377775665401742
 20
65.009093671124106
 30
0.0
  0
VERTEX
  5
1C58
  8
0
 10
46.961049079220139
 20
64.934758985006397
 30
0.0
  0
VERTEX
  5
1C59
  8
0
 10
45.882238228238599
 20
64.865501697476901
 30
0.0
  0
VERTEX
  5
1C5A
  8
0
 10
44.816974738252007
 20
64.785859384076232
 30
0.0
  0
VERTEX
  5
1C5B
  8
0
 10
43.768099207122901
 20
64.695959439896114
 30
0.0
  0
VERTEX
  5
1C5C
  8
0
 10
42.738452232713961
 20
64.595929260028257
 30
0.0
  0
VERTEX
  5
1C5D
  8
0
 10
42.039154023550253
 20
64.520927010657246
 30
0.0
  0
VERTEX
  5
1C5E
  8
0
 10
41.350021443150382
 20
64.441128571886665
 30
0.0
  0
VERTEX
  5
1C5F
  8
0
 10
40.66932345003962
 20
64.356271489656947
 30
0.0
  0
VERTEX
  5
1C60
  8
0
 10
39.999999999999972
 20
64.266666666666922
 30
0.0
  0
SEQEND
  5
1C61
  8
0
  0
LINE
  5
EF2
  8
0
 10
39.999999999999972
 20
64.26666666666668
 30
0.0
 11
39.996069549899516
 21
64.320479058299028
 31
0.0
  0
LINE
  5
EF3
  8
0
 10
48.407319516839749
 20
65.889462258532802
 30
0.0
 11
59.305493404262172
 21
65.889462258532802
 31
0.0
  0
ARC
  5
EF4
  8
0
 10
55.345272201291912
 20
5.0305555555563606
 30
0.0
 40
60.987620686972569
 50
79.333272186624257
 51
86.276888331722176
  0
ARC
  5
EF5
  8
0
 10
52.367540719809647
 20
5.0305555555593173
 30
0.0
 40
60.98762068696962
 50
93.723111668276189
 51
100.67005929617009
  0
POLYLINE
  5
EF6
  8
0
 66
     1
 10
0.0
 20
0.0
 30
0.0
  0
VERTEX
  5
1C62
  8
0
 10
66.633835121049174
 20
64.96433755089457
 30
0.0
  0
VERTEX
  5
1C63
  8
0
 10
66.780068800699382
 20
64.934758796263623
 30
0.0
  0
VERTEX
  5
1C64
  8
0
 10
67.050148872721081
 20
64.865757008808146
 30
0.0
  0
VERTEX
  5
1C65
  8
0
 10
67.274769017653853
 20
64.786512299877174
 30
0.0
  0
VERTEX
  5
1C66
  8
0
 10
67.454702868467621
 20
64.696366042952874
 30
0.0
  0
VERTEX
  5
1C67
  8
0
 10
67.58796327809074
 20
64.59592895074843
 30
0.0
  0
VERTEX
  5
1C68
  8
0
 10
67.652404315639274
 20
64.520960396141746
 30
0.0
  0
VERTEX
  5
1C69
  8
0
 10
67.694730698923195
 20
64.441128395907754
 30
0.0
  0
VERTEX
  5
1C6A
  8
0
 10
67.714907266170485
 20
64.356309244594826
 30
0.0
  0
VERTEX
  5
1C6B
  8
0
 10
67.716743371418033
 20
64.320486440279694
 30
0.0
  0
SEQEND
  5
1C6C
  8
0
  0
LINE
  5
EFA
  8
2
 10
50.856406460550971
 20
40.0
 30
0.0
 11
50.856406460550971
 21
52.0
 31
0.0
  0
LINE
  5
EFC
  8
2
 10
56.85640646055095
 20
40.0
 30
0.0
 11
56.85640646055095
 21
51.999999999999993
 31
0.0
  0
LINE
  5
EFE
  8
1
 10
53.856406460551
 20
37.0
 30
0.0
 11
53.856406460550943
 21
68.889462258532802
 31
0.0
  0
TEXT
  5
F61
  8
0
 62
     3
 10
0.0
 20
0.0
 30
0.0
 40
10.0
  1
TK32-OG
  7
STANDARD1
  0
ENDSEC
  0
EOF
