  0
SECTION
  2
HEADER
  9
$ACADVER
  1
AC1009
  9
$INSBASE
 10
0.0
 20
0.0
 30
0.0
  9
$EXTMIN
 10
0.0
 20
-2.960436562073669
 30
0.0
  9
$EXTMAX
 10
153.65491979874699
 20
179.86488503257709
 30
0.0
  9
$LIMMIN
 10
0.0
 20
0.0
  9
$LIMMAX
 10
375.0
 20
270.0
  9
$ORTHOMODE
 70
     0
  9
$REGENMODE
 70
     1
  9
$FILLMODE
 70
     1
  9
$QTEXTMODE
 70
     0
  9
$MIRRTEXT
 70
     0
  9
$DRAGMODE
 70
     2
  9
$LTSCALE
 40
10.0
  9
$OSMODE
 70
    55
  9
$ATTMODE
 70
     1
  9
$TEXTSIZE
 40
2.0
  9
$TRACEWID
 40
0.05
  9
$TEXTSTYLE
  7
STANDARD
  9
$CLAYER
  8
0
  9
$CELTYPE
  6
BYLAYER
  9
$CECOLOR
 62
   256
  9
$DIMSCALE
 40
1.0
  9
$DIMASZ
 40
2.5
  9
$DIMEXO
 40
2.0
  9
$DIMDLI
 40
0.38
  9
$DIMRND
 40
0.0
  9
$DIMDLE
 40
0.0
  9
$DIMEXE
 40
2.0
  9
$DIMTP
 40
0.0
  9
$DIMTM
 40
0.0
  9
$DIMTXT
 40
3.0
  9
$DIMCEN
 40
0.09
  9
$DIMTSZ
 40
0.0
  9
$DIMTOL
 70
     0
  9
$DIMLIM
 70
     0
  9
$DIMTIH
 70
     0
  9
$DIMTOH
 70
     0
  9
$DIMSE1
 70
     0
  9
$DIMSE2
 70
     0
  9
$DIMTAD
 70
     1
  9
$DIMZIN
 70
     0
  9
$DIMBLK
  1

  9
$DIMASO
 70
     1
  9
$DIMSHO
 70
     0
  9
$DIMPOST
  1

  9
$DIMAPOST
  1

  9
$DIMALT
 70
     0
  9
$DIMALTD
 70
     2
  9
$DIMALTF
 40
25.399999999999999
  9
$DIMLFAC
 40
1.0
  9
$DIMTOFL
 70
     0
  9
$DIMTVP
 40
1.6000000000000001
  9
$DIMTIX
 70
     1
  9
$DIMSOXD
 70
     0
  9
$DIMSAH
 70
     0
  9
$DIMBLK1
  1

  9
$DIMBLK2
  1

  9
$DIMSTYLE
  2
STANDARD
  9
$DIMCLRD
 70
     0
  9
$DIMCLRE
 70
     0
  9
$DIMCLRT
 70
     0
  9
$DIMTFAC
 40
1.0
  9
$DIMGAP
 40
0.09
  9
$LUNITS
 70
     2
  9
$LUPREC
 70
     4
  9
$SKETCHINC
 40
0.1
  9
$FILLETRAD
 40
2.5
  9
$AUNITS
 70
     0
  9
$AUPREC
 70
     0
  9
$MENU
  1
E:\r13\win\SUPPORT\ACAD
  9
$ELEVATION
 40
0.0
  9
$PELEVATION
 40
0.0
  9
$THICKNESS
 40
0.0
  9
$LIMCHECK
 70
     0
  9
$BLIPMODE
 70
     0
  9
$CHAMFERA
 40
0.0
  9
$CHAMFERB
 40
0.0
  9
$SKPOLY
 70
     0
  9
$TDCREATE
 40
2448650.5678784722
  9
$TDUPDATE
 40
2456598.446111158
  9
$TDINDWG
 40
0.0259449653
  9
$TDUSRTIMER
 40
0.0259449653
  9
$USRTIMER
 70
     1
  9
$ANGBASE
 50
0.0
  9
$ANGDIR
 70
     0
  9
$PDMODE
 70
     0
  9
$PDSIZE
 40
0.0
  9
$PLINEWID
 40
0.0
  9
$COORDS
 70
     1
  9
$SPLFRAME
 70
     0
  9
$SPLINETYPE
 70
     6
  9
$SPLINESEGS
 70
     8
  9
$ATTDIA
 70
     0
  9
$ATTREQ
 70
     1
  9
$HANDLING
 70
     1
  9
$HANDSEED
  5
C07
  9
$SURFTAB1
 70
     6
  9
$SURFTAB2
 70
     6
  9
$SURFTYPE
 70
     6
  9
$SURFU
 70
     6
  9
$SURFV
 70
     6
  9
$UCSNAME
  2

  9
$UCSORG
 10
0.0
 20
0.0
 30
0.0
  9
$UCSXDIR
 10
1.0
 20
0.0
 30
0.0
  9
$UCSYDIR
 10
0.0
 20
1.0
 30
0.0
  9
$PUCSNAME
  2

  9
$PUCSORG
 10
0.0
 20
0.0
 30
0.0
  9
$PUCSXDIR
 10
1.0
 20
0.0
 30
0.0
  9
$PUCSYDIR
 10
0.0
 20
1.0
 30
0.0
  9
$USERI1
 70
     0
  9
$USERI2
 70
     1
  9
$USERI3
 70
     1
  9
$USERI4
 70
     0
  9
$USERI5
 70
     0
  9
$USERR1
 40
0.0
  9
$USERR2
 40
0.0
  9
$USERR3
 40
0.0
  9
$USERR4
 40
0.0
  9
$USERR5
 40
0.0
  9
$WORLDVIEW
 70
     1
  9
$SHADEDGE
 70
     3
  9
$SHADEDIF
 70
    70
  9
$TILEMODE
 70
     1
  9
$MAXACTVP
 70
    16
  9
$PLIMCHECK
 70
     0
  9
$PEXTMIN
 10
1.0000000000000000E+020
 20
1.0000000000000000E+020
 30
1.0000000000000000E+020
  9
$PEXTMAX
 10
-1.0000000000000000E+020
 20
-1.0000000000000000E+020
 30
-1.0000000000000000E+020
  9
$PLIMMIN
 10
0.0
 20
0.0
  9
$PLIMMAX
 10
12.0
 20
9.0
  9
$UNITMODE
 70
     0
  9
$VISRETAIN
 70
     0
  9
$PLINEGEN
 70
     1
  9
$PSLTSCALE
 70
     0
  0
ENDSEC
  0
SECTION
  2
TABLES
  0
TABLE
  2
VPORT
 70
     1
  0
VPORT
  2
*ACTIVE
 70
     0
 10
0.0
 20
0.0
 11
1.0
 21
1.0
 12
187.4942783906524
 22
197.0509055860143
 13
0.0
 23
0.0
 14
10.0
 24
10.0
 15
10.0
 25
10.0
 16
0.0
 26
0.0
 36
1.0
 17
0.0
 27
0.0
 37
0.0
 40
403.57315882993248
 41
1.7807262569832401
 42
50.0
 43
0.0
 44
0.0
 50
0.0
 51
0.0
 71
     0
 72
   500
 73
     1
 74
     0
 75
     0
 76
     0
 77
     0
 78
     2
  0
ENDTAB
  0
TABLE
  2
LTYPE
 70
     4
  0
LTYPE
  2
CONTINUOUS
 70
     0
  3
Solid Line
 72
    65
 73
     0
 40
0.0
  0
LTYPE
  2
CENTER
 70
     0
  3
____ _ ____ _ ____ _ ____ _ ____ _ ____ _ ____
 72
    65
 73
     4
 40
2.0
 49
1.25
 49
-0.25
 49
0.25
 49
-0.25
  0
LTYPE
  2
HIDDEN
 70
     0
  3
_ _ _ _ _ _ _ _ _ _ _ _ _ _ _ _ _ _ _ _ _ _ _
 72
    65
 73
     2
 40
0.375
 49
0.25
 49
-0.125
  0
LTYPE
  2
PHANTOM2
 70
     0
  3
___ _ _ ___ _ _ ___ _ _ ___ _ _
 72
    65
 73
     6
 40
1.25
 49
0.625
 49
-0.125
 49
0.125
 49
-0.125
 49
0.125
 49
-0.125
  0
ENDTAB
  0
TABLE
  2
LAYER
 70
     3
  0
LAYER
  2
0
 70
     0
 62
     7
  6
CONTINUOUS
  0
LAYER
  2
1
 70
     0
 62
     1
  6
CENTER
  0
LAYER
  2
2
 70
     0
 62
     2
  6
HIDDEN
  0
ENDTAB
  0
TABLE
  2
STYLE
 70
     2
  0
STYLE
  2
STANDARD
 70
     0
 40
0.0
 41
1.0
 50
0.0
 71
     0
 42
2.0
  3
TXT
  4
BIGFONT
  0
STYLE
  2
STANDARD1
 70
     0
 40
0.0
 41
1.0
 50
0.0
 71
     0
 42
3.0
  3
txt
  4

  0
ENDTAB
  0
TABLE
  2
VIEW
 70
     1
  0
VIEW
  2
ALL
 70
     0
 40
270.0
 10
220.99159663865549
 20
135.0
 41
0.0
 11
0.0
 21
0.0
 31
1.0
 12
0.0
 22
0.0
 32
0.0
 42
0.0
 43
0.0
 44
0.0
 50
0.0
 71
     0
  0
ENDTAB
  0
TABLE
  2
UCS
 70
     0
  0
ENDTAB
  0
TABLE
  2
APPID
 70
     7
  0
APPID
  2
ACAD
 70
     0
  0
APPID
  2
GENIUS_GENODEF_13
 70
     0
  0
APPID
  2
GENIUS_GENOBJ-N-CEN_13
 70
     0
  0
APPID
  2
GENIUS_GENCEN_19
 70
     0
  0
APPID
  2
GENIUS_GENOREF_13
 70
     0
  0
APPID
  2
ACAD_MLEADERVER
 70
     0
  0
APPID
  2
ACAD_NAV_VCDISPLAY
 70
     0
  0
ENDTAB
  0
TABLE
  2
DIMSTYLE
 70
     1
  0
DIMSTYLE
  2
STANDARD
 70
     0
  3

  4

  5

  6

  7

 40
1.0
 41
0.18
 42
0.0625
 43
0.38
 44
0.18
 45
0.0
 46
0.0
 47
0.0
 48
0.0
140
0.18
141
0.09
142
0.0
143
25.399999999999999
144
1.0
145
0.0
146
1.0
147
0.09
 71
     0
 72
     0
 73
     1
 74
     1
 75
     0
 76
     0
 77
     0
 78
     0
170
     0
171
     2
172
     0
173
     0
174
     0
175
     0
176
     0
177
     0
178
     0
  0
ENDTAB
  0
ENDSEC
  0
SECTION
  2
BLOCKS
  0
BLOCK
  8
0
  2
$MODEL_SPACE
 70
     0
 10
0.0
 20
0.0
 30
0.0
  3
$MODEL_SPACE
  1

  0
ENDBLK
  5
217
  8
0
  0
BLOCK
 67
     1
  8
0
  2
$PAPER_SPACE
 70
     0
 10
0.0
 20
0.0
 30
0.0
  3
$PAPER_SPACE
  1

  0
ENDBLK
  5
215
 67
     1
  8
0
  0
ENDSEC
  0
SECTION
  2
ENTITIES
  0
LINE
  5
9CB
  8
2
 10
120.33141979874701
 20
53.041385032576947
 30
0.0
 11
119.654919798747
 21
52.364885032576979
 31
0.0
  0
LINE
  5
9CC
  8
2
 10
126.9784197987471
 20
53.041385032576947
 30
0.0
 11
127.6549197987471
 21
52.364885032576979
 31
0.0
  0
LINE
  5
9CD
  8
2
 10
126.9784197987471
 20
53.041385032576947
 30
0.0
 11
120.33141979874701
 21
53.041385032576947
 31
0.0
  0
LINE
  5
9CE
  8
2
 10
119.6549197987471
 20
66.864885032577149
 30
0.0
 11
120.33141979874701
 21
68.036617403897338
 31
0.0
  0
LINE
  5
9CF
  8
2
 10
127.6549197987471
 20
66.864885032577149
 30
0.0
 11
126.9784197987471
 21
68.036617403897338
 31
0.0
  0
LINE
  5
9D0
  8
2
 10
120.33141979874701
 20
73.064885032577081
 30
0.0
 11
126.9784197987471
 21
73.064885032577081
 31
0.0
  0
LINE
  5
9D1
  8
2
 10
119.654919798747
 20
66.864885032577149
 30
0.0
 11
127.6549197987471
 21
66.864885032577149
 31
0.0
  0
LINE
  5
9D2
  8
2
 10
120.33141979874689
 20
73.064885032577081
 30
0.0
 11
123.654919798747
 21
75.061845299915291
 31
0.0
  0
LINE
  5
9D3
  8
2
 10
126.9784197987472
 20
73.064885032577081
 30
0.0
 11
123.654919798747
 21
75.061845299915291
 31
0.0
  0
LINE
  5
9D4
  8
2
 10
127.6549197987471
 20
52.364885032576979
 30
0.0
 11
127.6549197987471
 21
66.864885032577149
 31
0.0
  0
LINE
  5
9D5
  8
2
 10
126.9784197987471
 20
53.041385032576947
 30
0.0
 11
126.9784197987471
 21
73.064885032577081
 31
0.0
  0
LINE
  5
9D6
  8
2
 10
120.33141979874701
 20
53.041385032576947
 30
0.0
 11
120.33141979874701
 21
73.064885032577081
 31
0.0
  0
LINE
  5
9D7
  8
2
 10
119.654919798747
 20
52.364885032576979
 30
0.0
 11
119.654919798747
 21
66.864885032577149
 31
0.0
  0
ARC
  5
9D8
  8
0
 10
111.76447939241601
 20
67.512643351943908
 30
0.0
 40
2.5
 50
1.500000000000274
 51
82.499999999999503
  0
LINE
  5
9D9
  8
0
 10
115.4250873457278
 20
51.864885032577149
 30
0.0
 11
114.6549197987473
 21
52.635052579557623
 31
0.0
  0
LINE
  5
9DA
  8
0
 10
114.6549197987473
 20
52.635052579557623
 30
0.0
 11
114.2636227048548
 21
67.57808572271361
 31
0.0
  0
ARC
  5
9DB
  8
0
 10
135.54536020507871
 20
67.512643351943908
 30
0.0
 40
2.5
 50
97.500000000000483
 51
178.49999999999929
  0
ARC
  5
9DC
  8
0
 10
105.82056313374299
 20
77.706539677062196
 30
0.0
 40
4.5
 50
106.9558953152959
 51
180.0
  0
ARC
  5
9DD
  8
0
 10
102.12056313374291
 20
71.664885032577146
 30
0.0
 40
0.8
 50
180.0
 51
270.0
  0
LINE
  5
9DE
  8
0
 10
145.1892764637515
 20
70.864885032577149
 30
0.0
 11
102.12056313374291
 21
70.864885032577149
 31
0.0
  0
ARC
  5
9DF
  8
0
 10
145.1892764637515
 20
71.664885032577146
 30
0.0
 40
0.8
 50
270.0
 51
0.0
  0
ARC
  5
9E0
  8
0
 10
141.48927646375159
 20
77.706539677062054
 30
0.0
 40
4.5
 50
0.0
 51
73.044104684702418
  0
LINE
  5
9E1
  8
0
 10
101.32056313374289
 20
77.706539677062196
 30
0.0
 11
101.32056313374289
 21
71.664885032577146
 31
0.0
  0
LINE
  5
9E2
  8
0
 10
145.98927646375151
 20
77.706539677062054
 30
0.0
 11
145.98927646375151
 21
71.664885032577146
 31
0.0
  0
ARC
  5
9E3
  8
0
 10
123.654919798747
 20
19.211980838008799
 30
0.0
 40
65.652904194568293
 50
73.044104684702418
 51
106.9558953152976
  0
ARC
  5
A4D
  8
0
 10
145.99815222614021
 20
136.96501377605529
 30
0.0
 40
44.775509552746648
 50
143.329210179439
 51
156.67078982055651
  0
ARC
  5
A4E
  8
0
 10
101.3116873713446
 20
136.9650137760498
 30
0.0
 40
44.775509552757207
 50
23.329210179443429
 51
36.670789820554013
  0
ARC
  5
A4F
  8
0
 10
123.6549197987468
 20
175.66462754562559
 30
0.0
 40
44.775509552751679
 50
263.3292101794392
 51
276.67078982055421
  0
ARC
  5
A50
  8
0
 10
123.654919798747
 20
175.79488328135679
 30
0.0
 40
44.904886006530781
 50
244.3468736211702
 51
263.34851647339201
  0
ARC
  5
A51
  8
0
 10
101.1988825952175
 20
136.8998859081872
 30
0.0
 40
44.904886006530781
 50
36.65148352660556
 51
55.653126378830031
  0
ARC
  5
A52
  8
0
 10
123.6549197987468
 20
169.7613813294486
 30
0.0
 40
5.1034854256107023
 50
55.653394416382341
 51
124.3466055836178
  0
ARC
  5
A53
  8
0
 10
146.11095700227619
 20
136.8998859081872
 30
0.0
 40
44.904886006530752
 50
124.3468736211624
 51
143.3485164733944
  0
ARC
  5
A54
  8
0
 10
146.11095700227619
 20
136.8998859081872
 30
0.0
 40
44.904886006530752
 50
156.6514835266081
 51
175.65312637883389
  0
ARC
  5
A55
  8
0
 10
140.88579103813919
 20
139.91663688414189
 30
0.0
 40
5.1034854256120052
 50
295.65339441639497
 51
4.3466055836065518
  0
ARC
  5
A56
  8
0
 10
123.654919798747
 20
175.79488328135679
 30
0.0
 40
44.904886006530781
 50
276.6514835266014
 51
295.65312637882982
  0
ARC
  5
A57
  8
0
 10
101.1988825952175
 20
136.8998859081872
 30
0.0
 40
44.904886006530788
 50
4.346873621166063
 51
23.348516473391829
  0
ARC
  5
A58
  8
0
 10
106.424048559356
 20
139.91663688414269
 30
0.0
 40
5.1034854256133322
 50
175.65339441640319
 51
244.34660558359769
  0
LINE
  5
A59
  8
1
 10
93.654919798747017
 20
149.86488503257709
 30
0.0
 11
153.65491979874699
 21
149.86488503257709
 31
0.0
1001
GENIUS_GENOREF_13
1005
0
  0
LINE
  5
A5A
  8
1
 10
123.6549197987469
 20
179.86488503257709
 30
0.0
 11
123.654919798747
 21
119.86488503257711
 31
0.0
1001
GENIUS_GENOREF_13
1005
0
  0
LINE
  5
A5B
  8
0
 10
105.4549197987472
 20
70.864885032577263
 30
0.0
 11
112.0907948729661
 21
69.991255505378433
 31
0.0
  0
LINE
  5
A5C
  8
0
 10
135.21904472452849
 20
69.991255505378433
 30
0.0
 11
141.85491979874729
 21
70.864885032577263
 31
0.0
  0
LINE
  5
A5D
  8
0
 10
132.65491979874719
 20
52.635052579557623
 30
0.0
 11
133.04621689263979
 21
67.57808572271361
 31
0.0
  0
LINE
  5
A5E
  8
0
 10
131.88475225176671
 20
51.864885032577149
 30
0.0
 11
132.65491979874719
 21
52.635052579557623
 31
0.0
  0
ARC
  5
A5F
  8
0
 10
123.654919798747
 20
-24.052581408303531
 30
0.0
 40
105.7079805941936
 50
90.0
 51
100.3639990889808
  0
POLYLINE
  5
A60
  8
0
 66
     1
 10
0.0
 20
0.0
 30
0.0
  0
VERTEX
  5
BC1
  8
0
 10
104.6379380398422
 20
79.930742091591867
 30
0.0
  0
VERTEX
  5
BC2
  8
0
 10
103.9493905258874
 20
79.85465509509288
 30
0.0
  0
VERTEX
  5
BC3
  8
0
 10
103.3159972743871
 20
79.799230584272436
 30
0.0
  0
VERTEX
  5
BC4
  8
0
 10
102.7852118616466
 20
79.768951890175515
 30
0.0
  0
VERTEX
  5
BC5
  8
0
 10
102.3476779923343
 20
79.763625828373506
 30
0.0
  0
VERTEX
  5
BC6
  8
0
 10
101.8353113576746
 20
79.796460317025364
 30
0.0
  0
SEQEND
  5
BC7
  8
0
  0
LINE
  5
A61
  8
0
 10
114.6549197987473
 20
52.635052579557623
 30
0.0
 11
132.65491979874719
 21
52.635052579557623
 31
0.0
  0
LINE
  5
A62
  8
0
 10
131.88475225176671
 20
51.864885032577149
 30
0.0
 11
115.4250873457279
 21
51.864885032577149
 31
0.0
  0
ARC
  5
A63
  8
0
 10
123.6549197987473
 20
-24.052581408303531
 30
0.0
 40
105.7079805941936
 50
79.636000911019138
 51
90.0
  0
POLYLINE
  5
A64
  8
0
 66
     1
 10
0.0
 20
0.0
 30
0.0
  0
VERTEX
  5
BC8
  8
0
 10
142.6719015576524
 20
79.930742091591867
 30
0.0
  0
VERTEX
  5
BC9
  8
0
 10
143.36044907160689
 20
79.85465509509288
 30
0.0
  0
VERTEX
  5
BCA
  8
0
 10
143.99384232310729
 20
79.799230584272436
 30
0.0
  0
VERTEX
  5
BCB
  8
0
 10
144.5246277358475
 20
79.768951890175515
 30
0.0
  0
VERTEX
  5
BCC
  8
0
 10
144.96216160516011
 20
79.763625828373506
 30
0.0
  0
VERTEX
  5
BCD
  8
0
 10
145.47452823981979
 20
79.796460317025364
 30
0.0
  0
SEQEND
  5
BCE
  8
0
  0
LINE
  5
A65
  8
1
 10
123.654919798747
 20
89.864885032577078
 30
0.0
 11
123.6549197987473
 21
46.864885032577149
 31
0.0
1001
GENIUS_GENODEF_13
1002
{
1000
HIER
1070
     0
1002
}
1002
{
1000
MANEDIT
1070
     0
1002
}
1002
{
1000
NOSEL
1070
     0
1002
}
1002
{
1000
BEHIND
1070
     0
1002
}
1002
{
1000
OTHER
1070
     0
1002
}
1002
{
1000
REACTOR
1002
}
1001
GENIUS_GENOBJ-N-CEN_13
1002
{
1000
OWNER
1000
GEN
1002
}
1001
GENIUS_GENCEN_19
1002
{
1040
3.0
1002
}
  0
LINE
  5
A66
  8
2
 10
119.4049197987471
 20
51.864885032576979
 30
0.0
 11
119.4049197987471
 21
52.364885032576979
 31
0.0
  0
LINE
  5
A67
  8
2
 10
119.4049197987471
 20
52.364885032576979
 30
0.0
 11
127.904919798747
 21
52.364885032576979
 31
0.0
  0
LINE
  5
A68
  8
2
 10
127.904919798747
 20
52.364885032576979
 30
0.0
 11
127.9049197987473
 21
51.864885032576979
 31
0.0
  0
TEXT
  5
B64
  8
0
 62
     3
 10
0.0
 20
0.0
 30
0.0
 40
10.0
  1
TK50-M8-SUS
  7
STANDARD1
  0
ENDSEC
  0
EOF
