  0
SECTION
  2
HEADER
  9
$ACADVER
  1
AC1009
  9
$INSBASE
 10
0.0
 20
0.0
 30
0.0
  9
$EXTMIN
 10
0.0
 20
-2.960436562073669
 30
0.0
  9
$EXTMAX
 10
157.5
 20
115.0
 30
0.0
  9
$LIMMIN
 10
0.0
 20
0.0
  9
$LIMMAX
 10
187.5
 20
135.0
  9
$ORTHOMODE
 70
     1
  9
$REGENMODE
 70
     1
  9
$FILLMODE
 70
     1
  9
$QTEXTMODE
 70
     0
  9
$MIRRTEXT
 70
     0
  9
$DRAGMODE
 70
     2
  9
$LTSCALE
 40
5.0
  9
$OSMODE
 70
    55
  9
$ATTMODE
 70
     2
  9
$TEXTSIZE
 40
0.2
  9
$TRACEWID
 40
0.05
  9
$TEXTSTYLE
  7
STANDARD
  9
$CLAYER
  8
0
  9
$CELTYPE
  6
BYLAYER
  9
$CECOLOR
 62
   256
  9
$DIMSCALE
 40
0.5
  9
$DIMASZ
 40
3.0
  9
$DIMEXO
 40
2.0
  9
$DIMDLI
 40
0.38
  9
$DIMRND
 40
0.0
  9
$DIMDLE
 40
0.0
  9
$DIMEXE
 40
2.0
  9
$DIMTP
 40
0.0
  9
$DIMTM
 40
0.0
  9
$DIMTXT
 40
3.2000000000000002
  9
$DIMCEN
 40
0.09
  9
$DIMTSZ
 40
0.0
  9
$DIMTOL
 70
     0
  9
$DIMLIM
 70
     0
  9
$DIMTIH
 70
     0
  9
$DIMTOH
 70
     0
  9
$DIMSE1
 70
     0
  9
$DIMSE2
 70
     0
  9
$DIMTAD
 70
     1
  9
$DIMZIN
 70
     0
  9
$DIMBLK
  1

  9
$DIMASO
 70
     1
  9
$DIMSHO
 70
     0
  9
$DIMPOST
  1

  9
$DIMAPOST
  1

  9
$DIMALT
 70
     0
  9
$DIMALTD
 70
     2
  9
$DIMALTF
 40
25.399999999999999
  9
$DIMLFAC
 40
1.0
  9
$DIMTOFL
 70
     0
  9
$DIMTVP
 40
0.0
  9
$DIMTIX
 70
     0
  9
$DIMSOXD
 70
     0
  9
$DIMSAH
 70
     0
  9
$DIMBLK1
  1

  9
$DIMBLK2
  1

  9
$DIMSTYLE
  2
STANDARD
  9
$DIMCLRD
 70
     0
  9
$DIMCLRE
 70
     0
  9
$DIMCLRT
 70
     0
  9
$DIMTFAC
 40
1.0
  9
$DIMGAP
 40
0.09
  9
$LUNITS
 70
     2
  9
$LUPREC
 70
     4
  9
$SKETCHINC
 40
0.1
  9
$FILLETRAD
 40
0.0
  9
$AUNITS
 70
     0
  9
$AUPREC
 70
     0
  9
$MENU
  1
E:\r13\win\SUPPORT\ACAD
  9
$ELEVATION
 40
0.0
  9
$PELEVATION
 40
0.0
  9
$THICKNESS
 40
0.0
  9
$LIMCHECK
 70
     0
  9
$BLIPMODE
 70
     0
  9
$CHAMFERA
 40
0.0
  9
$CHAMFERB
 40
0.0
  9
$SKPOLY
 70
     0
  9
$TDCREATE
 40
2449840.6048726859
  9
$TDUPDATE
 40
2456598.4472329519
  9
$TDINDWG
 40
0.0001647454
  9
$TDUSRTIMER
 40
0.0001647454
  9
$USRTIMER
 70
     1
  9
$ANGBASE
 50
0.0
  9
$ANGDIR
 70
     0
  9
$PDMODE
 70
     0
  9
$PDSIZE
 40
0.0
  9
$PLINEWID
 40
0.0
  9
$COORDS
 70
     1
  9
$SPLFRAME
 70
     0
  9
$SPLINETYPE
 70
     6
  9
$SPLINESEGS
 70
     8
  9
$ATTDIA
 70
     0
  9
$ATTREQ
 70
     1
  9
$HANDLING
 70
     1
  9
$HANDSEED
  5
30A
  9
$SURFTAB1
 70
     6
  9
$SURFTAB2
 70
     6
  9
$SURFTYPE
 70
     6
  9
$SURFU
 70
     6
  9
$SURFV
 70
     6
  9
$UCSNAME
  2

  9
$UCSORG
 10
0.0
 20
0.0
 30
0.0
  9
$UCSXDIR
 10
1.0
 20
0.0
 30
0.0
  9
$UCSYDIR
 10
0.0
 20
1.0
 30
0.0
  9
$PUCSNAME
  2

  9
$PUCSORG
 10
0.0
 20
0.0
 30
0.0
  9
$PUCSXDIR
 10
1.0
 20
0.0
 30
0.0
  9
$PUCSYDIR
 10
0.0
 20
1.0
 30
0.0
  9
$USERI1
 70
     0
  9
$USERI2
 70
     1
  9
$USERI3
 70
     1
  9
$USERI4
 70
     0
  9
$USERI5
 70
     0
  9
$USERR1
 40
0.0
  9
$USERR2
 40
0.0
  9
$USERR3
 40
0.0
  9
$USERR4
 40
0.0
  9
$USERR5
 40
0.0
  9
$WORLDVIEW
 70
     1
  9
$SHADEDGE
 70
     3
  9
$SHADEDIF
 70
    70
  9
$TILEMODE
 70
     1
  9
$MAXACTVP
 70
    16
  9
$PLIMCHECK
 70
     0
  9
$PEXTMIN
 10
1.0000000000000000E+020
 20
1.0000000000000000E+020
 30
1.0000000000000000E+020
  9
$PEXTMAX
 10
-1.0000000000000000E+020
 20
-1.0000000000000000E+020
 30
-1.0000000000000000E+020
  9
$PLIMMIN
 10
0.0
 20
0.0
  9
$PLIMMAX
 10
12.0
 20
9.0
  9
$UNITMODE
 70
     0
  9
$VISRETAIN
 70
     0
  9
$PLINEGEN
 70
     0
  9
$PSLTSCALE
 70
     0
  0
ENDSEC
  0
SECTION
  2
TABLES
  0
TABLE
  2
VPORT
 70
     1
  0
VPORT
  2
*ACTIVE
 70
     0
 10
0.0
 20
0.0
 11
1.0
 21
1.0
 12
93.74713919532617
 22
98.129098027095807
 13
0.0
 23
0.0
 14
5.0
 24
5.0
 15
5.0
 25
5.0
 16
0.0
 26
0.0
 36
1.0
 17
0.0
 27
0.0
 37
0.0
 40
203.97931595516741
 41
1.7807262569832401
 42
50.0
 43
0.0
 44
0.0
 50
0.0
 51
0.0
 71
     0
 72
   100
 73
     1
 74
     0
 75
     0
 76
     0
 77
     0
 78
     1
  0
ENDTAB
  0
TABLE
  2
LTYPE
 70
     3
  0
LTYPE
  2
CONTINUOUS
 70
     0
  3
Solid Line
 72
    65
 73
     0
 40
0.0
  0
LTYPE
  2
CENTER
 70
     0
  3
____ _ ____ _ ____ _ ____ _ ____ _ ____ _ ____
 72
    65
 73
     4
 40
2.0
 49
1.25
 49
-0.25
 49
0.25
 49
-0.25
  0
LTYPE
  2
PHANTOM2
 70
     0
  3
___ _ _ ___ _ _ ___ _ _ ___ _ _
 72
    65
 73
     6
 40
1.25
 49
0.625
 49
-0.125
 49
0.125
 49
-0.125
 49
0.125
 49
-0.125
  0
ENDTAB
  0
TABLE
  2
LAYER
 70
     3
  0
LAYER
  2
0
 70
     0
 62
     7
  6
CONTINUOUS
  0
LAYER
  2
1
 70
     0
 62
     1
  6
CENTER
  0
LAYER
  2
3
 70
     0
 62
     3
  6
CONTINUOUS
  0
ENDTAB
  0
TABLE
  2
STYLE
 70
     2
  0
STYLE
  2
STANDARD
 70
     0
 40
0.0
 41
1.0
 50
0.0
 71
     0
 42
0.2
  3
TXT
  4
BIGFONT
  0
STYLE
  2
STANDARD1
 70
     0
 40
0.0
 41
1.0
 50
0.0
 71
     0
 42
3.0
  3
txt
  4

  0
ENDTAB
  0
TABLE
  2
VIEW
 70
     1
  0
VIEW
  2
ALL
 70
     0
 40
135.0
 10
110.49579799999999
 20
67.5
 41
0.0
 11
0.0
 21
0.0
 31
1.0
 12
0.0
 22
0.0
 32
0.0
 42
0.0
 43
0.0
 44
0.0
 50
0.0
 71
     0
  0
ENDTAB
  0
TABLE
  2
UCS
 70
     0
  0
ENDTAB
  0
TABLE
  2
APPID
 70
     3
  0
APPID
  2
ACAD
 70
     0
  0
APPID
  2
ACAD_MLEADERVER
 70
     0
  0
APPID
  2
ACAD_NAV_VCDISPLAY
 70
     0
  0
ENDTAB
  0
TABLE
  2
DIMSTYLE
 70
     1
  0
DIMSTYLE
  2
STANDARD
 70
     0
  3

  4

  5

  6

  7

 40
1.0
 41
0.18
 42
0.0625
 43
0.38
 44
0.18
 45
0.0
 46
0.0
 47
0.0
 48
0.0
140
0.18
141
0.09
142
0.0
143
25.399999999999999
144
1.0
145
0.0
146
1.0
147
0.09
 71
     0
 72
     0
 73
     1
 74
     1
 75
     0
 76
     0
 77
     0
 78
     0
170
     0
171
     2
172
     0
173
     0
174
     0
175
     0
176
     0
177
     0
178
     0
  0
ENDTAB
  0
ENDSEC
  0
SECTION
  2
BLOCKS
  0
BLOCK
  8
0
  2
$MODEL_SPACE
 70
     0
 10
0.0
 20
0.0
 30
0.0
  3
$MODEL_SPACE
  1

  0
ENDBLK
  5
152
  8
0
  0
BLOCK
 67
     1
  8
0
  2
$PAPER_SPACE
 70
     0
 10
0.0
 20
0.0
 30
0.0
  3
$PAPER_SPACE
  1

  0
ENDBLK
  5
150
 67
     1
  8
0
  0
ENDSEC
  0
SECTION
  2
ENTITIES
  0
LINE
  5
34
  8
0
 10
78.5
 20
74.599999999999994
 30
0.0
 11
78.900000000000006
 21
75.0
 31
0.0
  0
LINE
  5
35
  8
0
 10
78.900000000000006
 20
75.0
 30
0.0
 11
82.099999999999994
 21
75.0
 31
0.0
  0
LINE
  5
36
  8
0
 10
82.099999999999994
 20
75.0
 30
0.0
 11
82.5
 21
74.599999999999994
 31
0.0
  0
LINE
  5
37
  8
0
 10
82.5
 20
74.599999999999994
 30
0.0
 11
82.5
 21
71.0
 31
0.0
  0
LINE
  5
38
  8
0
 10
83.499999999999986
 20
70.0
 30
0.0
 11
89.599999999999994
 21
70.0
 31
0.0
  0
LINE
  5
39
  8
0
 10
89.599999999999994
 20
70.0
 30
0.0
 11
90.0
 21
69.599999999999994
 31
0.0
  0
LINE
  5
3A
  8
0
 10
90.0
 20
69.599999999999994
 30
0.0
 11
90.0
 21
67.25
 31
0.0
  0
LINE
  5
3B
  8
0
 10
90.400000000000006
 20
66.849999999999994
 30
0.0
 11
91.200000000000003
 21
66.849999999999994
 31
0.0
  0
LINE
  5
3C
  8
0
 10
91.599999999999994
 20
67.25
 30
0.0
 11
91.599999999999994
 21
67.5
 31
0.0
  0
ARC
  5
3D
  8
0
 10
83.499999999999986
 20
71.0
 30
0.0
 40
1.0
 50
180.0
 51
270.0
  0
ARC
  5
3E
  8
0
 10
90.400000000000006
 20
67.25
 30
0.0
 40
0.4
 50
180.0
 51
270.0
  0
ARC
  5
3F
  8
0
 10
91.200000000000003
 20
67.25
 30
0.0
 40
0.4
 50
270.0
 51
360.0
  0
LINE
  5
40
  8
0
 10
91.599999999999994
 20
67.5
 30
0.0
 11
109.0
 21
67.5
 31
0.0
  0
LINE
  5
41
  8
0
 10
109.0
 20
67.5
 30
0.0
 11
110.0
 21
66.5
 31
0.0
  0
LINE
  5
42
  8
1
 10
112.5
 20
65.0
 30
0.0
 11
76.0
 21
65.0
 31
0.0
  0
LINE
  5
43
  8
3
 10
109.43300000000001
 20
67.066999999999993
 30
0.0
 11
91.555683999999985
 21
67.066999999999993
 31
0.0
  0
LINE
  5
44
  8
3
 10
78.900000000000006
 20
74.82306899999999
 30
0.0
 11
82.099999999999994
 21
74.82306899999999
 31
0.0
  0
LINE
  5
45
  8
3
 10
78.900000000000006
 20
74.955669
 30
0.0
 11
82.099999999999994
 21
74.955669
 31
0.0
  0
LINE
  5
46
  8
3
 10
78.900000000000006
 20
74.603375
 30
0.0
 11
82.099999999999994
 21
74.603375
 31
0.0
  0
LINE
  5
47
  8
3
 10
78.900000000000006
 20
74.298535999999999
 30
0.0
 11
82.099999999999994
 21
74.298535999999999
 31
0.0
  0
LINE
  5
48
  8
3
 10
78.900000000000006
 20
73.911253000000002
 30
0.0
 11
82.099999999999994
 21
73.911253000000002
 31
0.0
  0
LINE
  5
49
  8
3
 10
78.900000000000006
 20
73.444962000000004
 30
0.0
 11
82.099999999999994
 21
73.444962000000004
 31
0.0
  0
LINE
  5
4A
  8
3
 10
78.900000000000006
 20
72.903796
 30
0.0
 11
82.099999999999994
 21
72.903796
 31
0.0
  0
LINE
  5
4B
  8
3
 10
78.900000000000006
 20
72.292552999999998
 30
0.0
 11
82.099999999999994
 21
72.292552999999998
 31
0.0
  0
LINE
  5
4C
  8
3
 10
78.900000000000006
 20
71.616652999999999
 30
0.0
 11
82.099999999999994
 21
71.616652999999999
 31
0.0
  0
LINE
  5
4D
  8
3
 10
78.900000000000006
 20
70.882087999999996
 30
0.0
 11
82.099999999999994
 21
70.882087999999996
 31
0.0
  0
LINE
  5
4E
  8
3
 10
78.900000000000006
 20
70.095371
 30
0.0
 11
82.099999999999994
 21
70.095371
 31
0.0
  0
LINE
  5
4F
  8
3
 10
78.900000000000006
 20
69.263476999999995
 30
0.0
 11
82.099999999999994
 21
69.263476999999995
 31
0.0
  0
LINE
  5
50
  8
3
 10
78.900000000000006
 20
68.393782999999985
 30
0.0
 11
82.099999999999994
 21
68.393782999999985
 31
0.0
  0
LINE
  5
51
  8
3
 10
78.900000000000006
 20
67.493998000000005
 30
0.0
 11
82.099999999999994
 21
67.493998000000005
 31
0.0
  0
LINE
  5
52
  8
3
 10
78.900000000000006
 20
66.572101000000004
 30
0.0
 11
82.099999999999994
 21
66.572101000000004
 31
0.0
  0
LINE
  5
53
  8
3
 10
78.900000000000006
 20
65.636266000000006
 30
0.0
 11
82.099999999999994
 21
65.636266000000006
 31
0.0
  0
LINE
  5
54
  8
3
 10
78.900000000000006
 20
64.363733999999994
 30
0.0
 11
82.099999999999994
 21
64.363733999999994
 31
0.0
  0
LINE
  5
55
  8
3
 10
78.900000000000006
 20
63.427898999999989
 30
0.0
 11
82.099999999999994
 21
63.427898999999989
 31
0.0
  0
LINE
  5
56
  8
3
 10
78.900000000000006
 20
62.506002000000002
 30
0.0
 11
82.099999999999994
 21
62.506002000000002
 31
0.0
  0
LINE
  5
57
  8
3
 10
78.900000000000006
 20
61.606217000000001
 30
0.0
 11
82.099999999999994
 21
61.606217000000001
 31
0.0
  0
LINE
  5
58
  8
3
 10
78.900000000000006
 20
60.736522999999998
 30
0.0
 11
82.099999999999994
 21
60.736522999999998
 31
0.0
  0
LINE
  5
59
  8
3
 10
78.900000000000006
 20
59.904629
 30
0.0
 11
82.099999999999994
 21
59.904629
 31
0.0
  0
LINE
  5
5A
  8
3
 10
78.900000000000006
 20
59.11791199999999
 30
0.0
 11
82.099999999999994
 21
59.11791199999999
 31
0.0
  0
LINE
  5
5B
  8
3
 10
78.900000000000006
 20
58.383347000000001
 30
0.0
 11
82.099999999999994
 21
58.383347000000001
 31
0.0
  0
LINE
  5
5C
  8
3
 10
78.900000000000006
 20
57.707446999999988
 30
0.0
 11
82.099999999999994
 21
57.707446999999988
 31
0.0
  0
LINE
  5
5D
  8
3
 10
78.900000000000006
 20
57.096204
 30
0.0
 11
82.099999999999994
 21
57.096204
 31
0.0
  0
LINE
  5
5E
  8
3
 10
78.900000000000006
 20
56.555038000000003
 30
0.0
 11
82.099999999999994
 21
56.555038000000003
 31
0.0
  0
LINE
  5
5F
  8
3
 10
78.900000000000006
 20
56.088746999999998
 30
0.0
 11
82.099999999999994
 21
56.088746999999998
 31
0.0
  0
LINE
  5
60
  8
3
 10
78.900000000000006
 20
55.701464000000001
 30
0.0
 11
82.099999999999994
 21
55.701464000000001
 31
0.0
  0
LINE
  5
61
  8
3
 10
78.900000000000006
 20
55.396625
 30
0.0
 11
82.099999999999994
 21
55.396625
 31
0.0
  0
LINE
  5
62
  8
3
 10
78.900000000000006
 20
55.044331
 30
0.0
 11
82.099999999999994
 21
55.044331
 31
0.0
  0
LINE
  5
63
  8
3
 10
78.900000000000006
 20
55.176931000000003
 30
0.0
 11
82.099999999999994
 21
55.176931000000003
 31
0.0
  0
LINE
  5
64
  8
3
 10
109.43300000000001
 20
62.933
 30
0.0
 11
91.555683999999985
 21
62.933
 31
0.0
  0
LINE
  5
65
  8
0
 10
109.0
 20
62.5
 30
0.0
 11
110.0
 21
63.5
 31
0.0
  0
LINE
  5
66
  8
0
 10
91.599999999999994
 20
62.5
 30
0.0
 11
109.0
 21
62.5
 31
0.0
  0
ARC
  5
67
  8
0
 10
91.200000000000003
 20
62.75
 30
0.0
 40
0.4
 50
360.0
 51
90.0
  0
ARC
  5
68
  8
0
 10
90.400000000000006
 20
62.75
 30
0.0
 40
0.4
 50
90.0
 51
180.0
  0
ARC
  5
69
  8
0
 10
83.499999999999986
 20
59.0
 30
0.0
 40
1.0
 50
90.0
 51
180.0
  0
LINE
  5
6A
  8
0
 10
91.599999999999994
 20
62.75
 30
0.0
 11
91.599999999999994
 21
62.5
 31
0.0
  0
LINE
  5
6B
  8
0
 10
90.400000000000006
 20
63.149999999999999
 30
0.0
 11
91.200000000000003
 21
63.149999999999999
 31
0.0
  0
LINE
  5
6C
  8
0
 10
90.0
 20
60.399999999999999
 30
0.0
 11
90.0
 21
62.75
 31
0.0
  0
LINE
  5
6D
  8
0
 10
89.599999999999994
 20
60.0
 30
0.0
 11
90.0
 21
60.399999999999999
 31
0.0
  0
LINE
  5
6E
  8
0
 10
83.499999999999986
 20
60.0
 30
0.0
 11
89.599999999999994
 21
60.0
 31
0.0
  0
LINE
  5
6F
  8
0
 10
82.5
 20
55.399999999999999
 30
0.0
 11
82.5
 21
59.0
 31
0.0
  0
LINE
  5
70
  8
0
 10
82.099999999999994
 20
55.0
 30
0.0
 11
82.5
 21
55.399999999999999
 31
0.0
  0
LINE
  5
71
  8
0
 10
78.900000000000006
 20
55.0
 30
0.0
 11
82.099999999999994
 21
55.0
 31
0.0
  0
LINE
  5
72
  8
0
 10
78.5
 20
55.399999999999999
 30
0.0
 11
78.900000000000006
 21
55.0
 31
0.0
  0
LINE
  5
73
  8
0
 10
78.5
 20
74.599999999999994
 30
0.0
 11
78.5
 21
55.399999999999999
 31
0.0
  0
LINE
  5
74
  8
0
 10
78.900000000000006
 20
75.0
 30
0.0
 11
78.900000000000006
 21
55.0
 31
0.0
  0
LINE
  5
75
  8
0
 10
82.099999999999994
 20
75.0
 30
0.0
 11
82.099999999999994
 21
55.0
 31
0.0
  0
LINE
  5
76
  8
0
 10
82.5
 20
70.999998000000005
 30
0.0
 11
82.5
 21
59.000002000000002
 31
0.0
  0
LINE
  5
77
  8
0
 10
89.599999999999994
 20
70.0
 30
0.0
 11
89.599999999999994
 21
60.0
 31
0.0
  0
LINE
  5
78
  8
0
 10
90.0
 20
67.249999000000003
 30
0.0
 11
90.0
 21
62.75
 31
0.0
  0
LINE
  5
79
  8
0
 10
91.599999999999994
 20
67.5
 30
0.0
 11
91.599999999999994
 21
62.5
 31
0.0
  0
LINE
  5
7A
  8
0
 10
109.0
 20
67.5
 30
0.0
 11
109.0
 21
62.5
 31
0.0
  0
LINE
  5
7B
  8
0
 10
110.0
 20
66.5
 30
0.0
 11
110.0
 21
63.5
 31
0.0
  0
LINE
  5
7C
  8
0
 10
110.0
 20
106.5
 30
0.0
 11
110.0
 21
103.5
 31
0.0
  0
LINE
  5
7D
  8
0
 10
109.0
 20
107.5
 30
0.0
 11
109.0
 21
102.5
 31
0.0
  0
LINE
  5
7E
  8
0
 10
91.599999999999994
 20
107.5
 30
0.0
 11
91.599999999999994
 21
102.5
 31
0.0
  0
LINE
  5
7F
  8
0
 10
90.0
 20
107.249999
 30
0.0
 11
90.0
 21
102.75
 31
0.0
  0
LINE
  5
80
  8
0
 10
89.599999999999994
 20
110.0
 30
0.0
 11
89.599999999999994
 21
100.0
 31
0.0
  0
LINE
  5
81
  8
0
 10
82.5
 20
110.99999800000001
 30
0.0
 11
82.5
 21
99.000001999999995
 31
0.0
  0
LINE
  5
82
  8
0
 10
82.099999999999994
 20
115.0
 30
0.0
 11
82.099999999999994
 21
95.0
 31
0.0
  0
LINE
  5
83
  8
0
 10
78.900000000000006
 20
115.0
 30
0.0
 11
78.900000000000006
 21
95.0
 31
0.0
  0
LINE
  5
84
  8
0
 10
78.5
 20
114.59999999999999
 30
0.0
 11
78.5
 21
95.400000000000006
 31
0.0
  0
LINE
  5
85
  8
0
 10
78.5
 20
95.400000000000006
 30
0.0
 11
78.900000000000006
 21
95.0
 31
0.0
  0
LINE
  5
86
  8
0
 10
78.900000000000006
 20
95.0
 30
0.0
 11
82.099999999999994
 21
95.0
 31
0.0
  0
LINE
  5
87
  8
0
 10
82.099999999999994
 20
95.0
 30
0.0
 11
82.5
 21
95.400000000000006
 31
0.0
  0
LINE
  5
88
  8
0
 10
82.5
 20
95.400000000000006
 30
0.0
 11
82.5
 21
99.0
 31
0.0
  0
LINE
  5
89
  8
0
 10
83.499999999999986
 20
100.0
 30
0.0
 11
89.599999999999994
 21
100.0
 31
0.0
  0
LINE
  5
8A
  8
0
 10
89.599999999999994
 20
100.0
 30
0.0
 11
90.0
 21
100.40000000000001
 31
0.0
  0
LINE
  5
8B
  8
0
 10
90.0
 20
100.40000000000001
 30
0.0
 11
90.0
 21
102.75
 31
0.0
  0
LINE
  5
8C
  8
0
 10
90.400000000000006
 20
103.15000000000001
 30
0.0
 11
91.200000000000003
 21
103.15000000000001
 31
0.0
  0
LINE
  5
8D
  8
0
 10
91.599999999999994
 20
102.75
 30
0.0
 11
91.599999999999994
 21
102.5
 31
0.0
  0
ARC
  5
8E
  8
0
 10
83.499999999999986
 20
99.0
 30
0.0
 40
1.0
 50
90.0
 51
180.0
  0
ARC
  5
8F
  8
0
 10
90.400000000000006
 20
102.75
 30
0.0
 40
0.4
 50
90.0
 51
180.0
  0
ARC
  5
90
  8
0
 10
91.200000000000003
 20
102.75
 30
0.0
 40
0.4
 50
360.0
 51
90.0
  0
LINE
  5
91
  8
0
 10
91.599999999999994
 20
102.5
 30
0.0
 11
109.0
 21
102.5
 31
0.0
  0
LINE
  5
92
  8
0
 10
109.0
 20
102.5
 30
0.0
 11
110.0
 21
103.5
 31
0.0
  0
LINE
  5
93
  8
3
 10
109.43300000000001
 20
102.93300000000001
 30
0.0
 11
91.555683999999985
 21
102.93300000000001
 31
0.0
  0
LINE
  5
94
  8
3
 10
78.900000000000006
 20
95.176930999999996
 30
0.0
 11
82.099999999999994
 21
95.176930999999996
 31
0.0
  0
LINE
  5
95
  8
3
 10
78.900000000000006
 20
95.044330999999985
 30
0.0
 11
82.099999999999994
 21
95.044330999999985
 31
0.0
  0
LINE
  5
96
  8
3
 10
78.900000000000006
 20
95.396625
 30
0.0
 11
82.099999999999994
 21
95.396625
 31
0.0
  0
LINE
  5
97
  8
3
 10
78.900000000000006
 20
95.701464000000001
 30
0.0
 11
82.099999999999994
 21
95.701464000000001
 31
0.0
  0
LINE
  5
98
  8
3
 10
78.900000000000006
 20
96.088747000000012
 30
0.0
 11
82.099999999999994
 21
96.088747000000012
 31
0.0
  0
LINE
  5
99
  8
3
 10
78.900000000000006
 20
96.555037999999996
 30
0.0
 11
82.099999999999994
 21
96.555037999999996
 31
0.0
  0
LINE
  5
9A
  8
3
 10
78.900000000000006
 20
97.096204
 30
0.0
 11
82.099999999999994
 21
97.096204
 31
0.0
  0
LINE
  5
9B
  8
3
 10
78.900000000000006
 20
97.707447000000016
 30
0.0
 11
82.099999999999994
 21
97.707447000000016
 31
0.0
  0
LINE
  5
9C
  8
3
 10
78.900000000000006
 20
98.383347000000001
 30
0.0
 11
82.099999999999994
 21
98.383347000000001
 31
0.0
  0
LINE
  5
9D
  8
3
 10
78.900000000000006
 20
99.117912000000004
 30
0.0
 11
82.099999999999994
 21
99.117912000000004
 31
0.0
  0
LINE
  5
9E
  8
3
 10
78.900000000000006
 20
99.904629
 30
0.0
 11
82.099999999999994
 21
99.904629
 31
0.0
  0
LINE
  5
9F
  8
3
 10
78.900000000000006
 20
100.73652300000001
 30
0.0
 11
82.099999999999994
 21
100.73652300000001
 31
0.0
  0
LINE
  5
A0
  8
3
 10
78.900000000000006
 20
101.606217
 30
0.0
 11
82.099999999999994
 21
101.606217
 31
0.0
  0
LINE
  5
A1
  8
3
 10
78.900000000000006
 20
102.506002
 30
0.0
 11
82.099999999999994
 21
102.506002
 31
0.0
  0
LINE
  5
A2
  8
3
 10
78.900000000000006
 20
103.427899
 30
0.0
 11
82.099999999999994
 21
103.427899
 31
0.0
  0
LINE
  5
A3
  8
3
 10
78.900000000000006
 20
104.36373399999999
 30
0.0
 11
82.099999999999994
 21
104.36373399999999
 31
0.0
  0
LINE
  5
A4
  8
3
 10
78.900000000000006
 20
105.63626600000001
 30
0.0
 11
82.099999999999994
 21
105.63626600000001
 31
0.0
  0
LINE
  5
A5
  8
3
 10
78.900000000000006
 20
106.572101
 30
0.0
 11
82.099999999999994
 21
106.572101
 31
0.0
  0
LINE
  5
A6
  8
3
 10
78.900000000000006
 20
107.493998
 30
0.0
 11
82.099999999999994
 21
107.493998
 31
0.0
  0
LINE
  5
A7
  8
3
 10
78.900000000000006
 20
108.393783
 30
0.0
 11
82.099999999999994
 21
108.393783
 31
0.0
  0
LINE
  5
A8
  8
3
 10
78.900000000000006
 20
109.26347699999999
 30
0.0
 11
82.099999999999994
 21
109.26347699999999
 31
0.0
  0
LINE
  5
A9
  8
3
 10
78.900000000000006
 20
110.095371
 30
0.0
 11
82.099999999999994
 21
110.095371
 31
0.0
  0
LINE
  5
AA
  8
3
 10
78.900000000000006
 20
110.882088
 30
0.0
 11
82.099999999999994
 21
110.882088
 31
0.0
  0
LINE
  5
AB
  8
3
 10
78.900000000000006
 20
111.616653
 30
0.0
 11
82.099999999999994
 21
111.616653
 31
0.0
  0
LINE
  5
AC
  8
3
 10
78.900000000000006
 20
112.292553
 30
0.0
 11
82.099999999999994
 21
112.292553
 31
0.0
  0
LINE
  5
AD
  8
3
 10
78.900000000000006
 20
112.903796
 30
0.0
 11
82.099999999999994
 21
112.903796
 31
0.0
  0
LINE
  5
AE
  8
3
 10
78.900000000000006
 20
113.444962
 30
0.0
 11
82.099999999999994
 21
113.444962
 31
0.0
  0
LINE
  5
AF
  8
3
 10
78.900000000000006
 20
113.911253
 30
0.0
 11
82.099999999999994
 21
113.911253
 31
0.0
  0
LINE
  5
B0
  8
3
 10
78.900000000000006
 20
114.298536
 30
0.0
 11
82.099999999999994
 21
114.298536
 31
0.0
  0
LINE
  5
B1
  8
3
 10
78.900000000000006
 20
114.603375
 30
0.0
 11
82.099999999999994
 21
114.603375
 31
0.0
  0
LINE
  5
B2
  8
3
 10
78.900000000000006
 20
114.955669
 30
0.0
 11
82.099999999999994
 21
114.955669
 31
0.0
  0
LINE
  5
B3
  8
3
 10
78.900000000000006
 20
114.823069
 30
0.0
 11
82.099999999999994
 21
114.823069
 31
0.0
  0
LINE
  5
B4
  8
3
 10
109.43300000000001
 20
107.06699999999999
 30
0.0
 11
91.555683999999985
 21
107.06699999999999
 31
0.0
  0
LINE
  5
B5
  8
1
 10
112.5
 20
105.0
 30
0.0
 11
76.0
 21
105.0
 31
0.0
  0
LINE
  5
B6
  8
0
 10
109.0
 20
107.5
 30
0.0
 11
110.0
 21
106.5
 31
0.0
  0
LINE
  5
B7
  8
0
 10
91.599999999999994
 20
107.5
 30
0.0
 11
109.0
 21
107.5
 31
0.0
  0
ARC
  5
B8
  8
0
 10
91.200000000000003
 20
107.25
 30
0.0
 40
0.4
 50
270.0
 51
360.0
  0
ARC
  5
B9
  8
0
 10
90.400000000000006
 20
107.25
 30
0.0
 40
0.4
 50
180.0
 51
270.0
  0
ARC
  5
BA
  8
0
 10
83.499999999999986
 20
111.0
 30
0.0
 40
1.0
 50
180.0
 51
270.0
  0
LINE
  5
BB
  8
0
 10
91.599999999999994
 20
107.25
 30
0.0
 11
91.599999999999994
 21
107.5
 31
0.0
  0
LINE
  5
BC
  8
0
 10
90.400000000000006
 20
106.84999999999999
 30
0.0
 11
91.200000000000003
 21
106.84999999999999
 31
0.0
  0
LINE
  5
BD
  8
0
 10
90.0
 20
109.59999999999999
 30
0.0
 11
90.0
 21
107.25
 31
0.0
  0
LINE
  5
BE
  8
0
 10
89.599999999999994
 20
110.0
 30
0.0
 11
90.0
 21
109.59999999999999
 31
0.0
  0
LINE
  5
BF
  8
0
 10
83.499999999999986
 20
110.0
 30
0.0
 11
89.599999999999994
 21
110.0
 31
0.0
  0
LINE
  5
C0
  8
0
 10
82.5
 20
114.59999999999999
 30
0.0
 11
82.5
 21
111.0
 31
0.0
  0
LINE
  5
C1
  8
0
 10
82.099999999999994
 20
115.0
 30
0.0
 11
82.5
 21
114.59999999999999
 31
0.0
  0
LINE
  5
C2
  8
0
 10
78.900000000000006
 20
115.0
 30
0.0
 11
82.099999999999994
 21
115.0
 31
0.0
  0
LINE
  5
C3
  8
0
 10
78.5
 20
114.59999999999999
 30
0.0
 11
78.900000000000006
 21
115.0
 31
0.0
  0
LINE
  5
C4
  8
0
 10
110.0
 20
26.5
 30
0.0
 11
110.0
 21
23.5
 31
0.0
  0
LINE
  5
C5
  8
0
 10
109.0
 20
27.5
 30
0.0
 11
109.0
 21
22.5
 31
0.0
  0
LINE
  5
C6
  8
0
 10
91.599999999999994
 20
27.5
 30
0.0
 11
91.599999999999994
 21
22.5
 31
0.0
  0
LINE
  5
C7
  8
0
 10
90.0
 20
27.249998999999999
 30
0.0
 11
90.0
 21
22.75
 31
0.0
  0
LINE
  5
C8
  8
0
 10
89.599999999999994
 20
30.0
 30
0.0
 11
89.599999999999994
 21
20.0
 31
0.0
  0
LINE
  5
C9
  8
0
 10
82.5
 20
30.999998000000001
 30
0.0
 11
82.5
 21
19.000001999999999
 31
0.0
  0
LINE
  5
CA
  8
0
 10
82.099999999999994
 20
35.0
 30
0.0
 11
82.099999999999994
 21
15.0
 31
0.0
  0
LINE
  5
CB
  8
0
 10
78.900000000000006
 20
35.0
 30
0.0
 11
78.900000000000006
 21
15.0
 31
0.0
  0
LINE
  5
CC
  8
0
 10
78.5
 20
34.600000000000001
 30
0.0
 11
78.5
 21
15.4
 31
0.0
  0
LINE
  5
CD
  8
0
 10
78.5
 20
15.4
 30
0.0
 11
78.900000000000006
 21
15.0
 31
0.0
  0
LINE
  5
CE
  8
0
 10
78.900000000000006
 20
15.0
 30
0.0
 11
82.099999999999994
 21
15.0
 31
0.0
  0
LINE
  5
CF
  8
0
 10
82.099999999999994
 20
15.0
 30
0.0
 11
82.5
 21
15.4
 31
0.0
  0
LINE
  5
D0
  8
0
 10
82.5
 20
15.4
 30
0.0
 11
82.5
 21
19.0
 31
0.0
  0
LINE
  5
D1
  8
0
 10
83.499999999999986
 20
20.0
 30
0.0
 11
89.599999999999994
 21
20.0
 31
0.0
  0
LINE
  5
D2
  8
0
 10
89.599999999999994
 20
20.0
 30
0.0
 11
90.0
 21
20.399999999999999
 31
0.0
  0
LINE
  5
D3
  8
0
 10
90.0
 20
20.399999999999999
 30
0.0
 11
90.0
 21
22.75
 31
0.0
  0
LINE
  5
D4
  8
0
 10
90.400000000000006
 20
23.149999999999999
 30
0.0
 11
91.200000000000003
 21
23.149999999999999
 31
0.0
  0
LINE
  5
D5
  8
0
 10
91.599999999999994
 20
22.75
 30
0.0
 11
91.599999999999994
 21
22.5
 31
0.0
  0
ARC
  5
D6
  8
0
 10
83.499999999999986
 20
19.0
 30
0.0
 40
1.0
 50
90.0
 51
180.0
  0
ARC
  5
D7
  8
0
 10
90.400000000000006
 20
22.75
 30
0.0
 40
0.4
 50
90.0
 51
180.0
  0
ARC
  5
D8
  8
0
 10
91.200000000000003
 20
22.75
 30
0.0
 40
0.4
 50
360.0
 51
90.0
  0
LINE
  5
D9
  8
0
 10
91.599999999999994
 20
22.5
 30
0.0
 11
109.0
 21
22.5
 31
0.0
  0
LINE
  5
DA
  8
0
 10
109.0
 20
22.5
 30
0.0
 11
110.0
 21
23.5
 31
0.0
  0
LINE
  5
DB
  8
3
 10
109.43300000000001
 20
22.933
 30
0.0
 11
91.555683999999985
 21
22.933
 31
0.0
  0
LINE
  5
DC
  8
3
 10
78.900000000000006
 20
15.176931
 30
0.0
 11
82.099999999999994
 21
15.176931
 31
0.0
  0
LINE
  5
DD
  8
3
 10
78.900000000000006
 20
15.044331
 30
0.0
 11
82.099999999999994
 21
15.044331
 31
0.0
  0
LINE
  5
DE
  8
3
 10
78.900000000000006
 20
15.396625
 30
0.0
 11
82.099999999999994
 21
15.396625
 31
0.0
  0
LINE
  5
DF
  8
3
 10
78.900000000000006
 20
15.701464
 30
0.0
 11
82.099999999999994
 21
15.701464
 31
0.0
  0
LINE
  5
E0
  8
3
 10
78.900000000000006
 20
16.088747000000001
 30
0.0
 11
82.099999999999994
 21
16.088747000000001
 31
0.0
  0
LINE
  5
E1
  8
3
 10
78.900000000000006
 20
16.555038
 30
0.0
 11
82.099999999999994
 21
16.555038
 31
0.0
  0
LINE
  5
E2
  8
3
 10
78.900000000000006
 20
17.096204
 30
0.0
 11
82.099999999999994
 21
17.096204
 31
0.0
  0
LINE
  5
E3
  8
3
 10
78.900000000000006
 20
17.707446999999998
 30
0.0
 11
82.099999999999994
 21
17.707446999999998
 31
0.0
  0
LINE
  5
E4
  8
3
 10
78.900000000000006
 20
18.383347000000001
 30
0.0
 11
82.099999999999994
 21
18.383347000000001
 31
0.0
  0
LINE
  5
E5
  8
3
 10
78.900000000000006
 20
19.117912
 30
0.0
 11
82.099999999999994
 21
19.117912
 31
0.0
  0
LINE
  5
E6
  8
3
 10
78.900000000000006
 20
19.904629
 30
0.0
 11
82.099999999999994
 21
19.904629
 31
0.0
  0
LINE
  5
E7
  8
3
 10
78.900000000000006
 20
20.736522999999998
 30
0.0
 11
82.099999999999994
 21
20.736522999999998
 31
0.0
  0
LINE
  5
E8
  8
3
 10
78.900000000000006
 20
21.606217000000001
 30
0.0
 11
82.099999999999994
 21
21.606217000000001
 31
0.0
  0
LINE
  5
E9
  8
3
 10
78.900000000000006
 20
22.506001999999999
 30
0.0
 11
82.099999999999994
 21
22.506001999999999
 31
0.0
  0
LINE
  5
EA
  8
3
 10
78.900000000000006
 20
23.427899
 30
0.0
 11
82.099999999999994
 21
23.427899
 31
0.0
  0
LINE
  5
EB
  8
3
 10
78.900000000000006
 20
24.363734000000001
 30
0.0
 11
82.099999999999994
 21
24.363734000000001
 31
0.0
  0
LINE
  5
EC
  8
3
 10
78.900000000000006
 20
25.636265999999999
 30
0.0
 11
82.099999999999994
 21
25.636265999999999
 31
0.0
  0
LINE
  5
ED
  8
3
 10
78.900000000000006
 20
26.572101
 30
0.0
 11
82.099999999999994
 21
26.572101
 31
0.0
  0
LINE
  5
EE
  8
3
 10
78.900000000000006
 20
27.493998000000001
 30
0.0
 11
82.099999999999994
 21
27.493998000000001
 31
0.0
  0
LINE
  5
EF
  8
3
 10
78.900000000000006
 20
28.393782999999999
 30
0.0
 11
82.099999999999994
 21
28.393782999999999
 31
0.0
  0
LINE
  5
F0
  8
3
 10
78.900000000000006
 20
29.263477000000002
 30
0.0
 11
82.099999999999994
 21
29.263477000000002
 31
0.0
  0
LINE
  5
F1
  8
3
 10
78.900000000000006
 20
30.095371000000011
 30
0.0
 11
82.099999999999994
 21
30.095371000000011
 31
0.0
  0
LINE
  5
F2
  8
3
 10
78.900000000000006
 20
30.882088
 30
0.0
 11
82.099999999999994
 21
30.882088
 31
0.0
  0
LINE
  5
F3
  8
3
 10
78.900000000000006
 20
31.61665300000001
 30
0.0
 11
82.099999999999994
 21
31.61665300000001
 31
0.0
  0
LINE
  5
F4
  8
3
 10
78.900000000000006
 20
32.292553000000012
 30
0.0
 11
82.099999999999994
 21
32.292553000000012
 31
0.0
  0
LINE
  5
F5
  8
3
 10
78.900000000000006
 20
32.903796
 30
0.0
 11
82.099999999999994
 21
32.903796
 31
0.0
  0
LINE
  5
F6
  8
3
 10
78.900000000000006
 20
33.444961999999997
 30
0.0
 11
82.099999999999994
 21
33.444961999999997
 31
0.0
  0
LINE
  5
F7
  8
3
 10
78.900000000000006
 20
33.911253000000009
 30
0.0
 11
82.099999999999994
 21
33.911253000000009
 31
0.0
  0
LINE
  5
F8
  8
3
 10
78.900000000000006
 20
34.298535999999999
 30
0.0
 11
82.099999999999994
 21
34.298535999999999
 31
0.0
  0
LINE
  5
F9
  8
3
 10
78.900000000000006
 20
34.603375
 30
0.0
 11
82.099999999999994
 21
34.603375
 31
0.0
  0
LINE
  5
FA
  8
3
 10
78.900000000000006
 20
34.955669
 30
0.0
 11
82.099999999999994
 21
34.955669
 31
0.0
  0
LINE
  5
FB
  8
3
 10
78.900000000000006
 20
34.823068999999997
 30
0.0
 11
82.099999999999994
 21
34.823068999999997
 31
0.0
  0
LINE
  5
FC
  8
3
 10
109.43300000000001
 20
27.067
 30
0.0
 11
91.555683999999985
 21
27.067
 31
0.0
  0
LINE
  5
FD
  8
1
 10
112.5
 20
25.0
 30
0.0
 11
76.0
 21
25.0
 31
0.0
  0
LINE
  5
FE
  8
0
 10
109.0
 20
27.5
 30
0.0
 11
110.0
 21
26.5
 31
0.0
  0
LINE
  5
FF
  8
0
 10
91.599999999999994
 20
27.5
 30
0.0
 11
109.0
 21
27.5
 31
0.0
  0
ARC
  5
100
  8
0
 10
91.200000000000003
 20
27.25
 30
0.0
 40
0.4
 50
270.0
 51
360.0
  0
ARC
  5
101
  8
0
 10
90.400000000000006
 20
27.25
 30
0.0
 40
0.4
 50
180.0
 51
270.0
  0
ARC
  5
102
  8
0
 10
83.499999999999986
 20
31.0
 30
0.0
 40
1.0
 50
180.0
 51
270.0
  0
LINE
  5
103
  8
0
 10
91.599999999999994
 20
27.25
 30
0.0
 11
91.599999999999994
 21
27.5
 31
0.0
  0
LINE
  5
104
  8
0
 10
90.400000000000006
 20
26.850000000000001
 30
0.0
 11
91.200000000000003
 21
26.850000000000001
 31
0.0
  0
LINE
  5
105
  8
0
 10
90.0
 20
29.600000000000001
 30
0.0
 11
90.0
 21
27.25
 31
0.0
  0
LINE
  5
106
  8
0
 10
89.599999999999994
 20
30.0
 30
0.0
 11
90.0
 21
29.600000000000001
 31
0.0
  0
LINE
  5
107
  8
0
 10
83.499999999999986
 20
30.0
 30
0.0
 11
89.599999999999994
 21
30.0
 31
0.0
  0
LINE
  5
108
  8
0
 10
82.5
 20
34.600000000000001
 30
0.0
 11
82.5
 21
31.0
 31
0.0
  0
LINE
  5
109
  8
0
 10
82.099999999999994
 20
35.0
 30
0.0
 11
82.5
 21
34.600000000000001
 31
0.0
  0
LINE
  5
10A
  8
0
 10
78.900000000000006
 20
35.0
 30
0.0
 11
82.099999999999994
 21
35.0
 31
0.0
  0
LINE
  5
10B
  8
0
 10
78.5
 20
34.600000000000001
 30
0.0
 11
78.900000000000006
 21
35.0
 31
0.0
  0
CIRCLE
  5
10C
  8
0
 10
40.0
 20
65.0
 30
0.0
 40
10.0
  0
CIRCLE
  5
10D
  8
0
 10
145.0
 20
65.0
 30
0.0
 40
10.0
  0
CIRCLE
  5
10E
  8
0
 10
145.0
 20
65.0
 30
0.0
 40
5.0
  0
CIRCLE
  5
10F
  8
3
 10
145.0
 20
65.0
 30
0.0
 40
2.0669999999999988
  0
CIRCLE
  5
110
  8
0
 10
145.0
 20
65.0
 30
0.0
 40
2.5
  0
CIRCLE
  5
111
  8
0
 10
40.0
 20
65.0
 30
0.0
 40
9.5999999999999996
  0
CIRCLE
  5
112
  8
0
 10
145.0
 20
65.0
 30
0.0
 40
9.5999999999999996
  0
CIRCLE
  5
113
  8
0
 10
145.0
 20
65.0
 30
0.0
 40
4.5999999999999988
  0
LINE
  5
114
  8
1
 10
52.5
 20
65.0
 30
0.0
 11
27.5
 21
65.0
 31
0.0
  0
LINE
  5
115
  8
1
 10
40.0
 20
77.5
 30
0.0
 11
40.0
 21
52.5
 31
0.0
  0
LINE
  5
116
  8
1
 10
157.5
 20
65.0
 30
0.0
 11
132.5
 21
65.0
 31
0.0
  0
LINE
  5
117
  8
1
 10
145.0
 20
77.5
 30
0.0
 11
145.0
 21
52.5
 31
0.0
  0
TEXT
  5
275
  8
0
 62
     3
 10
0.0
 20
0.0
 30
0.0
 40
10.0
  1
TKS5X20-SUS
  7
STANDARD1
  0
ENDSEC
  0
EOF
