  0
SECTION
  2
HEADER
  9
$ACADVER
  1
AC1009
  9
$INSBASE
 10
0.0
 20
0.0
 30
0.0
  9
$EXTMIN
 10
0.0
 20
-2.960436562073669
 30
0.0
  9
$EXTMAX
 10
419.43130741619228
 20
417.99999999999989
 30
0.0
  9
$LIMMIN
 10
0.0
 20
0.0
  9
$LIMMAX
 10
297.0
 20
210.0
  9
$ORTHOMODE
 70
     1
  9
$REGENMODE
 70
     1
  9
$FILLMODE
 70
     1
  9
$QTEXTMODE
 70
     0
  9
$MIRRTEXT
 70
     0
  9
$DRAGMODE
 70
     2
  9
$LTSCALE
 40
5.0
  9
$OSMODE
 70
    37
  9
$ATTMODE
 70
     1
  9
$TEXTSIZE
 40
3.0
  9
$TRACEWID
 40
0.05
  9
$TEXTSTYLE
  7
STANDARD
  9
$CLAYER
  8
0
  9
$CELTYPE
  6
BYLAYER
  9
$CECOLOR
 62
   256
  9
$DIMSCALE
 40
1.0
  9
$DIMASZ
 40
3.0
  9
$DIMEXO
 40
2.0
  9
$DIMDLI
 40
10.0
  9
$DIMRND
 40
0.0
  9
$DIMDLE
 40
0.0
  9
$DIMEXE
 40
2.0
  9
$DIMTP
 40
0.0
  9
$DIMTM
 40
0.0
  9
$DIMTXT
 40
3.0
  9
$DIMCEN
 40
0.0
  9
$DIMTSZ
 40
0.0
  9
$DIMTOL
 70
     0
  9
$DIMLIM
 70
     0
  9
$DIMTIH
 70
     0
  9
$DIMTOH
 70
     0
  9
$DIMSE1
 70
     0
  9
$DIMSE2
 70
     0
  9
$DIMTAD
 70
     1
  9
$DIMZIN
 70
     8
  9
$DIMBLK
  1

  9
$DIMASO
 70
     1
  9
$DIMSHO
 70
     0
  9
$DIMPOST
  1

  9
$DIMAPOST
  1

  9
$DIMALT
 70
     0
  9
$DIMALTD
 70
     2
  9
$DIMALTF
 40
25.399999999999999
  9
$DIMLFAC
 40
1.0
  9
$DIMTOFL
 70
     1
  9
$DIMTVP
 40
1.6000000000000001
  9
$DIMTIX
 70
     1
  9
$DIMSOXD
 70
     0
  9
$DIMSAH
 70
     0
  9
$DIMBLK1
  1

  9
$DIMBLK2
  1

  9
$DIMSTYLE
  2
STANDARD
  9
$DIMCLRD
 70
   256
  9
$DIMCLRE
 70
   256
  9
$DIMCLRT
 70
   256
  9
$DIMTFAC
 40
1.0
  9
$DIMGAP
 40
1.0
  9
$LUNITS
 70
     2
  9
$LUPREC
 70
     1
  9
$SKETCHINC
 40
0.1
  9
$FILLETRAD
 40
0.0
  9
$AUNITS
 70
     0
  9
$AUPREC
 70
     0
  9
$MENU
  1
ME
  9
$ELEVATION
 40
0.0
  9
$PELEVATION
 40
0.0
  9
$THICKNESS
 40
0.0
  9
$LIMCHECK
 70
     0
  9
$BLIPMODE
 70
     0
  9
$CHAMFERA
 40
1.0
  9
$CHAMFERB
 40
1.0
  9
$SKPOLY
 70
     0
  9
$TDCREATE
 40
2452423.367022106
  9
$TDUPDATE
 40
2459236.6037631491
  9
$TDINDWG
 40
0.2427428356
  9
$TDUSRTIMER
 40
0.2427395949
  9
$USRTIMER
 70
     1
  9
$ANGBASE
 50
0.0
  9
$ANGDIR
 70
     0
  9
$PDMODE
 70
     0
  9
$PDSIZE
 40
0.0
  9
$PLINEWID
 40
0.0
  9
$COORDS
 70
     1
  9
$SPLFRAME
 70
     0
  9
$SPLINETYPE
 70
     6
  9
$SPLINESEGS
 70
     8
  9
$ATTDIA
 70
     0
  9
$ATTREQ
 70
     1
  9
$HANDLING
 70
     1
  9
$HANDSEED
  5
1888
  9
$SURFTAB1
 70
     6
  9
$SURFTAB2
 70
     6
  9
$SURFTYPE
 70
     6
  9
$SURFU
 70
     6
  9
$SURFV
 70
     6
  9
$UCSNAME
  2

  9
$UCSORG
 10
0.0
 20
0.0
 30
0.0
  9
$UCSXDIR
 10
1.0
 20
0.0
 30
0.0
  9
$UCSYDIR
 10
0.0
 20
1.0
 30
0.0
  9
$PUCSNAME
  2

  9
$PUCSORG
 10
0.0
 20
0.0
 30
0.0
  9
$PUCSXDIR
 10
1.0
 20
0.0
 30
0.0
  9
$PUCSYDIR
 10
0.0
 20
1.0
 30
0.0
  9
$USERI1
 70
     4
  9
$USERI2
 70
     1
  9
$USERI3
 70
     1
  9
$USERI4
 70
     1
  9
$USERI5
 70
     0
  9
$USERR1
 40
1.0
  9
$USERR2
 40
3.0
  9
$USERR3
 40
3.0
  9
$USERR4
 40
3.0
  9
$USERR5
 40
10.0
  9
$WORLDVIEW
 70
     1
  9
$SHADEDGE
 70
     3
  9
$SHADEDIF
 70
    70
  9
$TILEMODE
 70
     1
  9
$MAXACTVP
 70
    16
  9
$PLIMCHECK
 70
     0
  9
$PEXTMIN
 10
1.0000000000000000E+020
 20
1.0000000000000000E+020
 30
1.0000000000000000E+020
  9
$PEXTMAX
 10
-1.0000000000000000E+020
 20
-1.0000000000000000E+020
 30
-1.0000000000000000E+020
  9
$PLIMMIN
 10
0.0
 20
0.0
  9
$PLIMMAX
 10
12.0
 20
9.0
  9
$UNITMODE
 70
     0
  9
$VISRETAIN
 70
     0
  9
$PLINEGEN
 70
     0
  9
$PSLTSCALE
 70
     0
  0
ENDSEC
  0
SECTION
  2
TABLES
  0
TABLE
  2
VPORT
 70
     1
  0
VPORT
  2
*ACTIVE
 70
     0
 10
0.0
 20
0.0
 11
1.0
 21
1.0
 12
595.58823529411757
 22
225.0
 13
0.0
 23
0.0
 14
5.0
 24
5.0
 15
10.0
 25
10.0
 16
0.0
 26
0.0
 36
1.0
 17
0.0
 27
0.0
 37
0.0
 40
450.0
 41
2.6470588235294121
 42
50.0
 43
0.0
 44
0.0
 50
0.0
 51
0.0
 71
     0
 72
   500
 73
     1
 74
     0
 75
     0
 76
     0
 77
     0
 78
     1
  0
ENDTAB
  0
TABLE
  2
LTYPE
 70
     3
  0
LTYPE
  2
CONTINUOUS
 70
     0
  3
Solid Line
 72
    65
 73
     0
 40
0.0
  0
LTYPE
  2
CENTER
 70
     0
  3
____ _ ____ _ ____ _ ____ _ ____ _ ____ _ ____
 72
    65
 73
     4
 40
2.0
 49
1.25
 49
-0.25
 49
0.25
 49
-0.25
  0
LTYPE
  2
HIDDEN
 70
     0
  3
_ _ _ _ _ _ _ _ _ _ _ _ _ _ _ _ _ _ _ _ _ _ _
 72
    65
 73
     2
 40
0.375
 49
0.25
 49
-0.125
  0
ENDTAB
  0
TABLE
  2
LAYER
 70
     6
  0
LAYER
  2
0
 70
     0
 62
     7
  6
CONTINUOUS
  0
LAYER
  2
1
 70
     0
 62
     1
  6
CENTER
  0
LAYER
  2
3
 70
     0
 62
     3
  6
CONTINUOUS
  0
LAYER
  2
WAKU
 70
     0
 62
     5
  6
CONTINUOUS
  0
LAYER
  2
2
 70
     0
 62
     2
  6
HIDDEN
  0
LAYER
  2
DEFPOINTS
 70
     0
 62
     7
  6
CONTINUOUS
  0
ENDTAB
  0
TABLE
  2
STYLE
 70
     2
  0
STYLE
  2
STANDARD
 70
     0
 40
0.0
 41
1.0
 50
0.0
 71
     0
 42
3.0
  3
simplex.shx
  4
EXTFONT.shx
  0
STYLE
  2
STANDARD1
 70
     0
 40
0.0
 41
1.0
 50
0.0
 71
     0
 42
3.0
  3
txt
  4

  0
ENDTAB
  0
TABLE
  2
VIEW
 70
     0
  0
ENDTAB
  0
TABLE
  2
UCS
 70
     0
  0
ENDTAB
  0
TABLE
  2
APPID
 70
     6
  0
APPID
  2
ACAD
 70
     0
  0
APPID
  2
ACAD_MLEADERVER
 70
     0
  0
APPID
  2
ACAD_EXEMPT_FROM_CAD_STANDARDS
 70
     0
  0
APPID
  2
ACAD_NAV_VCDISPLAY
 70
     0
  0
APPID
  2
ACAD_DSTYLE_DIMJAG
 70
     0
  0
APPID
  2
ACAD_DSTYLE_DIMTALN
 70
     0
  0
ENDTAB
  0
TABLE
  2
DIMSTYLE
 70
     1
  0
DIMSTYLE
  2
STANDARD
 70
     0
  3

  4

  5

  6

  7

 40
1.0
 41
0.18
 42
0.0625
 43
0.38
 44
0.18
 45
0.0
 46
0.0
 47
0.0
 48
0.0
140
0.18
141
0.09
142
0.0
143
25.399999999999999
144
1.0
145
0.0
146
1.0
147
0.09
 71
     0
 72
     0
 73
     1
 74
     1
 75
     0
 76
     0
 77
     0
 78
     0
170
     0
171
     2
172
     0
173
     0
174
     0
175
     0
176
     0
177
     0
178
     0
  0
ENDTAB
  0
ENDSEC
  0
SECTION
  2
BLOCKS
  0
BLOCK
  8
0
  2
$MODEL_SPACE
 70
     0
 10
0.0
 20
0.0
 30
0.0
  3
$MODEL_SPACE
  1

  0
ENDBLK
  5
33
  8
0
  0
BLOCK
 67
     1
  8
0
  2
$PAPER_SPACE
 70
     0
 10
0.0
 20
0.0
 30
0.0
  3
$PAPER_SPACE
  1

  0
ENDBLK
  5
31
 67
     1
  8
0
  0
BLOCK
  8
0
  2
ARROW1
 70
     0
 10
0.0
 20
0.0
 30
0.0
  3
ARROW1
  1

  0
SOLID
  5
D5
  8
WAKU
  6
CONTINUOUS
 62
     4
 10
-1.0
 20
0.1666666666666714
 30
0.0
 11
-1.0
 21
-0.1666666666666714
 31
0.0
 12
0.0
 22
0.0
 32
0.0
 13
0.0
 23
0.0
 33
0.0
  0
ENDBLK
  5
D7
  8
0
  0
ENDSEC
  0
SECTION
  2
ENTITIES
  0
TEXT
  5
E79
  8
0
 62
     3
 10
0.0
 20
0.0
 30
0.0
 40
10.0
  1
TL16X60N
  7
STANDARD1
  0
ARC
  5
F35
  8
0
 10
210.99999999999989
 20
270.00000000000028
 30
0.0
 40
6.5000000000002904
 50
270.0
 51
295.05796281583213
  0
LINE
  5
F36
  8
0
 10
195.99999999999949
 20
263.5
 30
0.0
 11
211.0
 21
263.5
 31
0.0
  0
LINE
  5
F37
  8
0
 10
209.8538746253947
 20
276.5
 30
0.0
 11
196.0
 21
276.5
 31
0.0
  0
LINE
  5
F38
  8
0
 10
214.3001364886284
 20
264.28399592978309
 30
0.0
 11
297.77561024149873
 21
294.66658366709748
 31
0.0
  0
LINE
  5
F39
  8
0
 10
293.32934837826502
 20
306.8825877373144
 30
0.0
 11
209.8538746253947
 21
276.49999999999989
 31
0.0
  0
ARC
  5
F3A
  8
0
 10
212.07700555701331
 20
270.39199796488691
 30
0.0
 40
6.4999999999949827
 50
284.94203718415798
 51
290.00000000000341
  0
LINE
  5
F43
  8
0
 10
168.0
 20
229.0
 30
0.0
 11
168.0
 21
223.0
 31
0.0
  0
LINE
  5
F44
  8
0
 10
191.0
 20
223.0
 30
0.0
 11
191.0
 21
229.0
 31
0.0
  0
LINE
  5
F45
  8
0
 10
191.0
 20
223.0
 30
0.0
 11
168.0
 21
223.0
 31
0.0
  0
LINE
  5
F46
  8
0
 10
292.688541078014
 20
308.64319132497621
 30
0.0
 11
298.41641754174998
 21
292.90598007943578
 31
0.0
  0
ARC
  5
F47
  8
0
 10
308.0
 20
304.0
 30
0.0
 40
16.000000000000011
 50
24.396050523962462
 51
163.13010235415561
  0
ARC
  5
F48
  8
0
 10
307.16108971188299
 20
306.30488707354903
 30
0.0
 40
15.999999999999989
 50
236.86989764584681
 51
15.603949476036719
  0
LINE
  5
F49
  8
0
 10
165.89999999999989
 20
281.0
 30
0.0
 11
163.0
 21
278.10000000000002
 31
0.0
  0
LINE
  5
F4A
  8
0
 10
196.0
 20
278.10000000000002
 30
0.0
 11
193.09999999999999
 21
281.0
 31
0.0
  0
LINE
  5
F4B
  8
0
 10
193.09999999999999
 20
281.0
 30
0.0
 11
165.89999999999989
 21
281.0
 31
0.0
  0
LINE
  5
F4C
  8
0
 10
195.39999999999989
 20
229.0
 30
0.0
 11
196.0
 21
229.59999999999999
 31
0.0
  0
LINE
  5
F4D
  8
0
 10
163.0
 20
229.59999999999999
 30
0.0
 11
163.59999999999999
 21
229.0
 31
0.0
  0
LINE
  5
F4E
  8
0
 10
195.39999999999989
 20
229.0
 30
0.0
 11
163.59999999999999
 21
229.0
 31
0.0
  0
LINE
  5
F4F
  8
0
 10
163.0
 20
278.10000000000002
 30
0.0
 11
163.0
 21
229.59999999999999
 31
0.0
  0
LINE
  5
F50
  8
0
 10
196.0
 20
229.59999999999999
 30
0.0
 11
196.0
 21
263.49999999999869
 31
0.0
  0
LINE
  5
F51
  8
0
 10
196.0
 20
276.49999999999989
 30
0.0
 11
196.0
 21
278.10000000000002
 31
0.0
  0
LINE
  5
F52
  8
0
 10
196.0
 20
229.59999999999999
 30
0.0
 11
163.0
 21
229.59999999999999
 31
0.0
  0
POLYLINE
  5
F53
  8
0
 66
     1
 10
0.0
 20
0.0
 30
0.0
  0
VERTEX
  5
1077
  8
0
 10
195.99999999999031
 20
276.49999999997527
 30
0.0
  0
VERTEX
  5
1078
  8
0
 10
195.99183876541011
 20
276.47925503929912
 30
0.0
  0
VERTEX
  5
1079
  8
0
 10
195.9302492210507
 20
276.32084562901508
 30
0.0
  0
VERTEX
  5
107A
  8
0
 10
195.80989819232059
 20
276.00106482583391
 30
0.0
  0
VERTEX
  5
107B
  8
0
 10
195.6457299734339
 20
275.5393678678206
 30
0.0
  0
VERTEX
  5
107C
  8
0
 10
195.44670771232271
 20
274.92924810313423
 30
0.0
  0
VERTEX
  5
107D
  8
0
 10
195.2277672447301
 20
274.16685282970298
 30
0.0
  0
VERTEX
  5
107E
  8
0
 10
195.01305600929311
 20
273.26418546462418
 30
0.0
  0
VERTEX
  5
107F
  8
0
 10
194.83401167307781
 20
272.26537281481143
 30
0.0
  0
VERTEX
  5
1080
  8
0
 10
194.70986079581851
 20
271.15752556264522
 30
0.0
  0
VERTEX
  5
1081
  8
0
 10
194.6661627431929
 20
270.11176919526912
 30
0.0
  0
VERTEX
  5
1082
  8
0
 10
194.69682337308569
 20
269.0286912783435
 30
0.0
  0
VERTEX
  5
1083
  8
0
 10
194.78916703397431
 20
268.06128171392362
 30
0.0
  0
VERTEX
  5
1084
  8
0
 10
194.93666749993849
 20
267.12064182435449
 30
0.0
  0
VERTEX
  5
1085
  8
0
 10
195.12400834713719
 20
266.24372034701707
 30
0.0
  0
VERTEX
  5
1086
  8
0
 10
195.33542385876029
 20
265.44361450417142
 30
0.0
  0
VERTEX
  5
1087
  8
0
 10
195.55399796747881
 20
264.733991004583
 30
0.0
  0
VERTEX
  5
1088
  8
0
 10
195.7527890080739
 20
264.15593031005187
 30
0.0
  0
VERTEX
  5
1089
  8
0
 10
195.89904209808691
 20
263.76072265924751
 30
0.0
  0
VERTEX
  5
108A
  8
0
 10
195.98494243023211
 20
263.5383185680455
 30
0.0
  0
VERTEX
  5
108B
  8
0
 10
195.99999999980409
 20
263.5000000004971
 30
0.0
  0
SEQEND
  5
108C
  8
0
  0
LINE
  5
F54
  8
0
 10
196.0
 20
278.10000000000002
 30
0.0
 11
163.0
 21
278.10000000000002
 31
0.0
  0
LINE
  5
F58
  8
1
 10
179.50000000000011
 20
286.0
 30
0.0
 11
179.50000000000011
 21
158.0
 31
0.0
  0
LINE
  5
F59
  8
1
 10
179.5
 20
270.0
 30
0.0
 11
211.0000000000002
 21
270.0
 31
0.0
  0
LINE
  5
F5A
  8
1
 10
211.0
 20
270.0
 30
0.0
 11
327.28040966771852
 21
312.3226079473294
 31
0.0
  0
LINE
  5
F5B
  8
3
 10
211.0
 20
390.21966386378909
 30
0.0
 11
211.0
 21
402.78033613621068
 31
0.0
  0
POLYLINE
  5
F5C
  8
0
 66
     1
 10
0.0
 20
0.0
 30
0.0
  0
VERTEX
  5
108D
  8
0
 10
211.0
 20
390.21966386378909
 30
0.0
  0
VERTEX
  5
108E
  8
0
 10
210.83563986524439
 20
390.36983246447198
 30
0.0
  0
VERTEX
  5
108F
  8
0
 10
210.69294353876469
 20
390.56000908179408
 30
0.0
  0
VERTEX
  5
1090
  8
0
 10
210.5632518206109
 20
390.7970543083116
 30
0.0
  0
VERTEX
  5
1091
  8
0
 10
210.44829174141179
 20
391.07444443736898
 30
0.0
  0
VERTEX
  5
1092
  8
0
 10
210.3488133670503
 20
391.38083973615119
 30
0.0
  0
VERTEX
  5
1093
  8
0
 10
210.2600911826552
 20
391.7218272760465
 30
0.0
  0
VERTEX
  5
1094
  8
0
 10
210.17914205812841
 20
392.10646270970398
 30
0.0
  0
VERTEX
  5
1095
  8
0
 10
210.10799211987671
 20
392.52280134097168
 30
0.0
  0
VERTEX
  5
1096
  8
0
 10
210.0471835650072
 20
392.95987454101129
 30
0.0
  0
VERTEX
  5
1097
  8
0
 10
209.9950263545735
 20
393.42177031334597
 30
0.0
  0
VERTEX
  5
1098
  8
0
 10
209.95011632614549
 20
393.91997411117842
 30
0.0
  0
VERTEX
  5
1099
  8
0
 10
209.91391705540619
 20
394.43745116441329
 30
0.0
  0
VERTEX
  5
109A
  8
0
 10
209.88789923399611
 20
394.93397812057088
 30
0.0
  0
VERTEX
  5
109B
  8
0
 10
209.86924979678949
 20
395.44071277326412
 30
0.0
  0
VERTEX
  5
109C
  8
0
 10
209.8577191529368
 20
395.96852527076072
 30
0.0
  0
VERTEX
  5
109D
  8
0
 10
209.8538746253947
 20
396.49999999999989
 30
0.0
  0
SEQEND
  5
109E
  8
0
  0
POLYLINE
  5
F5D
  8
0
 10
210.99999999999994
 20
390.21966386378915
 30
0.0
 66
     1
 70
     8
  0
VERTEX
  8
0
  5
12F2
 10
211.000
 20
390.220
 30
0.000000
  70
    32
  0
VERTEX
  8
0
  5
12F3
 10
211.004
 20
390.217
 30
0.000000
  70
    32
  0
VERTEX
  8
0
  5
12F4
 10
211.007
 20
390.214
 30
0.000000
  70
    32
  0
VERTEX
  8
0
  5
12F5
 10
211.011
 20
390.212
 30
0.000000
  70
    32
  0
VERTEX
  8
0
  5
12F6
 10
211.014
 20
390.209
 30
0.000000
  70
    32
  0
VERTEX
  8
0
  5
12F7
 10
211.018
 20
390.207
 30
0.000000
  70
    32
  0
VERTEX
  8
0
  5
12F8
 10
211.022
 20
390.204
 30
0.000000
  70
    32
  0
VERTEX
  8
0
  5
12F9
 10
211.025
 20
390.202
 30
0.000000
  70
    32
  0
VERTEX
  8
0
  5
12FA
 10
211.029
 20
390.199
 30
0.000000
  70
    32
  0
VERTEX
  8
0
  5
12FB
 10
211.032
 20
390.197
 30
0.000000
  70
    32
  0
VERTEX
  8
0
  5
12FC
 10
211.036
 20
390.194
 30
0.000000
  70
    32
  0
VERTEX
  8
0
  5
12FD
 10
211.039
 20
390.192
 30
0.000000
  70
    32
  0
VERTEX
  8
0
  5
12FE
 10
211.043
 20
390.189
 30
0.000000
  70
    32
  0
VERTEX
  8
0
  5
12FF
 10
211.047
 20
390.187
 30
0.000000
  70
    32
  0
VERTEX
  8
0
  5
1300
 10
211.050
 20
390.185
 30
0.000000
  70
    32
  0
VERTEX
  8
0
  5
1301
 10
211.054
 20
390.182
 30
0.000000
  70
    32
  0
VERTEX
  8
0
  5
1302
 10
211.057
 20
390.180
 30
0.000000
  70
    32
  0
VERTEX
  8
0
  5
1303
 10
211.061
 20
390.178
 30
0.000000
  70
    32
  0
VERTEX
  8
0
  5
1304
 10
211.065
 20
390.175
 30
0.000000
  70
    32
  0
VERTEX
  8
0
  5
1305
 10
211.068
 20
390.173
 30
0.000000
  70
    32
  0
VERTEX
  8
0
  5
1306
 10
211.072
 20
390.171
 30
0.000000
  70
    32
  0
VERTEX
  8
0
  5
1307
 10
211.076
 20
390.168
 30
0.000000
  70
    32
  0
VERTEX
  8
0
  5
1308
 10
211.079
 20
390.166
 30
0.000000
  70
    32
  0
VERTEX
  8
0
  5
1309
 10
211.083
 20
390.164
 30
0.000000
  70
    32
  0
VERTEX
  8
0
  5
130A
 10
211.086
 20
390.162
 30
0.000000
  70
    32
  0
VERTEX
  8
0
  5
130B
 10
211.090
 20
390.160
 30
0.000000
  70
    32
  0
VERTEX
  8
0
  5
130C
 10
211.094
 20
390.157
 30
0.000000
  70
    32
  0
VERTEX
  8
0
  5
130D
 10
211.097
 20
390.155
 30
0.000000
  70
    32
  0
VERTEX
  8
0
  5
130E
 10
211.101
 20
390.153
 30
0.000000
  70
    32
  0
VERTEX
  8
0
  5
130F
 10
211.104
 20
390.151
 30
0.000000
  70
    32
  0
VERTEX
  8
0
  5
1310
 10
211.108
 20
390.149
 30
0.000000
  70
    32
  0
VERTEX
  8
0
  5
1311
 10
211.112
 20
390.147
 30
0.000000
  70
    32
  0
VERTEX
  8
0
  5
1312
 10
211.115
 20
390.145
 30
0.000000
  70
    32
  0
VERTEX
  8
0
  5
1313
 10
211.119
 20
390.143
 30
0.000000
  70
    32
  0
VERTEX
  8
0
  5
1314
 10
211.123
 20
390.141
 30
0.000000
  70
    32
  0
VERTEX
  8
0
  5
1315
 10
211.126
 20
390.139
 30
0.000000
  70
    32
  0
VERTEX
  8
0
  5
1316
 10
211.130
 20
390.137
 30
0.000000
  70
    32
  0
VERTEX
  8
0
  5
1317
 10
211.133
 20
390.135
 30
0.000000
  70
    32
  0
VERTEX
  8
0
  5
1318
 10
211.137
 20
390.133
 30
0.000000
  70
    32
  0
VERTEX
  8
0
  5
1319
 10
211.141
 20
390.131
 30
0.000000
  70
    32
  0
VERTEX
  8
0
  5
131A
 10
211.144
 20
390.129
 30
0.000000
  70
    32
  0
VERTEX
  8
0
  5
131B
 10
211.148
 20
390.127
 30
0.000000
  70
    32
  0
VERTEX
  8
0
  5
131C
 10
211.152
 20
390.125
 30
0.000000
  70
    32
  0
VERTEX
  8
0
  5
131D
 10
211.155
 20
390.123
 30
0.000000
  70
    32
  0
VERTEX
  8
0
  5
131E
 10
211.159
 20
390.121
 30
0.000000
  70
    32
  0
VERTEX
  8
0
  5
131F
 10
211.163
 20
390.119
 30
0.000000
  70
    32
  0
VERTEX
  8
0
  5
1320
 10
211.166
 20
390.117
 30
0.000000
  70
    32
  0
VERTEX
  8
0
  5
1321
 10
211.170
 20
390.116
 30
0.000000
  70
    32
  0
VERTEX
  8
0
  5
1322
 10
211.173
 20
390.114
 30
0.000000
  70
    32
  0
VERTEX
  8
0
  5
1323
 10
211.177
 20
390.112
 30
0.000000
  70
    32
  0
VERTEX
  8
0
  5
1324
 10
211.181
 20
390.110
 30
0.000000
  70
    32
  0
VERTEX
  8
0
  5
1325
 10
211.184
 20
390.109
 30
0.000000
  70
    32
  0
VERTEX
  8
0
  5
1326
 10
211.188
 20
390.107
 30
0.000000
  70
    32
  0
VERTEX
  8
0
  5
1327
 10
211.192
 20
390.105
 30
0.000000
  70
    32
  0
VERTEX
  8
0
  5
1328
 10
211.195
 20
390.104
 30
0.000000
  70
    32
  0
VERTEX
  8
0
  5
1329
 10
211.199
 20
390.102
 30
0.000000
  70
    32
  0
VERTEX
  8
0
  5
132A
 10
211.203
 20
390.100
 30
0.000000
  70
    32
  0
VERTEX
  8
0
  5
132B
 10
211.206
 20
390.099
 30
0.000000
  70
    32
  0
VERTEX
  8
0
  5
132C
 10
211.210
 20
390.097
 30
0.000000
  70
    32
  0
VERTEX
  8
0
  5
132D
 10
211.214
 20
390.095
 30
0.000000
  70
    32
  0
VERTEX
  8
0
  5
132E
 10
211.217
 20
390.094
 30
0.000000
  70
    32
  0
VERTEX
  8
0
  5
132F
 10
211.221
 20
390.092
 30
0.000000
  70
    32
  0
VERTEX
  8
0
  5
1330
 10
211.225
 20
390.091
 30
0.000000
  70
    32
  0
VERTEX
  8
0
  5
1331
 10
211.228
 20
390.089
 30
0.000000
  70
    32
  0
VERTEX
  8
0
  5
1332
 10
211.232
 20
390.088
 30
0.000000
  70
    32
  0
VERTEX
  8
0
  5
1333
 10
211.235
 20
390.086
 30
0.000000
  70
    32
  0
VERTEX
  8
0
  5
1334
 10
211.239
 20
390.085
 30
0.000000
  70
    32
  0
VERTEX
  8
0
  5
1335
 10
211.243
 20
390.083
 30
0.000000
  70
    32
  0
VERTEX
  8
0
  5
1336
 10
211.246
 20
390.082
 30
0.000000
  70
    32
  0
VERTEX
  8
0
  5
1337
 10
211.250
 20
390.080
 30
0.000000
  70
    32
  0
VERTEX
  8
0
  5
1338
 10
211.254
 20
390.079
 30
0.000000
  70
    32
  0
VERTEX
  8
0
  5
1339
 10
211.257
 20
390.078
 30
0.000000
  70
    32
  0
VERTEX
  8
0
  5
133A
 10
211.261
 20
390.076
 30
0.000000
  70
    32
  0
VERTEX
  8
0
  5
133B
 10
211.265
 20
390.075
 30
0.000000
  70
    32
  0
VERTEX
  8
0
  5
133C
 10
211.268
 20
390.074
 30
0.000000
  70
    32
  0
VERTEX
  8
0
  5
133D
 10
211.272
 20
390.072
 30
0.000000
  70
    32
  0
VERTEX
  8
0
  5
133E
 10
211.276
 20
390.071
 30
0.000000
  70
    32
  0
VERTEX
  8
0
  5
133F
 10
211.279
 20
390.070
 30
0.000000
  70
    32
  0
VERTEX
  8
0
  5
1340
 10
211.283
 20
390.069
 30
0.000000
  70
    32
  0
VERTEX
  8
0
  5
1341
 10
211.287
 20
390.067
 30
0.000000
  70
    32
  0
VERTEX
  8
0
  5
1342
 10
211.290
 20
390.066
 30
0.000000
  70
    32
  0
VERTEX
  8
0
  5
1343
 10
211.294
 20
390.065
 30
0.000000
  70
    32
  0
VERTEX
  8
0
  5
1344
 10
211.298
 20
390.064
 30
0.000000
  70
    32
  0
VERTEX
  8
0
  5
1345
 10
211.301
 20
390.063
 30
0.000000
  70
    32
  0
VERTEX
  8
0
  5
1346
 10
211.305
 20
390.061
 30
0.000000
  70
    32
  0
VERTEX
  8
0
  5
1347
 10
211.309
 20
390.060
 30
0.000000
  70
    32
  0
VERTEX
  8
0
  5
1348
 10
211.312
 20
390.059
 30
0.000000
  70
    32
  0
VERTEX
  8
0
  5
1349
 10
211.316
 20
390.058
 30
0.000000
  70
    32
  0
VERTEX
  8
0
  5
134A
 10
211.320
 20
390.057
 30
0.000000
  70
    32
  0
VERTEX
  8
0
  5
134B
 10
211.323
 20
390.056
 30
0.000000
  70
    32
  0
VERTEX
  8
0
  5
134C
 10
211.327
 20
390.055
 30
0.000000
  70
    32
  0
VERTEX
  8
0
  5
134D
 10
211.331
 20
390.054
 30
0.000000
  70
    32
  0
VERTEX
  8
0
  5
134E
 10
211.335
 20
390.053
 30
0.000000
  70
    32
  0
VERTEX
  8
0
  5
134F
 10
211.338
 20
390.052
 30
0.000000
  70
    32
  0
VERTEX
  8
0
  5
1350
 10
211.342
 20
390.051
 30
0.000000
  70
    32
  0
VERTEX
  8
0
  5
1351
 10
211.346
 20
390.050
 30
0.000000
  70
    32
  0
VERTEX
  8
0
  5
1352
 10
211.349
 20
390.049
 30
0.000000
  70
    32
  0
VERTEX
  8
0
  5
1353
 10
211.353
 20
390.048
 30
0.000000
  70
    32
  0
VERTEX
  8
0
  5
1354
 10
211.357
 20
390.047
 30
0.000000
  70
    32
  0
VERTEX
  8
0
  5
1355
 10
211.360
 20
390.046
 30
0.000000
  70
    32
  0
VERTEX
  8
0
  5
1356
 10
211.364
 20
390.045
 30
0.000000
  70
    32
  0
VERTEX
  8
0
  5
1357
 10
211.368
 20
390.045
 30
0.000000
  70
    32
  0
VERTEX
  8
0
  5
1358
 10
211.371
 20
390.044
 30
0.000000
  70
    32
  0
VERTEX
  8
0
  5
1359
 10
211.375
 20
390.043
 30
0.000000
  70
    32
  0
VERTEX
  8
0
  5
135A
 10
211.379
 20
390.042
 30
0.000000
  70
    32
  0
VERTEX
  8
0
  5
135B
 10
211.382
 20
390.041
 30
0.000000
  70
    32
  0
VERTEX
  8
0
  5
135C
 10
211.386
 20
390.041
 30
0.000000
  70
    32
  0
VERTEX
  8
0
  5
135D
 10
211.390
 20
390.040
 30
0.000000
  70
    32
  0
VERTEX
  8
0
  5
135E
 10
211.393
 20
390.039
 30
0.000000
  70
    32
  0
VERTEX
  8
0
  5
135F
 10
211.397
 20
390.039
 30
0.000000
  70
    32
  0
VERTEX
  8
0
  5
1360
 10
211.401
 20
390.038
 30
0.000000
  70
    32
  0
VERTEX
  8
0
  5
1361
 10
211.404
 20
390.037
 30
0.000000
  70
    32
  0
VERTEX
  8
0
  5
1362
 10
211.408
 20
390.037
 30
0.000000
  70
    32
  0
VERTEX
  8
0
  5
1363
 10
211.412
 20
390.036
 30
0.000000
  70
    32
  0
VERTEX
  8
0
  5
1364
 10
211.416
 20
390.035
 30
0.000000
  70
    32
  0
VERTEX
  8
0
  5
1365
 10
211.419
 20
390.035
 30
0.000000
  70
    32
  0
VERTEX
  8
0
  5
1366
 10
211.423
 20
390.034
 30
0.000000
  70
    32
  0
VERTEX
  8
0
  5
1367
 10
211.427
 20
390.034
 30
0.000000
  70
    32
  0
VERTEX
  8
0
  5
1368
 10
211.430
 20
390.033
 30
0.000000
  70
    32
  0
VERTEX
  8
0
  5
1369
 10
211.434
 20
390.033
 30
0.000000
  70
    32
  0
VERTEX
  8
0
  5
136A
 10
211.438
 20
390.032
 30
0.000000
  70
    32
  0
VERTEX
  8
0
  5
136B
 10
211.441
 20
390.032
 30
0.000000
  70
    32
  0
VERTEX
  8
0
  5
136C
 10
211.445
 20
390.031
 30
0.000000
  70
    32
  0
VERTEX
  8
0
  5
136D
 10
211.449
 20
390.031
 30
0.000000
  70
    32
  0
VERTEX
  8
0
  5
136E
 10
211.452
 20
390.030
 30
0.000000
  70
    32
  0
VERTEX
  8
0
  5
136F
 10
211.456
 20
390.030
 30
0.000000
  70
    32
  0
VERTEX
  8
0
  5
1370
 10
211.460
 20
390.029
 30
0.000000
  70
    32
  0
VERTEX
  8
0
  5
1371
 10
211.463
 20
390.029
 30
0.000000
  70
    32
  0
VERTEX
  8
0
  5
1372
 10
211.467
 20
390.029
 30
0.000000
  70
    32
  0
SEQEND
  8
0
  5
1373
  0
POLYLINE
  5
F5E
  8
0
 66
     1
 10
0.0
 20
0.0
 30
0.0
  0
VERTEX
  5
109F
  8
0
 10
209.8538746253947
 20
396.49999999999989
 30
0.0
  0
VERTEX
  5
10A0
  8
0
 10
209.8539457703485
 20
396.57242260235438
 30
0.0
  0
VERTEX
  5
10A1
  8
0
 10
209.85884445078
 20
397.104107843637
 30
0.0
  0
VERTEX
  5
10A2
  8
0
 10
209.8714468793454
 20
397.63162284960708
 30
0.0
  0
VERTEX
  5
10A3
  8
0
 10
209.8925125990713
 20
398.1662581868768
 30
0.0
  0
VERTEX
  5
10A4
  8
0
 10
209.92184546292191
 20
398.68873645514037
 30
0.0
  0
VERTEX
  5
10A5
  8
0
 10
209.95838517778529
 20
399.18120557252871
 30
0.0
  0
VERTEX
  5
10A6
  8
0
 10
210.00296667736961
 20
399.65526129702351
 30
0.0
  0
VERTEX
  5
10A7
  8
0
 10
210.05742662051421
 20
400.12028979929892
 30
0.0
  0
VERTEX
  5
10A8
  8
0
 10
210.12086572749041
 20
400.55914841320572
 30
0.0
  0
VERTEX
  5
10A9
  8
0
 10
210.1918713054213
 20
400.95958308260219
 30
0.0
  0
VERTEX
  5
10AA
  8
0
 10
210.2722745241762
 20
401.32947109756418
 30
0.0
  0
VERTEX
  5
10AB
  8
0
 10
210.3654463129096
 20
401.67543378270102
 30
0.0
  0
VERTEX
  5
10AC
  8
0
 10
210.4702498722113
 20
401.98426800369958
 30
0.0
  0
VERTEX
  5
10AD
  8
0
 10
210.57842900050679
 20
402.23444422045191
 30
0.0
  0
VERTEX
  5
10AE
  8
0
 10
210.6994109075917
 20
402.45006160242349
 30
0.0
  0
VERTEX
  5
10AF
  8
0
 10
210.83932931358649
 20
402.63426002029689
 30
0.0
  0
VERTEX
  5
10B0
  8
0
 10
211.0
 20
402.78033613621068
 30
0.0
  0
SEQEND
  5
10B1
  8
0
  0
ARC
  5
F5F
  8
0
 10
212.0770055570118
 20
396.50000000000108
 30
0.0
 40
6.499999999998872
 50
90.0
 51
95.383501071737925
  0
ARC
  5
F60
  8
0
 10
212.0770055570118
 20
396.49999999999909
 30
0.0
 40
6.4999999999991758
 50
264.61649892826199
 51
270.0
  0
POLYLINE
  5
F61
  8
0
 10
211.46716498294907
 20
402.97132864829365
 30
0.0
 66
     1
 70
     8
  0
VERTEX
  8
0
  5
1374
 10
211.467
 20
402.971
 30
0.000000
  70
    32
  0
VERTEX
  8
0
  5
1375
 10
211.463
 20
402.971
 30
0.000000
  70
    32
  0
VERTEX
  8
0
  5
1376
 10
211.460
 20
402.971
 30
0.000000
  70
    32
  0
VERTEX
  8
0
  5
1377
 10
211.456
 20
402.970
 30
0.000000
  70
    32
  0
VERTEX
  8
0
  5
1378
 10
211.452
 20
402.970
 30
0.000000
  70
    32
  0
VERTEX
  8
0
  5
1379
 10
211.449
 20
402.969
 30
0.000000
  70
    32
  0
VERTEX
  8
0
  5
137A
 10
211.445
 20
402.969
 30
0.000000
  70
    32
  0
VERTEX
  8
0
  5
137B
 10
211.441
 20
402.968
 30
0.000000
  70
    32
  0
VERTEX
  8
0
  5
137C
 10
211.438
 20
402.968
 30
0.000000
  70
    32
  0
VERTEX
  8
0
  5
137D
 10
211.434
 20
402.967
 30
0.000000
  70
    32
  0
VERTEX
  8
0
  5
137E
 10
211.430
 20
402.967
 30
0.000000
  70
    32
  0
VERTEX
  8
0
  5
137F
 10
211.427
 20
402.966
 30
0.000000
  70
    32
  0
VERTEX
  8
0
  5
1380
 10
211.423
 20
402.966
 30
0.000000
  70
    32
  0
VERTEX
  8
0
  5
1381
 10
211.419
 20
402.965
 30
0.000000
  70
    32
  0
VERTEX
  8
0
  5
1382
 10
211.416
 20
402.965
 30
0.000000
  70
    32
  0
VERTEX
  8
0
  5
1383
 10
211.412
 20
402.964
 30
0.000000
  70
    32
  0
VERTEX
  8
0
  5
1384
 10
211.408
 20
402.963
 30
0.000000
  70
    32
  0
VERTEX
  8
0
  5
1385
 10
211.404
 20
402.963
 30
0.000000
  70
    32
  0
VERTEX
  8
0
  5
1386
 10
211.401
 20
402.962
 30
0.000000
  70
    32
  0
VERTEX
  8
0
  5
1387
 10
211.397
 20
402.961
 30
0.000000
  70
    32
  0
VERTEX
  8
0
  5
1388
 10
211.393
 20
402.961
 30
0.000000
  70
    32
  0
VERTEX
  8
0
  5
1389
 10
211.390
 20
402.960
 30
0.000000
  70
    32
  0
VERTEX
  8
0
  5
138A
 10
211.386
 20
402.959
 30
0.000000
  70
    32
  0
VERTEX
  8
0
  5
138B
 10
211.382
 20
402.959
 30
0.000000
  70
    32
  0
VERTEX
  8
0
  5
138C
 10
211.379
 20
402.958
 30
0.000000
  70
    32
  0
VERTEX
  8
0
  5
138D
 10
211.375
 20
402.957
 30
0.000000
  70
    32
  0
VERTEX
  8
0
  5
138E
 10
211.371
 20
402.956
 30
0.000000
  70
    32
  0
VERTEX
  8
0
  5
138F
 10
211.368
 20
402.955
 30
0.000000
  70
    32
  0
VERTEX
  8
0
  5
1390
 10
211.364
 20
402.955
 30
0.000000
  70
    32
  0
VERTEX
  8
0
  5
1391
 10
211.360
 20
402.954
 30
0.000000
  70
    32
  0
VERTEX
  8
0
  5
1392
 10
211.357
 20
402.953
 30
0.000000
  70
    32
  0
VERTEX
  8
0
  5
1393
 10
211.353
 20
402.952
 30
0.000000
  70
    32
  0
VERTEX
  8
0
  5
1394
 10
211.349
 20
402.951
 30
0.000000
  70
    32
  0
VERTEX
  8
0
  5
1395
 10
211.346
 20
402.950
 30
0.000000
  70
    32
  0
VERTEX
  8
0
  5
1396
 10
211.342
 20
402.949
 30
0.000000
  70
    32
  0
VERTEX
  8
0
  5
1397
 10
211.338
 20
402.948
 30
0.000000
  70
    32
  0
VERTEX
  8
0
  5
1398
 10
211.335
 20
402.947
 30
0.000000
  70
    32
  0
VERTEX
  8
0
  5
1399
 10
211.331
 20
402.946
 30
0.000000
  70
    32
  0
VERTEX
  8
0
  5
139A
 10
211.327
 20
402.945
 30
0.000000
  70
    32
  0
VERTEX
  8
0
  5
139B
 10
211.323
 20
402.944
 30
0.000000
  70
    32
  0
VERTEX
  8
0
  5
139C
 10
211.320
 20
402.943
 30
0.000000
  70
    32
  0
VERTEX
  8
0
  5
139D
 10
211.316
 20
402.942
 30
0.000000
  70
    32
  0
VERTEX
  8
0
  5
139E
 10
211.312
 20
402.941
 30
0.000000
  70
    32
  0
VERTEX
  8
0
  5
139F
 10
211.309
 20
402.940
 30
0.000000
  70
    32
  0
VERTEX
  8
0
  5
13A0
 10
211.305
 20
402.939
 30
0.000000
  70
    32
  0
VERTEX
  8
0
  5
13A1
 10
211.301
 20
402.937
 30
0.000000
  70
    32
  0
VERTEX
  8
0
  5
13A2
 10
211.298
 20
402.936
 30
0.000000
  70
    32
  0
VERTEX
  8
0
  5
13A3
 10
211.294
 20
402.935
 30
0.000000
  70
    32
  0
VERTEX
  8
0
  5
13A4
 10
211.290
 20
402.934
 30
0.000000
  70
    32
  0
VERTEX
  8
0
  5
13A5
 10
211.287
 20
402.933
 30
0.000000
  70
    32
  0
VERTEX
  8
0
  5
13A6
 10
211.283
 20
402.931
 30
0.000000
  70
    32
  0
VERTEX
  8
0
  5
13A7
 10
211.279
 20
402.930
 30
0.000000
  70
    32
  0
VERTEX
  8
0
  5
13A8
 10
211.276
 20
402.929
 30
0.000000
  70
    32
  0
VERTEX
  8
0
  5
13A9
 10
211.272
 20
402.928
 30
0.000000
  70
    32
  0
VERTEX
  8
0
  5
13AA
 10
211.268
 20
402.926
 30
0.000000
  70
    32
  0
VERTEX
  8
0
  5
13AB
 10
211.265
 20
402.925
 30
0.000000
  70
    32
  0
VERTEX
  8
0
  5
13AC
 10
211.261
 20
402.924
 30
0.000000
  70
    32
  0
VERTEX
  8
0
  5
13AD
 10
211.257
 20
402.922
 30
0.000000
  70
    32
  0
VERTEX
  8
0
  5
13AE
 10
211.254
 20
402.921
 30
0.000000
  70
    32
  0
VERTEX
  8
0
  5
13AF
 10
211.250
 20
402.920
 30
0.000000
  70
    32
  0
VERTEX
  8
0
  5
13B0
 10
211.246
 20
402.918
 30
0.000000
  70
    32
  0
VERTEX
  8
0
  5
13B1
 10
211.243
 20
402.917
 30
0.000000
  70
    32
  0
VERTEX
  8
0
  5
13B2
 10
211.239
 20
402.915
 30
0.000000
  70
    32
  0
VERTEX
  8
0
  5
13B3
 10
211.235
 20
402.914
 30
0.000000
  70
    32
  0
VERTEX
  8
0
  5
13B4
 10
211.232
 20
402.912
 30
0.000000
  70
    32
  0
VERTEX
  8
0
  5
13B5
 10
211.228
 20
402.911
 30
0.000000
  70
    32
  0
VERTEX
  8
0
  5
13B6
 10
211.225
 20
402.909
 30
0.000000
  70
    32
  0
VERTEX
  8
0
  5
13B7
 10
211.221
 20
402.908
 30
0.000000
  70
    32
  0
VERTEX
  8
0
  5
13B8
 10
211.217
 20
402.906
 30
0.000000
  70
    32
  0
VERTEX
  8
0
  5
13B9
 10
211.214
 20
402.905
 30
0.000000
  70
    32
  0
VERTEX
  8
0
  5
13BA
 10
211.210
 20
402.903
 30
0.000000
  70
    32
  0
VERTEX
  8
0
  5
13BB
 10
211.206
 20
402.901
 30
0.000000
  70
    32
  0
VERTEX
  8
0
  5
13BC
 10
211.203
 20
402.900
 30
0.000000
  70
    32
  0
VERTEX
  8
0
  5
13BD
 10
211.199
 20
402.898
 30
0.000000
  70
    32
  0
VERTEX
  8
0
  5
13BE
 10
211.195
 20
402.896
 30
0.000000
  70
    32
  0
VERTEX
  8
0
  5
13BF
 10
211.192
 20
402.895
 30
0.000000
  70
    32
  0
VERTEX
  8
0
  5
13C0
 10
211.188
 20
402.893
 30
0.000000
  70
    32
  0
VERTEX
  8
0
  5
13C1
 10
211.184
 20
402.891
 30
0.000000
  70
    32
  0
VERTEX
  8
0
  5
13C2
 10
211.181
 20
402.890
 30
0.000000
  70
    32
  0
VERTEX
  8
0
  5
13C3
 10
211.177
 20
402.888
 30
0.000000
  70
    32
  0
VERTEX
  8
0
  5
13C4
 10
211.173
 20
402.886
 30
0.000000
  70
    32
  0
VERTEX
  8
0
  5
13C5
 10
211.170
 20
402.884
 30
0.000000
  70
    32
  0
VERTEX
  8
0
  5
13C6
 10
211.166
 20
402.883
 30
0.000000
  70
    32
  0
VERTEX
  8
0
  5
13C7
 10
211.163
 20
402.881
 30
0.000000
  70
    32
  0
VERTEX
  8
0
  5
13C8
 10
211.159
 20
402.879
 30
0.000000
  70
    32
  0
VERTEX
  8
0
  5
13C9
 10
211.155
 20
402.877
 30
0.000000
  70
    32
  0
VERTEX
  8
0
  5
13CA
 10
211.152
 20
402.875
 30
0.000000
  70
    32
  0
VERTEX
  8
0
  5
13CB
 10
211.148
 20
402.873
 30
0.000000
  70
    32
  0
VERTEX
  8
0
  5
13CC
 10
211.144
 20
402.871
 30
0.000000
  70
    32
  0
VERTEX
  8
0
  5
13CD
 10
211.141
 20
402.869
 30
0.000000
  70
    32
  0
VERTEX
  8
0
  5
13CE
 10
211.137
 20
402.867
 30
0.000000
  70
    32
  0
VERTEX
  8
0
  5
13CF
 10
211.133
 20
402.865
 30
0.000000
  70
    32
  0
VERTEX
  8
0
  5
13D0
 10
211.130
 20
402.863
 30
0.000000
  70
    32
  0
VERTEX
  8
0
  5
13D1
 10
211.126
 20
402.861
 30
0.000000
  70
    32
  0
VERTEX
  8
0
  5
13D2
 10
211.123
 20
402.859
 30
0.000000
  70
    32
  0
VERTEX
  8
0
  5
13D3
 10
211.119
 20
402.857
 30
0.000000
  70
    32
  0
VERTEX
  8
0
  5
13D4
 10
211.115
 20
402.855
 30
0.000000
  70
    32
  0
VERTEX
  8
0
  5
13D5
 10
211.112
 20
402.853
 30
0.000000
  70
    32
  0
VERTEX
  8
0
  5
13D6
 10
211.108
 20
402.851
 30
0.000000
  70
    32
  0
VERTEX
  8
0
  5
13D7
 10
211.104
 20
402.849
 30
0.000000
  70
    32
  0
VERTEX
  8
0
  5
13D8
 10
211.101
 20
402.847
 30
0.000000
  70
    32
  0
VERTEX
  8
0
  5
13D9
 10
211.097
 20
402.845
 30
0.000000
  70
    32
  0
VERTEX
  8
0
  5
13DA
 10
211.094
 20
402.843
 30
0.000000
  70
    32
  0
VERTEX
  8
0
  5
13DB
 10
211.090
 20
402.840
 30
0.000000
  70
    32
  0
VERTEX
  8
0
  5
13DC
 10
211.086
 20
402.838
 30
0.000000
  70
    32
  0
VERTEX
  8
0
  5
13DD
 10
211.083
 20
402.836
 30
0.000000
  70
    32
  0
VERTEX
  8
0
  5
13DE
 10
211.079
 20
402.834
 30
0.000000
  70
    32
  0
VERTEX
  8
0
  5
13DF
 10
211.076
 20
402.832
 30
0.000000
  70
    32
  0
VERTEX
  8
0
  5
13E0
 10
211.072
 20
402.829
 30
0.000000
  70
    32
  0
VERTEX
  8
0
  5
13E1
 10
211.068
 20
402.827
 30
0.000000
  70
    32
  0
VERTEX
  8
0
  5
13E2
 10
211.065
 20
402.825
 30
0.000000
  70
    32
  0
VERTEX
  8
0
  5
13E3
 10
211.061
 20
402.822
 30
0.000000
  70
    32
  0
VERTEX
  8
0
  5
13E4
 10
211.057
 20
402.820
 30
0.000000
  70
    32
  0
VERTEX
  8
0
  5
13E5
 10
211.054
 20
402.818
 30
0.000000
  70
    32
  0
VERTEX
  8
0
  5
13E6
 10
211.050
 20
402.815
 30
0.000000
  70
    32
  0
VERTEX
  8
0
  5
13E7
 10
211.047
 20
402.813
 30
0.000000
  70
    32
  0
VERTEX
  8
0
  5
13E8
 10
211.043
 20
402.811
 30
0.000000
  70
    32
  0
VERTEX
  8
0
  5
13E9
 10
211.039
 20
402.808
 30
0.000000
  70
    32
  0
VERTEX
  8
0
  5
13EA
 10
211.036
 20
402.806
 30
0.000000
  70
    32
  0
VERTEX
  8
0
  5
13EB
 10
211.032
 20
402.803
 30
0.000000
  70
    32
  0
VERTEX
  8
0
  5
13EC
 10
211.029
 20
402.801
 30
0.000000
  70
    32
  0
VERTEX
  8
0
  5
13ED
 10
211.025
 20
402.798
 30
0.000000
  70
    32
  0
VERTEX
  8
0
  5
13EE
 10
211.022
 20
402.796
 30
0.000000
  70
    32
  0
VERTEX
  8
0
  5
13EF
 10
211.018
 20
402.793
 30
0.000000
  70
    32
  0
VERTEX
  8
0
  5
13F0
 10
211.014
 20
402.791
 30
0.000000
  70
    32
  0
VERTEX
  8
0
  5
13F1
 10
211.011
 20
402.788
 30
0.000000
  70
    32
  0
VERTEX
  8
0
  5
13F2
 10
211.007
 20
402.786
 30
0.000000
  70
    32
  0
VERTEX
  8
0
  5
13F3
 10
211.004
 20
402.783
 30
0.000000
  70
    32
  0
VERTEX
  8
0
  5
13F4
 10
211.000
 20
402.780
 30
0.000000
  70
    32
  0
SEQEND
  8
0
  5
13F5
  0
CIRCLE
  5
F62
  8
0
 10
179.5
 20
396.49999999999989
 30
0.0
 40
16.5
  0
CIRCLE
  5
F63
  8
0
 10
179.5
 20
396.49999999999989
 30
0.0
 40
13.6
  0
LINE
  5
F64
  8
0
 10
194.66575088810299
 20
390.0
 30
0.0
 11
293.7469790864414
 21
390.0
 31
0.0
  0
LINE
  5
F65
  8
0
 10
293.7469790864414
 20
402.99999999999989
 30
0.0
 11
194.66575088810299
 21
402.99999999999989
 31
0.0
  0
POLYLINE
  5
F66
  8
0
 10
294.1550942762151
 20
403.80919362252547
 30
0.0
 66
     1
 70
     8
  0
VERTEX
  8
0
  5
13F6
 10
294.155
 20
403.809
 30
0.000000
  70
    32
  0
VERTEX
  8
0
  5
13F7
 10
294.114
 20
403.740
 30
0.000000
  70
    32
  0
VERTEX
  8
0
  5
13F8
 10
294.073
 20
403.670
 30
0.000000
  70
    32
  0
VERTEX
  8
0
  5
13F9
 10
294.033
 20
403.597
 30
0.000000
  70
    32
  0
VERTEX
  8
0
  5
13FA
 10
293.993
 20
403.522
 30
0.000000
  70
    32
  0
VERTEX
  8
0
  5
13FB
 10
293.953
 20
403.446
 30
0.000000
  70
    32
  0
VERTEX
  8
0
  5
13FC
 10
293.914
 20
403.367
 30
0.000000
  70
    32
  0
VERTEX
  8
0
  5
13FD
 10
293.875
 20
403.287
 30
0.000000
  70
    32
  0
VERTEX
  8
0
  5
13FE
 10
293.837
 20
403.205
 30
0.000000
  70
    32
  0
VERTEX
  8
0
  5
13FF
 10
293.799
 20
403.121
 30
0.000000
  70
    32
  0
VERTEX
  8
0
  5
1400
 10
293.762
 20
403.035
 30
0.000000
  70
    32
  0
VERTEX
  8
0
  5
1401
 10
293.725
 20
402.947
 30
0.000000
  70
    32
  0
VERTEX
  8
0
  5
1402
 10
293.689
 20
402.858
 30
0.000000
  70
    32
  0
VERTEX
  8
0
  5
1403
 10
293.653
 20
402.766
 30
0.000000
  70
    32
  0
VERTEX
  8
0
  5
1404
 10
293.618
 20
402.673
 30
0.000000
  70
    32
  0
VERTEX
  8
0
  5
1405
 10
293.583
 20
402.579
 30
0.000000
  70
    32
  0
VERTEX
  8
0
  5
1406
 10
293.549
 20
402.482
 30
0.000000
  70
    32
  0
VERTEX
  8
0
  5
1407
 10
293.515
 20
402.385
 30
0.000000
  70
    32
  0
VERTEX
  8
0
  5
1408
 10
293.482
 20
402.285
 30
0.000000
  70
    32
  0
VERTEX
  8
0
  5
1409
 10
293.449
 20
402.184
 30
0.000000
  70
    32
  0
VERTEX
  8
0
  5
140A
 10
293.417
 20
402.081
 30
0.000000
  70
    32
  0
VERTEX
  8
0
  5
140B
 10
293.386
 20
401.977
 30
0.000000
  70
    32
  0
VERTEX
  8
0
  5
140C
 10
293.355
 20
401.871
 30
0.000000
  70
    32
  0
VERTEX
  8
0
  5
140D
 10
293.325
 20
401.764
 30
0.000000
  70
    32
  0
VERTEX
  8
0
  5
140E
 10
293.296
 20
401.655
 30
0.000000
  70
    32
  0
VERTEX
  8
0
  5
140F
 10
293.267
 20
401.545
 30
0.000000
  70
    32
  0
VERTEX
  8
0
  5
1410
 10
293.238
 20
401.434
 30
0.000000
  70
    32
  0
VERTEX
  8
0
  5
1411
 10
293.211
 20
401.321
 30
0.000000
  70
    32
  0
VERTEX
  8
0
  5
1412
 10
293.184
 20
401.207
 30
0.000000
  70
    32
  0
VERTEX
  8
0
  5
1413
 10
293.157
 20
401.091
 30
0.000000
  70
    32
  0
VERTEX
  8
0
  5
1414
 10
293.132
 20
400.974
 30
0.000000
  70
    32
  0
VERTEX
  8
0
  5
1415
 10
293.107
 20
400.856
 30
0.000000
  70
    32
  0
VERTEX
  8
0
  5
1416
 10
293.082
 20
400.737
 30
0.000000
  70
    32
  0
VERTEX
  8
0
  5
1417
 10
293.059
 20
400.617
 30
0.000000
  70
    32
  0
VERTEX
  8
0
  5
1418
 10
293.036
 20
400.496
 30
0.000000
  70
    32
  0
VERTEX
  8
0
  5
1419
 10
293.013
 20
400.373
 30
0.000000
  70
    32
  0
VERTEX
  8
0
  5
141A
 10
292.992
 20
400.249
 30
0.000000
  70
    32
  0
VERTEX
  8
0
  5
141B
 10
292.971
 20
400.125
 30
0.000000
  70
    32
  0
VERTEX
  8
0
  5
141C
 10
292.951
 20
399.999
 30
0.000000
  70
    32
  0
VERTEX
  8
0
  5
141D
 10
292.931
 20
399.873
 30
0.000000
  70
    32
  0
VERTEX
  8
0
  5
141E
 10
292.912
 20
399.745
 30
0.000000
  70
    32
  0
VERTEX
  8
0
  5
141F
 10
292.894
 20
399.617
 30
0.000000
  70
    32
  0
VERTEX
  8
0
  5
1420
 10
292.877
 20
399.487
 30
0.000000
  70
    32
  0
VERTEX
  8
0
  5
1421
 10
292.860
 20
399.357
 30
0.000000
  70
    32
  0
VERTEX
  8
0
  5
1422
 10
292.845
 20
399.226
 30
0.000000
  70
    32
  0
VERTEX
  8
0
  5
1423
 10
292.830
 20
399.095
 30
0.000000
  70
    32
  0
VERTEX
  8
0
  5
1424
 10
292.815
 20
398.962
 30
0.000000
  70
    32
  0
VERTEX
  8
0
  5
1425
 10
292.802
 20
398.829
 30
0.000000
  70
    32
  0
VERTEX
  8
0
  5
1426
 10
292.789
 20
398.696
 30
0.000000
  70
    32
  0
VERTEX
  8
0
  5
1427
 10
292.777
 20
398.561
 30
0.000000
  70
    32
  0
VERTEX
  8
0
  5
1428
 10
292.765
 20
398.427
 30
0.000000
  70
    32
  0
VERTEX
  8
0
  5
1429
 10
292.755
 20
398.291
 30
0.000000
  70
    32
  0
VERTEX
  8
0
  5
142A
 10
292.745
 20
398.155
 30
0.000000
  70
    32
  0
VERTEX
  8
0
  5
142B
 10
292.736
 20
398.019
 30
0.000000
  70
    32
  0
VERTEX
  8
0
  5
142C
 10
292.728
 20
397.882
 30
0.000000
  70
    32
  0
VERTEX
  8
0
  5
142D
 10
292.720
 20
397.745
 30
0.000000
  70
    32
  0
VERTEX
  8
0
  5
142E
 10
292.714
 20
397.608
 30
0.000000
  70
    32
  0
VERTEX
  8
0
  5
142F
 10
292.708
 20
397.470
 30
0.000000
  70
    32
  0
VERTEX
  8
0
  5
1430
 10
292.703
 20
397.332
 30
0.000000
  70
    32
  0
VERTEX
  8
0
  5
1431
 10
292.698
 20
397.194
 30
0.000000
  70
    32
  0
VERTEX
  8
0
  5
1432
 10
292.695
 20
397.055
 30
0.000000
  70
    32
  0
VERTEX
  8
0
  5
1433
 10
292.692
 20
396.917
 30
0.000000
  70
    32
  0
VERTEX
  8
0
  5
1434
 10
292.690
 20
396.778
 30
0.000000
  70
    32
  0
VERTEX
  8
0
  5
1435
 10
292.689
 20
396.639
 30
0.000000
  70
    32
  0
VERTEX
  8
0
  5
1436
 10
292.689
 20
396.501
 30
0.000000
  70
    32
  0
VERTEX
  8
0
  5
1437
 10
292.689
 20
396.362
 30
0.000000
  70
    32
  0
VERTEX
  8
0
  5
1438
 10
292.690
 20
396.223
 30
0.000000
  70
    32
  0
VERTEX
  8
0
  5
1439
 10
292.692
 20
396.084
 30
0.000000
  70
    32
  0
VERTEX
  8
0
  5
143A
 10
292.695
 20
395.946
 30
0.000000
  70
    32
  0
VERTEX
  8
0
  5
143B
 10
292.698
 20
395.807
 30
0.000000
  70
    32
  0
VERTEX
  8
0
  5
143C
 10
292.703
 20
395.669
 30
0.000000
  70
    32
  0
VERTEX
  8
0
  5
143D
 10
292.708
 20
395.531
 30
0.000000
  70
    32
  0
VERTEX
  8
0
  5
143E
 10
292.714
 20
395.393
 30
0.000000
  70
    32
  0
VERTEX
  8
0
  5
143F
 10
292.720
 20
395.256
 30
0.000000
  70
    32
  0
VERTEX
  8
0
  5
1440
 10
292.728
 20
395.119
 30
0.000000
  70
    32
  0
VERTEX
  8
0
  5
1441
 10
292.736
 20
394.982
 30
0.000000
  70
    32
  0
VERTEX
  8
0
  5
1442
 10
292.745
 20
394.846
 30
0.000000
  70
    32
  0
VERTEX
  8
0
  5
1443
 10
292.755
 20
394.710
 30
0.000000
  70
    32
  0
VERTEX
  8
0
  5
1444
 10
292.765
 20
394.574
 30
0.000000
  70
    32
  0
VERTEX
  8
0
  5
1445
 10
292.777
 20
394.440
 30
0.000000
  70
    32
  0
VERTEX
  8
0
  5
1446
 10
292.789
 20
394.305
 30
0.000000
  70
    32
  0
VERTEX
  8
0
  5
1447
 10
292.801
 20
394.172
 30
0.000000
  70
    32
  0
VERTEX
  8
0
  5
1448
 10
292.815
 20
394.039
 30
0.000000
  70
    32
  0
VERTEX
  8
0
  5
1449
 10
292.829
 20
393.906
 30
0.000000
  70
    32
  0
VERTEX
  8
0
  5
144A
 10
292.844
 20
393.775
 30
0.000000
  70
    32
  0
VERTEX
  8
0
  5
144B
 10
292.860
 20
393.644
 30
0.000000
  70
    32
  0
VERTEX
  8
0
  5
144C
 10
292.877
 20
393.514
 30
0.000000
  70
    32
  0
VERTEX
  8
0
  5
144D
 10
292.894
 20
393.384
 30
0.000000
  70
    32
  0
VERTEX
  8
0
  5
144E
 10
292.912
 20
393.256
 30
0.000000
  70
    32
  0
VERTEX
  8
0
  5
144F
 10
292.931
 20
393.128
 30
0.000000
  70
    32
  0
VERTEX
  8
0
  5
1450
 10
292.950
 20
393.002
 30
0.000000
  70
    32
  0
VERTEX
  8
0
  5
1451
 10
292.971
 20
392.876
 30
0.000000
  70
    32
  0
VERTEX
  8
0
  5
1452
 10
292.992
 20
392.752
 30
0.000000
  70
    32
  0
VERTEX
  8
0
  5
1453
 10
293.013
 20
392.628
 30
0.000000
  70
    32
  0
VERTEX
  8
0
  5
1454
 10
293.035
 20
392.505
 30
0.000000
  70
    32
  0
VERTEX
  8
0
  5
1455
 10
293.058
 20
392.384
 30
0.000000
  70
    32
  0
VERTEX
  8
0
  5
1456
 10
293.082
 20
392.264
 30
0.000000
  70
    32
  0
VERTEX
  8
0
  5
1457
 10
293.106
 20
392.144
 30
0.000000
  70
    32
  0
VERTEX
  8
0
  5
1458
 10
293.131
 20
392.027
 30
0.000000
  70
    32
  0
VERTEX
  8
0
  5
1459
 10
293.157
 20
391.910
 30
0.000000
  70
    32
  0
VERTEX
  8
0
  5
145A
 10
293.184
 20
391.794
 30
0.000000
  70
    32
  0
VERTEX
  8
0
  5
145B
 10
293.211
 20
391.680
 30
0.000000
  70
    32
  0
VERTEX
  8
0
  5
145C
 10
293.238
 20
391.567
 30
0.000000
  70
    32
  0
VERTEX
  8
0
  5
145D
 10
293.266
 20
391.456
 30
0.000000
  70
    32
  0
VERTEX
  8
0
  5
145E
 10
293.295
 20
391.346
 30
0.000000
  70
    32
  0
VERTEX
  8
0
  5
145F
 10
293.325
 20
391.237
 30
0.000000
  70
    32
  0
VERTEX
  8
0
  5
1460
 10
293.355
 20
391.130
 30
0.000000
  70
    32
  0
VERTEX
  8
0
  5
1461
 10
293.386
 20
391.024
 30
0.000000
  70
    32
  0
VERTEX
  8
0
  5
1462
 10
293.417
 20
390.920
 30
0.000000
  70
    32
  0
VERTEX
  8
0
  5
1463
 10
293.449
 20
390.817
 30
0.000000
  70
    32
  0
VERTEX
  8
0
  5
1464
 10
293.482
 20
390.716
 30
0.000000
  70
    32
  0
VERTEX
  8
0
  5
1465
 10
293.515
 20
390.616
 30
0.000000
  70
    32
  0
VERTEX
  8
0
  5
1466
 10
293.548
 20
390.518
 30
0.000000
  70
    32
  0
VERTEX
  8
0
  5
1467
 10
293.583
 20
390.422
 30
0.000000
  70
    32
  0
VERTEX
  8
0
  5
1468
 10
293.617
 20
390.327
 30
0.000000
  70
    32
  0
VERTEX
  8
0
  5
1469
 10
293.653
 20
390.234
 30
0.000000
  70
    32
  0
VERTEX
  8
0
  5
146A
 10
293.688
 20
390.143
 30
0.000000
  70
    32
  0
VERTEX
  8
0
  5
146B
 10
293.725
 20
390.054
 30
0.000000
  70
    32
  0
VERTEX
  8
0
  5
146C
 10
293.761
 20
389.966
 30
0.000000
  70
    32
  0
VERTEX
  8
0
  5
146D
 10
293.799
 20
389.880
 30
0.000000
  70
    32
  0
VERTEX
  8
0
  5
146E
 10
293.836
 20
389.796
 30
0.000000
  70
    32
  0
VERTEX
  8
0
  5
146F
 10
293.875
 20
389.714
 30
0.000000
  70
    32
  0
VERTEX
  8
0
  5
1470
 10
293.913
 20
389.633
 30
0.000000
  70
    32
  0
VERTEX
  8
0
  5
1471
 10
293.953
 20
389.555
 30
0.000000
  70
    32
  0
VERTEX
  8
0
  5
1472
 10
293.992
 20
389.478
 30
0.000000
  70
    32
  0
VERTEX
  8
0
  5
1473
 10
294.032
 20
389.404
 30
0.000000
  70
    32
  0
VERTEX
  8
0
  5
1474
 10
294.073
 20
389.331
 30
0.000000
  70
    32
  0
VERTEX
  8
0
  5
1475
 10
294.114
 20
389.260
 30
0.000000
  70
    32
  0
VERTEX
  8
0
  5
1476
 10
294.155
 20
389.191
 30
0.000000
  70
    32
  0
SEQEND
  8
0
  5
1477
  0
POLYLINE
  5
F67
  8
0
 66
     1
 10
0.0
 20
0.0
 30
0.0
  0
VERTEX
  5
10B2
  8
0
 10
294.15477130797649
 20
389.19133429847142
 30
0.0
  0
VERTEX
  5
10B3
  8
0
 10
294.25868317611912
 20
389.02470114991979
 30
0.0
  0
VERTEX
  5
10B4
  8
0
 10
294.5714097469866
 20
388.55002198489132
 30
0.0
  0
VERTEX
  5
10B5
  8
0
 10
294.90248163774032
 20
388.08573405639652
 30
0.0
  0
VERTEX
  5
10B6
  8
0
 10
295.25139422681508
 20
387.63272507877321
 30
0.0
  0
VERTEX
  5
10B7
  8
0
 10
295.6176189075104
 20
387.19183164728292
 30
0.0
  0
VERTEX
  5
10B8
  8
0
 10
296.00060577488512
 20
386.76384133988307
 30
0.0
  0
VERTEX
  5
10B9
  8
0
 10
296.39978550291647
 20
386.34949557455491
 30
0.0
  0
VERTEX
  5
10BA
  8
0
 10
296.8145706665382
 20
385.94949258694658
 30
0.0
  0
VERTEX
  5
10BB
  8
0
 10
297.24435670559768
 20
385.56449019700079
 30
0.0
  0
VERTEX
  5
10BC
  8
0
 10
297.68852267319221
 20
385.19510821815601
 30
0.0
  0
VERTEX
  5
10BD
  8
0
 10
298.14643186654388
 20
384.8419304679515
 30
0.0
  0
VERTEX
  5
10BE
  8
0
 10
298.67010361425309
 20
384.46948347770058
 30
0.0
  0
VERTEX
  5
10BF
  8
0
 10
299.20822297863492
 20
384.11887138972253
 30
0.0
  0
VERTEX
  5
10C0
  8
0
 10
299.7583459472703
 20
383.79147902740311
 30
0.0
  0
VERTEX
  5
10C1
  8
0
 10
300.31943671686213
 20
383.48760278684301
 30
0.0
  0
VERTEX
  5
10C2
  8
0
 10
300.89050036321851
 20
383.20747795543662
 30
0.0
  0
VERTEX
  5
10C3
  8
0
 10
301.47054604389859
 20
382.95130446216052
 30
0.0
  0
VERTEX
  5
10C4
  8
0
 10
302.05858601106769
 20
382.71924783955529
 30
0.0
  0
VERTEX
  5
10C5
  8
0
 10
302.6536357373493
 20
382.51143944726118
 30
0.0
  0
VERTEX
  5
10C6
  8
0
 10
303.25471426134601
 20
382.3279765675332
 30
0.0
  0
VERTEX
  5
10C7
  8
0
 10
303.86084469672249
 20
382.16892243601399
 30
0.0
  0
VERTEX
  5
10C8
  8
0
 10
304.47105487363712
 20
382.03430624467239
 30
0.0
  0
VERTEX
  5
10C9
  8
0
 10
305.08437808697408
 20
381.92412314239891
 30
0.0
  0
VERTEX
  5
10CA
  8
0
 10
305.69985393018692
 20
381.83833425072379
 30
0.0
  0
VERTEX
  5
10CB
  8
0
 10
306.31652919711843
 20
381.7768667063616
 30
0.0
  0
VERTEX
  5
10CC
  8
0
 10
306.93345883704268
 20
381.7396137381308
 30
0.0
  0
VERTEX
  5
10CD
  8
0
 10
307.54970695052538
 20
381.72643478278422
 30
0.0
  0
VERTEX
  5
10CE
  8
0
 10
308.16434781558019
 20
381.7371556420706
 30
0.0
  0
VERTEX
  5
10CF
  8
0
 10
308.7764653093131
 20
381.77156855871289
 30
0.0
  0
VERTEX
  5
10D0
  8
0
 10
309.38515527850132
 20
381.82943229027029
 30
0.0
  0
VERTEX
  5
10D1
  8
0
 10
309.98952892552012
 20
381.91047267946709
 30
0.0
  0
VERTEX
  5
10D2
  8
0
 10
310.58871185179902
 20
382.01438296643499
 30
0.0
  0
VERTEX
  5
10D3
  8
0
 10
311.18184512386171
 20
382.1408241311234
 30
0.0
  0
VERTEX
  5
10D4
  8
0
 10
311.76808632955232
 20
382.28942526539493
 30
0.0
  0
VERTEX
  5
10D5
  8
0
 10
312.3466106208387
 20
382.45978396980411
 30
0.0
  0
VERTEX
  5
10D6
  8
0
 10
312.91661173945448
 20
382.65146676923882
 30
0.0
  0
VERTEX
  5
10D7
  8
0
 10
313.47730302197721
 20
382.86400954069819
 30
0.0
  0
VERTEX
  5
10D8
  8
0
 10
314.0279183812558
 20
383.09691794545131
 30
0.0
  0
VERTEX
  5
10D9
  8
0
 10
314.56771326142803
 20
383.34966785662021
 30
0.0
  0
VERTEX
  5
10DA
  8
0
 10
315.09596556411179
 20
383.6217057718647
 30
0.0
  0
VERTEX
  5
10DB
  8
0
 10
315.61197654382067
 20
383.91244919928101
 30
0.0
  0
VERTEX
  5
10DC
  8
0
 10
316.11507167126712
 20
384.22128700293263
 30
0.0
  0
VERTEX
  5
10DD
  8
0
 10
316.60460146408923
 20
384.54757969264159
 30
0.0
  0
VERTEX
  5
10DE
  8
0
 10
317.07994228587489
 20
384.89065964104122
 30
0.0
  0
VERTEX
  5
10DF
  8
0
 10
317.5404971163116
 20
385.24983120973502
 30
0.0
  0
VERTEX
  5
10E0
  8
0
 10
317.98569629822168
 20
385.62437076644818
 30
0.0
  0
VERTEX
  5
10E1
  8
0
 10
318.41499827163761
 20
386.0135265774839
 30
0.0
  0
VERTEX
  5
10E2
  8
0
 10
318.82789031145199
 20
386.41651856663469
 30
0.0
  0
VERTEX
  5
10E3
  8
0
 10
319.22388929442877
 20
386.83253794637989
 30
0.0
  0
VERTEX
  5
10E4
  8
0
 10
319.60254253437603
 20
387.26074675525263
 30
0.0
  0
VERTEX
  5
10E5
  8
0
 10
319.96342874202611
 20
387.70027738554052
 30
0.0
  0
VERTEX
  5
10E6
  8
0
 10
320.30615918915078
 20
388.15023227151812
 30
0.0
  0
VERTEX
  5
10E7
  8
0
 10
320.6303791838659
 20
388.60968405035948
 30
0.0
  0
VERTEX
  5
10E8
  8
0
 10
320.9357699916481
 20
389.07767673324611
 30
0.0
  0
VERTEX
  5
10E9
  8
0
 10
321.22205135295189
 20
389.5532287666627
 30
0.0
  0
VERTEX
  5
10EA
  8
0
 10
321.48898472780678
 20
390.03533935325021
 30
0.0
  0
VERTEX
  5
10EB
  8
0
 10
321.73637728941981
 20
390.52300003430747
 30
0.0
  0
VERTEX
  5
10EC
  8
0
 10
321.9640863991242
 20
391.01521419897068
 30
0.0
  0
VERTEX
  5
10ED
  8
0
 10
322.17202366868202
 20
391.5110274790411
 30
0.0
  0
VERTEX
  5
10EE
  8
0
 10
322.36015652544143
 20
392.00957083820123
 30
0.0
  0
VERTEX
  5
10EF
  8
0
 10
322.5285031892318
 20
392.51011300284807
 30
0.0
  0
VERTEX
  5
10F0
  8
0
 10
322.67711414056771
 20
393.0121041298836
 30
0.0
  0
VERTEX
  5
10F1
  8
0
 10
322.80603080304792
 20
393.5151580093052
 30
0.0
  0
VERTEX
  5
10F2
  8
0
 10
322.91521636047742
 20
394.01885616537788
 30
0.0
  0
VERTEX
  5
10F3
  8
0
 10
323.00448320604158
 20
394.52220483922991
 30
0.0
  0
VERTEX
  5
10F4
  8
0
 10
323.07352486199761
 20
395.02280366375561
 30
0.0
  0
VERTEX
  5
10F5
  8
0
 10
323.12222499712863
 20
395.51682243160838
 30
0.0
  0
VERTEX
  5
10F6
  8
0
 10
323.15109407234741
 20
396.00171029601279
 30
0.0
  0
VERTEX
  5
10F7
  8
0
 10
323.16107425349952
 20
396.48040897621462
 30
0.0
  0
VERTEX
  5
10F8
  8
0
 10
323.15247880891519
 20
396.96247371876291
 30
0.0
  0
VERTEX
  5
10F9
  8
0
 10
323.1240957493124
 20
397.45918493959221
 30
0.0
  0
VERTEX
  5
10FA
  8
0
 10
323.07297111369121
 20
397.9818749165247
 30
0.0
  0
VERTEX
  5
10FB
  8
0
 10
322.99436309410947
 20
398.54100796350713
 30
0.0
  0
VERTEX
  5
10FC
  8
0
 10
322.89963908576959
 20
399.05899103201199
 30
0.0
  0
VERTEX
  5
10FD
  8
0
 10
322.78277620532248
 20
399.58161849438102
 30
0.0
  0
VERTEX
  5
10FE
  8
0
 10
322.6443581808258
 20
400.10458252537347
 30
0.0
  0
VERTEX
  5
10FF
  8
0
 10
322.4847778879635
 20
400.62586544592551
 30
0.0
  0
VERTEX
  5
1100
  8
0
 10
322.3042794372293
 20
401.14433918752599
 30
0.0
  0
VERTEX
  5
1101
  8
0
 10
322.103061441112
 20
401.6590723170317
 30
0.0
  0
VERTEX
  5
1102
  8
0
 10
321.88134298823161
 20
402.16910701901242
 30
0.0
  0
VERTEX
  5
1103
  8
0
 10
321.6393920298346
 20
402.67342855751639
 30
0.0
  0
VERTEX
  5
1104
  8
0
 10
321.3775317658633
 20
403.17099200964731
 30
0.0
  0
VERTEX
  5
1105
  8
0
 10
321.096136872415
 20
403.66075553697971
 30
0.0
  0
VERTEX
  5
1106
  8
0
 10
320.79562634804188
 20
404.14170527801269
 30
0.0
  0
VERTEX
  5
1107
  8
0
 10
320.47645625362247
 20
404.61287015209751
 30
0.0
  0
VERTEX
  5
1108
  8
0
 10
320.13911361816372
 20
405.07332881290438
 30
0.0
  0
VERTEX
  5
1109
  8
0
 10
319.78411178245011
 20
405.52221149810759
 30
0.0
  0
VERTEX
  5
110A
  8
0
 10
319.41198702695652
 20
405.95869897525068
 30
0.0
  0
VERTEX
  5
110B
  8
0
 10
319.02329619900621
 20
406.38202007956659
 30
0.0
  0
VERTEX
  5
110C
  8
0
 10
318.6186150549579
 20
406.79144876116231
 30
0.0
  0
VERTEX
  5
110D
  8
0
 10
318.19853708225378
 20
407.18630115476361
 30
0.0
  0
VERTEX
  5
110E
  8
0
 10
317.76367262420382
 20
407.565932927635
 30
0.0
  0
VERTEX
  5
110F
  8
0
 10
317.3146481817767
 20
407.92973700813923
 30
0.0
  0
VERTEX
  5
1110
  8
0
 10
316.7990907785952
 20
408.31529046656419
 30
0.0
  0
VERTEX
  5
1111
  8
0
 10
316.26842001551398
 20
408.6793238377532
 30
0.0
  0
VERTEX
  5
1112
  8
0
 10
315.72515740710418
 20
409.0203163939151
 30
0.0
  0
VERTEX
  5
1113
  8
0
 10
315.17034519836619
 20
409.33794625779302
 30
0.0
  0
VERTEX
  5
1114
  8
0
 10
314.60498047948499
 20
409.6319574113802
 30
0.0
  0
VERTEX
  5
1115
  8
0
 10
314.03005591966621
 20
409.90212968721949
 30
0.0
  0
VERTEX
  5
1116
  8
0
 10
313.44656106400589
 20
410.14827752391352
 30
0.0
  0
VERTEX
  5
1117
  8
0
 10
312.85548234901029
 20
410.37024963849098
 30
0.0
  0
VERTEX
  5
1118
  8
0
 10
312.25780286911368
 20
410.56792887020072
 30
0.0
  0
VERTEX
  5
1119
  8
0
 10
311.65450195868681
 20
410.74123211742329
 30
0.0
  0
VERTEX
  5
111A
  8
0
 10
311.04655462441218
 20
410.89011032222248
 30
0.0
  0
VERTEX
  5
111B
  8
0
 10
310.43493085653972
 20
411.01454847095931
 30
0.0
  0
VERTEX
  5
111C
  8
0
 10
309.82059484264408
 20
411.11456558914659
 30
0.0
  0
VERTEX
  5
111D
  8
0
 10
309.20450410351151
 20
411.19021471571199
 30
0.0
  0
VERTEX
  5
111E
  8
0
 10
308.5876085675045
 20
411.2415828468599
 30
0.0
  0
VERTEX
  5
111F
  8
0
 10
307.97084959713311
 20
411.26879084335638
 30
0.0
  0
VERTEX
  5
1120
  8
0
 10
307.35515897939331
 20
411.27199329770269
 30
0.0
  0
VERTEX
  5
1121
  8
0
 10
306.741457889716
 20
411.25137835962897
 30
0.0
  0
VERTEX
  5
1122
  8
0
 10
306.13065895965178
 20
411.20716780646018
 30
0.0
  0
VERTEX
  5
1123
  8
0
 10
305.52365938784152
 20
411.1396166329443
 30
0.0
  0
VERTEX
  5
1124
  8
0
 10
304.9213421050024
 20
411.04901261367678
 30
0.0
  0
VERTEX
  5
1125
  8
0
 10
304.32457519808372
 20
410.93567598715453
 30
0.0
  0
VERTEX
  5
1126
  8
0
 10
303.7342108476837
 20
410.79995910043061
 30
0.0
  0
VERTEX
  5
1127
  8
0
 10
303.15108427693582
 20
410.64224602608562
 30
0.0
  0
VERTEX
  5
1128
  8
0
 10
302.5760127154183
 20
410.4629521568358
 30
0.0
  0
VERTEX
  5
1129
  8
0
 10
302.00979438168218
 20
410.26252378396498
 30
0.0
  0
VERTEX
  5
112A
  8
0
 10
301.45320748766511
 20
410.04143766671478
 30
0.0
  0
VERTEX
  5
112B
  8
0
 10
300.90700926794511
 20
409.80020060086838
 30
0.0
  0
VERTEX
  5
112C
  8
0
 10
300.37193503646267
 20
409.53934899603303
 30
0.0
  0
VERTEX
  5
112D
  8
0
 10
299.84869727293272
 20
409.2594484725704
 30
0.0
  0
VERTEX
  5
112E
  8
0
 10
299.33798474068948
 20
408.96109349075812
 30
0.0
  0
VERTEX
  5
112F
  8
0
 10
298.84046163695672
 20
408.64490702650482
 30
0.0
  0
VERTEX
  5
1130
  8
0
 10
298.35676677552152
 20
408.31154030970271
 30
0.0
  0
VERTEX
  5
1131
  8
0
 10
297.88751280022461
 20
407.9616726427879
 30
0.0
  0
VERTEX
  5
1132
  8
0
 10
297.43328542534999
 20
407.59601131784729
 30
0.0
  0
VERTEX
  5
1133
  8
0
 10
296.99464269553118
 20
407.215291649753
 30
0.0
  0
VERTEX
  5
1134
  8
0
 10
296.57211425265268
 20
406.82027713886208
 30
0.0
  0
VERTEX
  5
1135
  8
0
 10
296.16620058975923
 20
406.41175976723378
 30
0.0
  0
VERTEX
  5
1136
  8
0
 10
295.77737226126868
 20
405.99056041287753
 30
0.0
  0
VERTEX
  5
1137
  8
0
 10
295.40606900393692
 20
405.55752933058039
 30
0.0
  0
VERTEX
  5
1138
  8
0
 10
295.05269870307922
 20
405.11354658463898
 30
0.0
  0
VERTEX
  5
1139
  8
0
 10
294.71763611350963
 20
404.65952221238359
 30
0.0
  0
VERTEX
  5
113A
  8
0
 10
294.40122121634607
 20
404.19639572447579
 30
0.0
  0
VERTEX
  5
113B
  8
0
 10
294.1550942762151
 20
403.80919362252553
 30
0.0
  0
SEQEND
  5
113C
  8
0
  0
LINE
  5
F68
  8
1
 10
158.0
 20
396.49999999999989
 30
0.0
 11
328.16151968785289
 21
396.49999999999989
 31
0.0
  0
LINE
  5
F69
  8
1
 10
179.5
 20
375.0
 30
0.0
 11
179.5
 21
417.99999999999989
 31
0.0
  0
LINE
  5
F72
  8
0
 10
411.16108971188299
 20
223.0
 30
0.0
 11
388.16108971188311
 21
223.0
 31
0.0
  0
LINE
  5
F73
  8
0
 10
388.16108971188311
 20
229.0
 30
0.0
 11
388.16108971188311
 21
223.0
 31
0.0
  0
LINE
  5
F74
  8
0
 10
411.16108971188299
 20
223.0
 30
0.0
 11
411.16108971188299
 21
229.0
 31
0.0
  0
LINE
  5
F75
  8
0
 10
393.16108971188299
 20
281.0
 30
0.0
 11
386.06108971188291
 21
281.0
 31
0.0
  0
LINE
  5
F76
  8
0
 10
413.26108971188319
 20
281.0
 30
0.0
 11
406.16108971188299
 21
281.0
 31
0.0
  0
LINE
  5
F77
  8
0
 10
386.06108971188291
 20
281.0
 30
0.0
 11
383.16108971188311
 21
278.10000000000002
 31
0.0
  0
LINE
  5
F78
  8
0
 10
416.16108971188299
 20
278.10000000000002
 30
0.0
 11
413.26108971188319
 21
281.0
 31
0.0
  0
LINE
  5
F79
  8
0
 10
415.56108971188291
 20
229.0
 30
0.0
 11
383.76108971188319
 21
229.0
 31
0.0
  0
LINE
  5
F7A
  8
0
 10
415.56108971188291
 20
229.0
 30
0.0
 11
416.16108971188299
 21
229.59999999999999
 31
0.0
  0
LINE
  5
F7B
  8
0
 10
383.16108971188311
 20
229.59999999999999
 30
0.0
 11
383.76108971188319
 21
229.0
 31
0.0
  0
LINE
  5
F7C
  8
0
 10
416.16108971188299
 20
229.59999999999999
 30
0.0
 11
383.16108971188311
 21
229.59999999999999
 31
0.0
  0
LINE
  5
F7D
  8
0
 10
393.16108971188299
 20
278.10000000000002
 30
0.0
 11
383.16108971188311
 21
278.10000000000002
 31
0.0
  0
LINE
  5
F7E
  8
0
 10
416.16108971188299
 20
278.10000000000002
 30
0.0
 11
406.16108971188299
 21
278.10000000000002
 31
0.0
  0
LINE
  5
F7F
  8
0
 10
383.16108971188311
 20
278.10000000000002
 30
0.0
 11
383.16108971188311
 21
229.59999999999999
 31
0.0
  0
LINE
  5
F80
  8
0
 10
416.16108971188299
 20
229.59999999999999
 30
0.0
 11
416.16108971188299
 21
278.10000000000002
 31
0.0
  0
ARC
  5
F81
  8
0
 10
399.66108971188311
 20
270.0
 30
0.0
 40
6.4999999999999973
 50
178.27205892762089
 51
1.727941072380655
  0
ARC
  5
F82
  8
0
 10
399.66108971188282
 20
270.39199796489157
 30
0.0
 40
6.4999999999998117
 50
180.0
 51
181.727941072357
  0
ARC
  5
F83
  8
0
 10
399.6610897118826
 20
270.39199796489169
 30
0.0
 40
6.5000000000005214
 50
358.27205892763891
 51
359.99999999999841
  0
LINE
  5
F84
  8
0
 10
406.16108971188299
 20
270.39199796489152
 30
0.0
 11
406.16108971188299
 21
291.82223963184128
 31
0.0
  0
LINE
  5
F85
  8
0
 10
393.16108971188299
 20
291.81988916275378
 30
0.0
 11
393.16108971188299
 21
270.39199796489152
 31
0.0
  0
POLYLINE
  5
F86
  8
0
 66
     1
 10
0.0
 20
0.0
 30
0.0
  0
VERTEX
  5
113D
  8
0
 10
399.66108971188311
 20
319.99999999999989
 30
0.0
  0
VERTEX
  5
113E
  8
0
 10
399.1007818483547
 20
319.98931404704729
 30
0.0
  0
VERTEX
  5
113F
  8
0
 10
398.50996381846448
 20
319.95484464002311
 30
0.0
  0
VERTEX
  5
1140
  8
0
 10
397.92070880256369
 20
319.89657982155609
 30
0.0
  0
VERTEX
  5
1141
  8
0
 10
397.33396889067348
 20
319.81457944458521
 30
0.0
  0
VERTEX
  5
1142
  8
0
 10
396.75069057025439
 20
319.70894147854523
 30
0.0
  0
VERTEX
  5
1143
  8
0
 10
396.17181939388252
 20
319.57980269054292
 30
0.0
  0
VERTEX
  5
1144
  8
0
 10
395.59829834860722
 20
319.42733901754099
 30
0.0
  0
VERTEX
  5
1145
  8
0
 10
395.03106613463501
 20
319.25176585060382
 30
0.0
  0
VERTEX
  5
1146
  8
0
 10
394.47105536334311
 20
319.05333821726032
 30
0.0
  0
VERTEX
  5
1147
  8
0
 10
393.91919068478319
 20
318.83235084914679
 30
0.0
  0
VERTEX
  5
1148
  8
0
 10
393.37638685731849
 20
318.58913812389778
 30
0.0
  0
VERTEX
  5
1149
  8
0
 10
392.84354677405622
 20
318.32407387247099
 30
0.0
  0
VERTEX
  5
114A
  8
0
 10
392.32155946223628
 20
318.0375710455935
 30
0.0
  0
VERTEX
  5
114B
  8
0
 10
391.8112980726608
 20
317.7300812356745
 30
0.0
  0
VERTEX
  5
114C
  8
0
 10
391.31361787660381
 20
317.4020940532364
 30
0.0
  0
VERTEX
  5
114D
  8
0
 10
390.8293542874078
 20
317.05413635951118
 30
0.0
  0
VERTEX
  5
114E
  8
0
 10
390.3593209232576
 20
316.68677135927351
 30
0.0
  0
VERTEX
  5
114F
  8
0
 10
389.90430772647443
 20
316.30059756010911
 30
0.0
  0
VERTEX
  5
1150
  8
0
 10
389.46507915317829
 20
315.89624760612662
 30
0.0
  0
VERTEX
  5
1151
  8
0
 10
389.0423724454493
 20
315.47438699554459
 30
0.0
  0
VERTEX
  5
1152
  8
0
 10
388.63689599624939
 20
315.03571269265041
 30
0.0
  0
VERTEX
  5
1153
  8
0
 10
388.24932781545732
 20
314.58095164531238
 30
0.0
  0
VERTEX
  5
1154
  8
0
 10
387.88031410346957
 20
314.11085921958039
 30
0.0
  0
VERTEX
  5
1155
  8
0
 10
387.53046793703669
 20
313.62621756296568
 30
0.0
  0
VERTEX
  5
1156
  8
0
 10
387.20036807032329
 20
313.12783390778662
 30
0.0
  0
VERTEX
  5
1157
  8
0
 10
386.89055785270239
 20
312.61653882556959
 30
0.0
  0
VERTEX
  5
1158
  8
0
 10
386.60154426348117
 20
312.09318444293473
 30
0.0
  0
VERTEX
  5
1159
  8
0
 10
386.33379706264918
 20
311.55864262872598
 30
0.0
  0
VERTEX
  5
115A
  8
0
 10
386.08774805581697
 20
311.01380316141439
 30
0.0
  0
VERTEX
  5
115B
  8
0
 10
385.86379047078282
 20
310.45957188503189
 30
0.0
  0
VERTEX
  5
115C
  8
0
 10
385.66227844259038
 20
309.89686886111821
 30
0.0
  0
VERTEX
  5
115D
  8
0
 10
385.48352660351702
 20
309.3266265234123
 30
0.0
  0
VERTEX
  5
115E
  8
0
 10
385.32780977414592
 20
308.74978784129672
 30
0.0
  0
VERTEX
  5
115F
  8
0
 10
385.1953627514776
 20
308.16730449733382
 30
0.0
  0
VERTEX
  5
1160
  8
0
 10
385.08638018995231
 20
307.58013508361859
 30
0.0
  0
VERTEX
  5
1161
  8
0
 10
385.00101657120717
 20
306.98924332110971
 30
0.0
  0
VERTEX
  5
1162
  8
0
 10
384.93938625843981
 20
306.39559630560962
 30
0.0
  0
VERTEX
  5
1163
  8
0
 10
384.90156363128472
 20
305.80016278362689
 30
0.0
  0
VERTEX
  5
1164
  8
0
 10
384.88758329722032
 20
305.20391146096688
 30
0.0
  0
VERTEX
  5
1165
  8
0
 10
384.8974403756045
 20
304.60780934657038
 30
0.0
  0
VERTEX
  5
1166
  8
0
 10
384.93109071713712
 20
304.01282187503762
 30
0.0
  0
VERTEX
  5
1167
  8
0
 10
384.9884510945169
 20
303.41991027005849
 30
0.0
  0
VERTEX
  5
1168
  8
0
 10
385.0694000436124
 20
302.83002678969842
 30
0.0
  0
VERTEX
  5
1169
  8
0
 10
385.17377841475923
 20
302.24411571277699
 30
0.0
  0
VERTEX
  5
116A
  8
0
 10
385.30138996993611
 20
301.66311188973458
 30
0.0
  0
VERTEX
  5
116B
  8
0
 10
385.45200203103172
 20
301.0879393391541
 30
0.0
  0
VERTEX
  5
116C
  8
0
 10
385.62534617580718
 20
300.51950989130881
 30
0.0
  0
VERTEX
  5
116D
  8
0
 10
385.82111897816571
 20
299.95872187976011
 30
0.0
  0
VERTEX
  5
116E
  8
0
 10
386.03898278932797
 20
299.4064588818984
 30
0.0
  0
VERTEX
  5
116F
  8
0
 10
386.27856655645911
 20
298.86358850917833
 30
0.0
  0
VERTEX
  5
1170
  8
0
 10
386.53946667525543
 20
298.3309612476346
 30
0.0
  0
VERTEX
  5
1171
  8
0
 10
386.82124787291627
 20
297.80940934909609
 30
0.0
  0
VERTEX
  5
1172
  8
0
 10
387.12344411786148
 20
297.29974577330381
 30
0.0
  0
VERTEX
  5
1173
  8
0
 10
387.44555955247762
 20
296.80276318091302
 30
0.0
  0
VERTEX
  5
1174
  8
0
 10
387.78706944510259
 20
296.31923297709648
 30
0.0
  0
VERTEX
  5
1175
  8
0
 10
388.14742115739909
 20
295.84990440516788
 30
0.0
  0
VERTEX
  5
1176
  8
0
 10
388.52603512323441
 20
295.39550368931339
 30
0.0
  0
VERTEX
  5
1177
  8
0
 10
388.9223058351688
 20
294.95673322515222
 30
0.0
  0
VERTEX
  5
1178
  8
0
 10
389.33560283470229
 20
294.5342708164452
 30
0.0
  0
VERTEX
  5
1179
  8
0
 10
389.7652717024996
 20
294.12876895583452
 30
0.0
  0
VERTEX
  5
117A
  8
0
 10
390.21063504498738
 20
293.74085414704621
 30
0.0
  0
VERTEX
  5
117B
  8
0
 10
390.67099347393668
 20
293.37112626550049
 30
0.0
  0
VERTEX
  5
117C
  8
0
 10
391.14562657597281
 20
293.02015795379708
 30
0.0
  0
VERTEX
  5
117D
  8
0
 10
391.63379386939067
 20
292.68849404806468
 30
0.0
  0
VERTEX
  5
117E
  8
0
 10
392.13473574619502
 20
292.37665103070123
 30
0.0
  0
VERTEX
  5
117F
  8
0
 10
392.64767439796668
 20
292.08511650463089
 30
0.0
  0
VERTEX
  5
1180
  8
0
 10
393.17181472496372
 20
291.81434868385912
 30
0.0
  0
VERTEX
  5
1181
  8
0
 10
393.70634522881909
 20
291.56477589486423
 30
0.0
  0
VERTEX
  5
1182
  8
0
 10
394.25043889026529
 20
291.33679608326588
 30
0.0
  0
VERTEX
  5
1183
  8
0
 10
394.8032540345352
 20
291.13077632025897
 30
0.0
  0
VERTEX
  5
1184
  8
0
 10
395.3639351883603
 20
290.94705230357471
 30
0.0
  0
VERTEX
  5
1185
  8
0
 10
395.93161393386072
 20
290.78592784822462
 30
0.0
  0
VERTEX
  5
1186
  8
0
 10
396.50540976597631
 20
290.64767436305488
 30
0.0
  0
VERTEX
  5
1187
  8
0
 10
397.08443096140081
 20
290.5325303101871
 30
0.0
  0
VERTEX
  5
1188
  8
0
 10
397.66777546816161
 20
290.44070064576948
 30
0.0
  0
VERTEX
  5
1189
  8
0
 10
398.25453182596419
 20
290.37235624208682
 30
0.0
  0
VERTEX
  5
118A
  8
0
 10
398.84378012808338
 20
290.32763329295392
 30
0.0
  0
VERTEX
  5
118B
  8
0
 10
399.434593035869
 20
290.30663270638939
 30
0.0
  0
VERTEX
  5
118C
  8
0
 10
400.02603685676138
 20
290.30941949074872
 30
0.0
  0
VERTEX
  5
118D
  8
0
 10
400.61717195343698
 20
290.33602209428727
 30
0.0
  0
VERTEX
  5
118E
  8
0
 10
401.20704989475757
 20
290.38643122282002
 30
0.0
  0
VERTEX
  5
118F
  8
0
 10
401.79472532721047
 20
290.46059982156459
 30
0.0
  0
VERTEX
  5
1190
  8
0
 10
402.37925180114519
 20
290.55844264305227
 30
0.0
  0
VERTEX
  5
1191
  8
0
 10
402.95968327984929
 20
290.67983578156009
 30
0.0
  0
VERTEX
  5
1192
  8
0
 10
403.5350757425926
 20
290.82461627540442
 30
0.0
  0
VERTEX
  5
1193
  8
0
 10
404.10448887752818
 20
290.9925817920996
 30
0.0
  0
VERTEX
  5
1194
  8
0
 10
404.66698785802549
 20
291.18349041084468
 30
0.0
  0
VERTEX
  5
1195
  8
0
 10
405.2216451931601
 20
291.39706051566708
 30
0.0
  0
VERTEX
  5
1196
  8
0
 10
405.76754264049072
 20
291.63297081089928
 30
0.0
  0
VERTEX
  5
1197
  8
0
 10
406.30377316708308
 20
291.89086046857659
 30
0.0
  0
VERTEX
  5
1198
  8
0
 10
406.82944294304338
 20
292.170329414918
 30
0.0
  0
VERTEX
  5
1199
  8
0
 10
407.34367335072068
 20
292.47093876043022
 30
0.0
  0
VERTEX
  5
119A
  8
0
 10
407.84560299219601
 20
292.79221137547847
 30
0.0
  0
VERTEX
  5
119B
  8
0
 10
408.33438967770752
 20
293.13363261051109
 30
0.0
  0
VERTEX
  5
119C
  8
0
 10
408.80921237824208
 20
293.49465115764639
 30
0.0
  0
VERTEX
  5
119D
  8
0
 10
409.269273126521
 20
293.87468004808608
 30
0.0
  0
VERTEX
  5
119E
  8
0
 10
409.71379885201281
 20
294.27309777790902
 30
0.0
  0
VERTEX
  5
119F
  8
0
 10
410.14204313725429
 20
294.68924955324201
 30
0.0
  0
VERTEX
  5
11A0
  8
0
 10
410.55328788458701
 20
295.12244864461547
 30
0.0
  0
VERTEX
  5
11A1
  8
0
 10
410.9468448843304
 20
295.57197783951989
 30
0.0
  0
VERTEX
  5
11A2
  8
0
 10
411.32205727731412
 20
296.03709098169929
 30
0.0
  0
VERTEX
  5
11A3
  8
0
 10
411.67830090652808
 20
296.51701458558728
 30
0.0
  0
VERTEX
  5
11A4
  8
0
 10
412.01498555436081
 20
297.01094951440092
 30
0.0
  0
VERTEX
  5
11A5
  8
0
 10
412.33155606344872
 20
297.51807271075478
 30
0.0
  0
VERTEX
  5
11A6
  8
0
 10
412.62749334052558
 20
298.0375389691668
 30
0.0
  0
VERTEX
  5
11A7
  8
0
 10
412.90231524384228
 20
298.56848274046479
 30
0.0
  0
VERTEX
  5
11A8
  8
0
 10
413.15557735569632
 20
299.11001995881833
 30
0.0
  0
VERTEX
  5
11A9
  8
0
 10
413.38687364241758
 20
299.66124988288061
 30
0.0
  0
VERTEX
  5
11AA
  8
0
 10
413.59583700477509
 20
300.22125694330617
 30
0.0
  0
VERTEX
  5
11AB
  8
0
 10
413.78213972223568
 20
300.78911258966542
 30
0.0
  0
VERTEX
  5
11AC
  8
0
 10
413.94549379484528
 20
301.3638771305134
 30
0.0
  0
VERTEX
  5
11AD
  8
0
 10
414.08565118671709
 20
301.94460156105998
 30
0.0
  0
VERTEX
  5
11AE
  8
0
 10
414.20240397524287
 20
302.53032937352037
 30
0.0
  0
VERTEX
  5
11AF
  8
0
 10
414.29558441018571
 20
303.12009834580323
 30
0.0
  0
VERTEX
  5
11B0
  8
0
 10
414.3650648868113
 20
303.71294230471091
 30
0.0
  0
VERTEX
  5
11B1
  8
0
 10
414.4107578371615
 20
304.3078928602817
 30
0.0
  0
VERTEX
  5
11B2
  8
0
 10
414.43261554349158
 20
304.90398110830381
 30
0.0
  0
VERTEX
  5
11B3
  8
0
 10
414.43062987780382
 20
305.5002392983817
 30
0.0
  0
VERTEX
  5
11B4
  8
0
 10
414.40483199354571
 20
306.09570211405929
 30
0.0
  0
VERTEX
  5
11B5
  8
0
 10
414.35529232431531
 20
306.68940512810212
 30
0.0
  0
VERTEX
  5
11B6
  8
0
 10
414.28211976334239
 20
307.28039377241691
 30
0.0
  0
VERTEX
  5
11B7
  8
0
 10
414.18546107485082
 20
307.86772096989972
 30
0.0
  0
VERTEX
  5
11B8
  8
0
 10
414.06550031450911
 20
308.45044859806808
 30
0.0
  0
VERTEX
  5
11B9
  8
0
 10
413.92245819766299
 20
309.0276489078243
 30
0.0
  0
VERTEX
  5
11BA
  8
0
 10
413.75659141875423
 20
309.59840589556279
 30
0.0
  0
VERTEX
  5
11BB
  8
0
 10
413.56819192531259
 20
310.16181662754991
 30
0.0
  0
VERTEX
  5
11BC
  8
0
 10
413.3575861499134
 20
310.71699251564092
 30
0.0
  0
VERTEX
  5
11BD
  8
0
 10
413.12513420353798
 20
311.26306054353461
 30
0.0
  0
VERTEX
  5
11BE
  8
0
 10
412.87122903381419
 20
311.79916444292058
 30
0.0
  0
VERTEX
  5
11BF
  8
0
 10
412.59629555168289
 20
312.32446581904759
 30
0.0
  0
VERTEX
  5
11C0
  8
0
 10
412.30078973010768
 20
312.8381452254294
 30
0.0
  0
VERTEX
  5
11C1
  8
0
 10
411.98519767852002
 20
313.3394031876353
 30
0.0
  0
VERTEX
  5
11C2
  8
0
 10
411.65003469676748
 20
313.82746117635088
 30
0.0
  0
VERTEX
  5
11C3
  8
0
 10
411.29584431239363
 20
314.3015625301972
 30
0.0
  0
VERTEX
  5
11C4
  8
0
 10
410.92319730513071
 20
314.76097332909569
 30
0.0
  0
VERTEX
  5
11C5
  8
0
 10
410.53269072249208
 20
315.20498321934377
 30
0.0
  0
VERTEX
  5
11C6
  8
0
 10
410.12494689034719
 20
315.63290619193822
 30
0.0
  0
VERTEX
  5
11C7
  8
0
 10
409.70061242227939
 20
316.04408131611768
 30
0.0
  0
VERTEX
  5
11C8
  8
0
 10
409.26035723140251
 20
316.43787343054402
 30
0.0
  0
VERTEX
  5
11C9
  8
0
 10
408.80487354810629
 20
316.81367379501302
 30
0.0
  0
VERTEX
  5
11CA
  8
0
 10
408.33487494690388
 20
317.17090070606707
 30
0.0
  0
VERTEX
  5
11CB
  8
0
 10
407.85109538516548
 20
317.5090000803699
 30
0.0
  0
VERTEX
  5
11CC
  8
0
 10
407.35428825600519
 20
317.82744601016333
 30
0.0
  0
VERTEX
  5
11CD
  8
0
 10
406.8452254569637
 20
318.1257412955556
 30
0.0
  0
VERTEX
  5
11CE
  8
0
 10
406.3246964753618
 20
318.40341795875582
 30
0.0
  0
VERTEX
  5
11CF
  8
0
 10
405.79350749028498
 20
318.66003774564859
 30
0.0
  0
VERTEX
  5
11D0
  8
0
 10
405.25248049014431
 20
318.89519262025323
 30
0.0
  0
VERTEX
  5
11D1
  8
0
 10
404.7024524035748
 20
319.10850525761481
 30
0.0
  0
VERTEX
  5
11D2
  8
0
 10
404.14427424017907
 20
319.29962954048131
 30
0.0
  0
VERTEX
  5
11D3
  8
0
 10
403.57881023627891
 20
319.46825106470112
 30
0.0
  0
VERTEX
  5
11D4
  8
0
 10
403.006936999473
 20
319.61408765760109
 30
0.0
  0
VERTEX
  5
11D5
  8
0
 10
402.42954264445922
 20
319.73688991264589
 30
0.0
  0
VERTEX
  5
11D6
  8
0
 10
401.84752591135128
 20
319.8364417424329
 30
0.0
  0
VERTEX
  5
11D7
  8
0
 10
401.26179525666561
 20
319.91256095054109
 30
0.0
  0
VERTEX
  5
11D8
  8
0
 10
400.67326790637071
 20
319.96509982095222
 30
0.0
  0
VERTEX
  5
11D9
  8
0
 10
400.08286885998842
 20
319.99394572175049
 30
0.0
  0
VERTEX
  5
11DA
  8
0
 10
399.66108971188311
 20
319.99999999999989
 30
0.0
  0
SEQEND
  5
11DB
  8
0
  0
LINE
  5
F8A
  8
1
 10
399.66108971188311
 20
325.00051507703
 30
0.0
 11
399.66108971188311
 21
158.0
 31
0.0
  0
LINE
  5
F8B
  8
1
 10
388.16108971188311
 20
270.0
 30
0.0
 11
411.16108971188299
 21
270.0
 31
0.0
  0
LINE
  5
F94
  8
0
 10
98.0
 20
223.0
 30
0.0
 11
75.0
 21
223.0
 31
0.0
  0
LINE
  5
F95
  8
0
 10
75.0
 20
229.0
 30
0.0
 11
75.0
 21
223.0
 31
0.0
  0
LINE
  5
F96
  8
0
 10
98.0
 20
223.0
 30
0.0
 11
98.0
 21
229.0
 31
0.0
  0
LINE
  5
F97
  8
0
 10
100.10000000000009
 20
281.0
 30
0.0
 11
72.899999999999864
 21
281.0
 31
0.0
  0
LINE
  5
F98
  8
0
 10
72.899999999999864
 20
281.0
 30
0.0
 11
70.0
 21
278.10000000000002
 31
0.0
  0
LINE
  5
F99
  8
0
 10
103.0
 20
278.10000000000002
 30
0.0
 11
100.10000000000009
 21
281.0
 31
0.0
  0
LINE
  5
F9A
  8
0
 10
102.39999999999981
 20
229.0
 30
0.0
 11
70.600000000000136
 21
229.0
 31
0.0
  0
LINE
  5
F9B
  8
0
 10
102.39999999999981
 20
229.0
 30
0.0
 11
103.0
 21
229.59999999999999
 31
0.0
  0
LINE
  5
F9C
  8
0
 10
70.0
 20
229.59999999999999
 30
0.0
 11
70.600000000000136
 21
229.0
 31
0.0
  0
LINE
  5
F9D
  8
0
 10
103.0
 20
229.59999999999999
 30
0.0
 11
70.0
 21
229.59999999999999
 31
0.0
  0
LINE
  5
F9E
  8
0
 10
103.0
 20
278.10000000000002
 30
0.0
 11
70.0
 21
278.10000000000002
 31
0.0
  0
LINE
  5
F9F
  8
0
 10
70.0
 20
278.10000000000002
 30
0.0
 11
70.0
 21
229.59999999999999
 31
0.0
  0
LINE
  5
FA0
  8
0
 10
103.0
 20
229.59999999999999
 30
0.0
 11
103.0
 21
278.10000000000002
 31
0.0
  0
POLYLINE
  5
FA1
  8
0
 10
86.500000000000028
 20
306.8825877373144
 30
0.0
 66
     1
 70
     8
  0
VERTEX
  8
0
  5
1478
 10
86.5000
 20
306.883
 30
0.000000
  70
    32
  0
VERTEX
  8
0
  5
1479
 10
86.4202
 20
306.882
 30
0.000000
  70
    32
  0
VERTEX
  8
0
  5
147A
 10
86.3405
 20
306.881
 30
0.000000
  70
    32
  0
VERTEX
  8
0
  5
147B
 10
86.2608
 20
306.878
 30
0.000000
  70
    32
  0
VERTEX
  8
0
  5
147C
 10
86.1811
 20
306.875
 30
0.000000
  70
    32
  0
VERTEX
  8
0
  5
147D
 10
86.1014
 20
306.871
 30
0.000000
  70
    32
  0
VERTEX
  8
0
  5
147E
 10
86.0218
 20
306.866
 30
0.000000
  70
    32
  0
VERTEX
  8
0
  5
147F
 10
85.9423
 20
306.860
 30
0.000000
  70
    32
  0
VERTEX
  8
0
  5
1480
 10
85.8629
 20
306.853
 30
0.000000
  70
    32
  0
VERTEX
  8
0
  5
1481
 10
85.7836
 20
306.845
 30
0.000000
  70
    32
  0
VERTEX
  8
0
  5
1482
 10
85.7043
 20
306.837
 30
0.000000
  70
    32
  0
VERTEX
  8
0
  5
1483
 10
85.6252
 20
306.827
 30
0.000000
  70
    32
  0
VERTEX
  8
0
  5
1484
 10
85.5463
 20
306.816
 30
0.000000
  70
    32
  0
VERTEX
  8
0
  5
1485
 10
85.4674
 20
306.805
 30
0.000000
  70
    32
  0
VERTEX
  8
0
  5
1486
 10
85.3887
 20
306.793
 30
0.000000
  70
    32
  0
VERTEX
  8
0
  5
1487
 10
85.3102
 20
306.779
 30
0.000000
  70
    32
  0
VERTEX
  8
0
  5
1488
 10
85.2319
 20
306.765
 30
0.000000
  70
    32
  0
VERTEX
  8
0
  5
1489
 10
85.1538
 20
306.750
 30
0.000000
  70
    32
  0
VERTEX
  8
0
  5
148A
 10
85.0758
 20
306.734
 30
0.000000
  70
    32
  0
VERTEX
  8
0
  5
148B
 10
84.9981
 20
306.717
 30
0.000000
  70
    32
  0
VERTEX
  8
0
  5
148C
 10
84.9206
 20
306.700
 30
0.000000
  70
    32
  0
VERTEX
  8
0
  5
148D
 10
84.8434
 20
306.681
 30
0.000000
  70
    32
  0
VERTEX
  8
0
  5
148E
 10
84.7664
 20
306.661
 30
0.000000
  70
    32
  0
VERTEX
  8
0
  5
148F
 10
84.6896
 20
306.641
 30
0.000000
  70
    32
  0
VERTEX
  8
0
  5
1490
 10
84.6131
 20
306.620
 30
0.000000
  70
    32
  0
VERTEX
  8
0
  5
1491
 10
84.5370
 20
306.597
 30
0.000000
  70
    32
  0
VERTEX
  8
0
  5
1492
 10
84.4611
 20
306.574
 30
0.000000
  70
    32
  0
VERTEX
  8
0
  5
1493
 10
84.3855
 20
306.550
 30
0.000000
  70
    32
  0
VERTEX
  8
0
  5
1494
 10
84.3102
 20
306.526
 30
0.000000
  70
    32
  0
VERTEX
  8
0
  5
1495
 10
84.2353
 20
306.500
 30
0.000000
  70
    32
  0
VERTEX
  8
0
  5
1496
 10
84.1607
 20
306.473
 30
0.000000
  70
    32
  0
VERTEX
  8
0
  5
1497
 10
84.0864
 20
306.446
 30
0.000000
  70
    32
  0
VERTEX
  8
0
  5
1498
 10
84.0126
 20
306.418
 30
0.000000
  70
    32
  0
VERTEX
  8
0
  5
1499
 10
83.9391
 20
306.389
 30
0.000000
  70
    32
  0
VERTEX
  8
0
  5
149A
 10
83.8659
 20
306.359
 30
0.000000
  70
    32
  0
VERTEX
  8
0
  5
149B
 10
83.7932
 20
306.328
 30
0.000000
  70
    32
  0
VERTEX
  8
0
  5
149C
 10
83.7209
 20
306.296
 30
0.000000
  70
    32
  0
VERTEX
  8
0
  5
149D
 10
83.6490
 20
306.264
 30
0.000000
  70
    32
  0
VERTEX
  8
0
  5
149E
 10
83.5775
 20
306.230
 30
0.000000
  70
    32
  0
VERTEX
  8
0
  5
149F
 10
83.5065
 20
306.196
 30
0.000000
  70
    32
  0
VERTEX
  8
0
  5
14A0
 10
83.4359
 20
306.161
 30
0.000000
  70
    32
  0
VERTEX
  8
0
  5
14A1
 10
83.3658
 20
306.126
 30
0.000000
  70
    32
  0
VERTEX
  8
0
  5
14A2
 10
83.2962
 20
306.089
 30
0.000000
  70
    32
  0
VERTEX
  8
0
  5
14A3
 10
83.2270
 20
306.052
 30
0.000000
  70
    32
  0
VERTEX
  8
0
  5
14A4
 10
83.1583
 20
306.014
 30
0.000000
  70
    32
  0
VERTEX
  8
0
  5
14A5
 10
83.0902
 20
305.975
 30
0.000000
  70
    32
  0
VERTEX
  8
0
  5
14A6
 10
83.0225
 20
305.935
 30
0.000000
  70
    32
  0
VERTEX
  8
0
  5
14A7
 10
82.9554
 20
305.894
 30
0.000000
  70
    32
  0
VERTEX
  8
0
  5
14A8
 10
82.8888
 20
305.853
 30
0.000000
  70
    32
  0
VERTEX
  8
0
  5
14A9
 10
82.8227
 20
305.811
 30
0.000000
  70
    32
  0
VERTEX
  8
0
  5
14AA
 10
82.7572
 20
305.768
 30
0.000000
  70
    32
  0
VERTEX
  8
0
  5
14AB
 10
82.6923
 20
305.725
 30
0.000000
  70
    32
  0
VERTEX
  8
0
  5
14AC
 10
82.6280
 20
305.681
 30
0.000000
  70
    32
  0
VERTEX
  8
0
  5
14AD
 10
82.5642
 20
305.636
 30
0.000000
  70
    32
  0
VERTEX
  8
0
  5
14AE
 10
82.5010
 20
305.590
 30
0.000000
  70
    32
  0
VERTEX
  8
0
  5
14AF
 10
82.4384
 20
305.543
 30
0.000000
  70
    32
  0
VERTEX
  8
0
  5
14B0
 10
82.3764
 20
305.496
 30
0.000000
  70
    32
  0
VERTEX
  8
0
  5
14B1
 10
82.3151
 20
305.448
 30
0.000000
  70
    32
  0
VERTEX
  8
0
  5
14B2
 10
82.2544
 20
305.400
 30
0.000000
  70
    32
  0
VERTEX
  8
0
  5
14B3
 10
82.1943
 20
305.350
 30
0.000000
  70
    32
  0
VERTEX
  8
0
  5
14B4
 10
82.1349
 20
305.300
 30
0.000000
  70
    32
  0
VERTEX
  8
0
  5
14B5
 10
82.0761
 20
305.250
 30
0.000000
  70
    32
  0
VERTEX
  8
0
  5
14B6
 10
82.0180
 20
305.198
 30
0.000000
  70
    32
  0
VERTEX
  8
0
  5
14B7
 10
81.9606
 20
305.146
 30
0.000000
  70
    32
  0
VERTEX
  8
0
  5
14B8
 10
81.9038
 20
305.094
 30
0.000000
  70
    32
  0
VERTEX
  8
0
  5
14B9
 10
81.8477
 20
305.040
 30
0.000000
  70
    32
  0
VERTEX
  8
0
  5
14BA
 10
81.7924
 20
304.986
 30
0.000000
  70
    32
  0
VERTEX
  8
0
  5
14BB
 10
81.7377
 20
304.932
 30
0.000000
  70
    32
  0
VERTEX
  8
0
  5
14BC
 10
81.6838
 20
304.876
 30
0.000000
  70
    32
  0
VERTEX
  8
0
  5
14BD
 10
81.6306
 20
304.821
 30
0.000000
  70
    32
  0
VERTEX
  8
0
  5
14BE
 10
81.5781
 20
304.764
 30
0.000000
  70
    32
  0
VERTEX
  8
0
  5
14BF
 10
81.5264
 20
304.707
 30
0.000000
  70
    32
  0
VERTEX
  8
0
  5
14C0
 10
81.4754
 20
304.649
 30
0.000000
  70
    32
  0
VERTEX
  8
0
  5
14C1
 10
81.4252
 20
304.591
 30
0.000000
  70
    32
  0
VERTEX
  8
0
  5
14C2
 10
81.3757
 20
304.532
 30
0.000000
  70
    32
  0
VERTEX
  8
0
  5
14C3
 10
81.3271
 20
304.473
 30
0.000000
  70
    32
  0
VERTEX
  8
0
  5
14C4
 10
81.2792
 20
304.413
 30
0.000000
  70
    32
  0
VERTEX
  8
0
  5
14C5
 10
81.2320
 20
304.353
 30
0.000000
  70
    32
  0
VERTEX
  8
0
  5
14C6
 10
81.1857
 20
304.292
 30
0.000000
  70
    32
  0
VERTEX
  8
0
  5
14C7
 10
81.1402
 20
304.230
 30
0.000000
  70
    32
  0
VERTEX
  8
0
  5
14C8
 10
81.0954
 20
304.168
 30
0.000000
  70
    32
  0
VERTEX
  8
0
  5
14C9
 10
81.0515
 20
304.105
 30
0.000000
  70
    32
  0
VERTEX
  8
0
  5
14CA
 10
81.0085
 20
304.042
 30
0.000000
  70
    32
  0
VERTEX
  8
0
  5
14CB
 10
80.9662
 20
303.979
 30
0.000000
  70
    32
  0
VERTEX
  8
0
  5
14CC
 10
80.9248
 20
303.915
 30
0.000000
  70
    32
  0
VERTEX
  8
0
  5
14CD
 10
80.8842
 20
303.850
 30
0.000000
  70
    32
  0
VERTEX
  8
0
  5
14CE
 10
80.8444
 20
303.785
 30
0.000000
  70
    32
  0
VERTEX
  8
0
  5
14CF
 10
80.8055
 20
303.720
 30
0.000000
  70
    32
  0
VERTEX
  8
0
  5
14D0
 10
80.7675
 20
303.654
 30
0.000000
  70
    32
  0
VERTEX
  8
0
  5
14D1
 10
80.7303
 20
303.588
 30
0.000000
  70
    32
  0
VERTEX
  8
0
  5
14D2
 10
80.6940
 20
303.521
 30
0.000000
  70
    32
  0
VERTEX
  8
0
  5
14D3
 10
80.6586
 20
303.454
 30
0.000000
  70
    32
  0
VERTEX
  8
0
  5
14D4
 10
80.6241
 20
303.386
 30
0.000000
  70
    32
  0
VERTEX
  8
0
  5
14D5
 10
80.5904
 20
303.318
 30
0.000000
  70
    32
  0
VERTEX
  8
0
  5
14D6
 10
80.5576
 20
303.250
 30
0.000000
  70
    32
  0
VERTEX
  8
0
  5
14D7
 10
80.5258
 20
303.181
 30
0.000000
  70
    32
  0
VERTEX
  8
0
  5
14D8
 10
80.4948
 20
303.112
 30
0.000000
  70
    32
  0
VERTEX
  8
0
  5
14D9
 10
80.4647
 20
303.043
 30
0.000000
  70
    32
  0
VERTEX
  8
0
  5
14DA
 10
80.4355
 20
302.973
 30
0.000000
  70
    32
  0
VERTEX
  8
0
  5
14DB
 10
80.4073
 20
302.903
 30
0.000000
  70
    32
  0
VERTEX
  8
0
  5
14DC
 10
80.3800
 20
302.832
 30
0.000000
  70
    32
  0
VERTEX
  8
0
  5
14DD
 10
80.3536
 20
302.762
 30
0.000000
  70
    32
  0
VERTEX
  8
0
  5
14DE
 10
80.3281
 20
302.691
 30
0.000000
  70
    32
  0
VERTEX
  8
0
  5
14DF
 10
80.3035
 20
302.619
 30
0.000000
  70
    32
  0
VERTEX
  8
0
  5
14E0
 10
80.2799
 20
302.548
 30
0.000000
  70
    32
  0
VERTEX
  8
0
  5
14E1
 10
80.2572
 20
302.476
 30
0.000000
  70
    32
  0
VERTEX
  8
0
  5
14E2
 10
80.2355
 20
302.404
 30
0.000000
  70
    32
  0
VERTEX
  8
0
  5
14E3
 10
80.2147
 20
302.331
 30
0.000000
  70
    32
  0
VERTEX
  8
0
  5
14E4
 10
80.1948
 20
302.259
 30
0.000000
  70
    32
  0
VERTEX
  8
0
  5
14E5
 10
80.1759
 20
302.186
 30
0.000000
  70
    32
  0
VERTEX
  8
0
  5
14E6
 10
80.1579
 20
302.113
 30
0.000000
  70
    32
  0
VERTEX
  8
0
  5
14E7
 10
80.1409
 20
302.040
 30
0.000000
  70
    32
  0
VERTEX
  8
0
  5
14E8
 10
80.1249
 20
301.966
 30
0.000000
  70
    32
  0
VERTEX
  8
0
  5
14E9
 10
80.1098
 20
301.893
 30
0.000000
  70
    32
  0
VERTEX
  8
0
  5
14EA
 10
80.0957
 20
301.819
 30
0.000000
  70
    32
  0
VERTEX
  8
0
  5
14EB
 10
80.0825
 20
301.745
 30
0.000000
  70
    32
  0
VERTEX
  8
0
  5
14EC
 10
80.0704
 20
301.671
 30
0.000000
  70
    32
  0
VERTEX
  8
0
  5
14ED
 10
80.0591
 20
301.597
 30
0.000000
  70
    32
  0
VERTEX
  8
0
  5
14EE
 10
80.0489
 20
301.522
 30
0.000000
  70
    32
  0
VERTEX
  8
0
  5
14EF
 10
80.0396
 20
301.448
 30
0.000000
  70
    32
  0
VERTEX
  8
0
  5
14F0
 10
80.0313
 20
301.373
 30
0.000000
  70
    32
  0
VERTEX
  8
0
  5
14F1
 10
80.0240
 20
301.299
 30
0.000000
  70
    32
  0
VERTEX
  8
0
  5
14F2
 10
80.0176
 20
301.224
 30
0.000000
  70
    32
  0
VERTEX
  8
0
  5
14F3
 10
80.0122
 20
301.149
 30
0.000000
  70
    32
  0
VERTEX
  8
0
  5
14F4
 10
80.0078
 20
301.074
 30
0.000000
  70
    32
  0
VERTEX
  8
0
  5
14F5
 10
80.0044
 20
300.999
 30
0.000000
  70
    32
  0
VERTEX
  8
0
  5
14F6
 10
80.0020
 20
300.924
 30
0.000000
  70
    32
  0
VERTEX
  8
0
  5
14F7
 10
80.0005
 20
300.850
 30
0.000000
  70
    32
  0
VERTEX
  8
0
  5
14F8
 10
80.0000
 20
300.775
 30
0.000000
  70
    32
  0
SEQEND
  8
0
  5
14F9
  0
LINE
  5
FA2
  8
0
 10
93.0
 20
281.0
 30
0.0
 11
93.0
 21
300.77458570220602
 31
0.0
  0
LINE
  5
FA3
  8
0
 10
80.0
 20
300.77458570220602
 30
0.0
 11
80.0
 21
281.0
 31
0.0
  0
POLYLINE
  5
FA4
  8
0
 10
93.000000000000014
 20
300.77458570220602
 30
0.0
 66
     1
 70
     8
  0
VERTEX
  8
0
  5
14FA
 10
93.0000
 20
300.775
 30
0.000000
  70
    32
  0
VERTEX
  8
0
  5
14FB
 10
92.9995
 20
300.850
 30
0.000000
  70
    32
  0
VERTEX
  8
0
  5
14FC
 10
92.9980
 20
300.924
 30
0.000000
  70
    32
  0
VERTEX
  8
0
  5
14FD
 10
92.9956
 20
300.999
 30
0.000000
  70
    32
  0
VERTEX
  8
0
  5
14FE
 10
92.9922
 20
301.074
 30
0.000000
  70
    32
  0
VERTEX
  8
0
  5
14FF
 10
92.9878
 20
301.149
 30
0.000000
  70
    32
  0
VERTEX
  8
0
  5
1500
 10
92.9824
 20
301.224
 30
0.000000
  70
    32
  0
VERTEX
  8
0
  5
1501
 10
92.9760
 20
301.299
 30
0.000000
  70
    32
  0
VERTEX
  8
0
  5
1502
 10
92.9687
 20
301.373
 30
0.000000
  70
    32
  0
VERTEX
  8
0
  5
1503
 10
92.9604
 20
301.448
 30
0.000000
  70
    32
  0
VERTEX
  8
0
  5
1504
 10
92.9511
 20
301.522
 30
0.000000
  70
    32
  0
VERTEX
  8
0
  5
1505
 10
92.9409
 20
301.597
 30
0.000000
  70
    32
  0
VERTEX
  8
0
  5
1506
 10
92.9296
 20
301.671
 30
0.000000
  70
    32
  0
VERTEX
  8
0
  5
1507
 10
92.9175
 20
301.745
 30
0.000000
  70
    32
  0
VERTEX
  8
0
  5
1508
 10
92.9043
 20
301.819
 30
0.000000
  70
    32
  0
VERTEX
  8
0
  5
1509
 10
92.8902
 20
301.893
 30
0.000000
  70
    32
  0
VERTEX
  8
0
  5
150A
 10
92.8751
 20
301.966
 30
0.000000
  70
    32
  0
VERTEX
  8
0
  5
150B
 10
92.8591
 20
302.040
 30
0.000000
  70
    32
  0
VERTEX
  8
0
  5
150C
 10
92.8421
 20
302.113
 30
0.000000
  70
    32
  0
VERTEX
  8
0
  5
150D
 10
92.8241
 20
302.186
 30
0.000000
  70
    32
  0
VERTEX
  8
0
  5
150E
 10
92.8052
 20
302.259
 30
0.000000
  70
    32
  0
VERTEX
  8
0
  5
150F
 10
92.7853
 20
302.331
 30
0.000000
  70
    32
  0
VERTEX
  8
0
  5
1510
 10
92.7645
 20
302.404
 30
0.000000
  70
    32
  0
VERTEX
  8
0
  5
1511
 10
92.7428
 20
302.476
 30
0.000000
  70
    32
  0
VERTEX
  8
0
  5
1512
 10
92.7201
 20
302.548
 30
0.000000
  70
    32
  0
VERTEX
  8
0
  5
1513
 10
92.6965
 20
302.619
 30
0.000000
  70
    32
  0
VERTEX
  8
0
  5
1514
 10
92.6719
 20
302.691
 30
0.000000
  70
    32
  0
VERTEX
  8
0
  5
1515
 10
92.6464
 20
302.762
 30
0.000000
  70
    32
  0
VERTEX
  8
0
  5
1516
 10
92.6200
 20
302.832
 30
0.000000
  70
    32
  0
VERTEX
  8
0
  5
1517
 10
92.5927
 20
302.903
 30
0.000000
  70
    32
  0
VERTEX
  8
0
  5
1518
 10
92.5645
 20
302.973
 30
0.000000
  70
    32
  0
VERTEX
  8
0
  5
1519
 10
92.5353
 20
303.043
 30
0.000000
  70
    32
  0
VERTEX
  8
0
  5
151A
 10
92.5052
 20
303.112
 30
0.000000
  70
    32
  0
VERTEX
  8
0
  5
151B
 10
92.4742
 20
303.181
 30
0.000000
  70
    32
  0
VERTEX
  8
0
  5
151C
 10
92.4424
 20
303.250
 30
0.000000
  70
    32
  0
VERTEX
  8
0
  5
151D
 10
92.4096
 20
303.318
 30
0.000000
  70
    32
  0
VERTEX
  8
0
  5
151E
 10
92.3759
 20
303.386
 30
0.000000
  70
    32
  0
VERTEX
  8
0
  5
151F
 10
92.3414
 20
303.454
 30
0.000000
  70
    32
  0
VERTEX
  8
0
  5
1520
 10
92.3060
 20
303.521
 30
0.000000
  70
    32
  0
VERTEX
  8
0
  5
1521
 10
92.2697
 20
303.588
 30
0.000000
  70
    32
  0
VERTEX
  8
0
  5
1522
 10
92.2325
 20
303.654
 30
0.000000
  70
    32
  0
VERTEX
  8
0
  5
1523
 10
92.1945
 20
303.720
 30
0.000000
  70
    32
  0
VERTEX
  8
0
  5
1524
 10
92.1556
 20
303.785
 30
0.000000
  70
    32
  0
VERTEX
  8
0
  5
1525
 10
92.1158
 20
303.850
 30
0.000000
  70
    32
  0
VERTEX
  8
0
  5
1526
 10
92.0752
 20
303.915
 30
0.000000
  70
    32
  0
VERTEX
  8
0
  5
1527
 10
92.0338
 20
303.979
 30
0.000000
  70
    32
  0
VERTEX
  8
0
  5
1528
 10
91.9915
 20
304.042
 30
0.000000
  70
    32
  0
VERTEX
  8
0
  5
1529
 10
91.9485
 20
304.105
 30
0.000000
  70
    32
  0
VERTEX
  8
0
  5
152A
 10
91.9046
 20
304.168
 30
0.000000
  70
    32
  0
VERTEX
  8
0
  5
152B
 10
91.8598
 20
304.230
 30
0.000000
  70
    32
  0
VERTEX
  8
0
  5
152C
 10
91.8143
 20
304.292
 30
0.000000
  70
    32
  0
VERTEX
  8
0
  5
152D
 10
91.7680
 20
304.353
 30
0.000000
  70
    32
  0
VERTEX
  8
0
  5
152E
 10
91.7208
 20
304.413
 30
0.000000
  70
    32
  0
VERTEX
  8
0
  5
152F
 10
91.6729
 20
304.473
 30
0.000000
  70
    32
  0
VERTEX
  8
0
  5
1530
 10
91.6243
 20
304.532
 30
0.000000
  70
    32
  0
VERTEX
  8
0
  5
1531
 10
91.5748
 20
304.591
 30
0.000000
  70
    32
  0
VERTEX
  8
0
  5
1532
 10
91.5246
 20
304.649
 30
0.000000
  70
    32
  0
VERTEX
  8
0
  5
1533
 10
91.4736
 20
304.707
 30
0.000000
  70
    32
  0
VERTEX
  8
0
  5
1534
 10
91.4219
 20
304.764
 30
0.000000
  70
    32
  0
VERTEX
  8
0
  5
1535
 10
91.3694
 20
304.821
 30
0.000000
  70
    32
  0
VERTEX
  8
0
  5
1536
 10
91.3162
 20
304.876
 30
0.000000
  70
    32
  0
VERTEX
  8
0
  5
1537
 10
91.2623
 20
304.932
 30
0.000000
  70
    32
  0
VERTEX
  8
0
  5
1538
 10
91.2076
 20
304.986
 30
0.000000
  70
    32
  0
VERTEX
  8
0
  5
1539
 10
91.1523
 20
305.040
 30
0.000000
  70
    32
  0
VERTEX
  8
0
  5
153A
 10
91.0962
 20
305.094
 30
0.000000
  70
    32
  0
VERTEX
  8
0
  5
153B
 10
91.0394
 20
305.146
 30
0.000000
  70
    32
  0
VERTEX
  8
0
  5
153C
 10
90.9820
 20
305.198
 30
0.000000
  70
    32
  0
VERTEX
  8
0
  5
153D
 10
90.9239
 20
305.250
 30
0.000000
  70
    32
  0
VERTEX
  8
0
  5
153E
 10
90.8651
 20
305.300
 30
0.000000
  70
    32
  0
VERTEX
  8
0
  5
153F
 10
90.8057
 20
305.350
 30
0.000000
  70
    32
  0
VERTEX
  8
0
  5
1540
 10
90.7456
 20
305.400
 30
0.000000
  70
    32
  0
VERTEX
  8
0
  5
1541
 10
90.6849
 20
305.448
 30
0.000000
  70
    32
  0
VERTEX
  8
0
  5
1542
 10
90.6236
 20
305.496
 30
0.000000
  70
    32
  0
VERTEX
  8
0
  5
1543
 10
90.5616
 20
305.543
 30
0.000000
  70
    32
  0
VERTEX
  8
0
  5
1544
 10
90.4990
 20
305.590
 30
0.000000
  70
    32
  0
VERTEX
  8
0
  5
1545
 10
90.4358
 20
305.636
 30
0.000000
  70
    32
  0
VERTEX
  8
0
  5
1546
 10
90.3720
 20
305.681
 30
0.000000
  70
    32
  0
VERTEX
  8
0
  5
1547
 10
90.3077
 20
305.725
 30
0.000000
  70
    32
  0
VERTEX
  8
0
  5
1548
 10
90.2428
 20
305.768
 30
0.000000
  70
    32
  0
VERTEX
  8
0
  5
1549
 10
90.1773
 20
305.811
 30
0.000000
  70
    32
  0
VERTEX
  8
0
  5
154A
 10
90.1112
 20
305.853
 30
0.000000
  70
    32
  0
VERTEX
  8
0
  5
154B
 10
90.0446
 20
305.894
 30
0.000000
  70
    32
  0
VERTEX
  8
0
  5
154C
 10
89.9775
 20
305.935
 30
0.000000
  70
    32
  0
VERTEX
  8
0
  5
154D
 10
89.9098
 20
305.975
 30
0.000000
  70
    32
  0
VERTEX
  8
0
  5
154E
 10
89.8417
 20
306.014
 30
0.000000
  70
    32
  0
VERTEX
  8
0
  5
154F
 10
89.7730
 20
306.052
 30
0.000000
  70
    32
  0
VERTEX
  8
0
  5
1550
 10
89.7038
 20
306.089
 30
0.000000
  70
    32
  0
VERTEX
  8
0
  5
1551
 10
89.6342
 20
306.126
 30
0.000000
  70
    32
  0
VERTEX
  8
0
  5
1552
 10
89.5641
 20
306.161
 30
0.000000
  70
    32
  0
VERTEX
  8
0
  5
1553
 10
89.4935
 20
306.196
 30
0.000000
  70
    32
  0
VERTEX
  8
0
  5
1554
 10
89.4225
 20
306.230
 30
0.000000
  70
    32
  0
VERTEX
  8
0
  5
1555
 10
89.3510
 20
306.264
 30
0.000000
  70
    32
  0
VERTEX
  8
0
  5
1556
 10
89.2791
 20
306.296
 30
0.000000
  70
    32
  0
VERTEX
  8
0
  5
1557
 10
89.2068
 20
306.328
 30
0.000000
  70
    32
  0
VERTEX
  8
0
  5
1558
 10
89.1341
 20
306.359
 30
0.000000
  70
    32
  0
VERTEX
  8
0
  5
1559
 10
89.0609
 20
306.389
 30
0.000000
  70
    32
  0
VERTEX
  8
0
  5
155A
 10
88.9874
 20
306.418
 30
0.000000
  70
    32
  0
VERTEX
  8
0
  5
155B
 10
88.9136
 20
306.446
 30
0.000000
  70
    32
  0
VERTEX
  8
0
  5
155C
 10
88.8393
 20
306.473
 30
0.000000
  70
    32
  0
VERTEX
  8
0
  5
155D
 10
88.7647
 20
306.500
 30
0.000000
  70
    32
  0
VERTEX
  8
0
  5
155E
 10
88.6898
 20
306.526
 30
0.000000
  70
    32
  0
VERTEX
  8
0
  5
155F
 10
88.6145
 20
306.550
 30
0.000000
  70
    32
  0
VERTEX
  8
0
  5
1560
 10
88.5389
 20
306.574
 30
0.000000
  70
    32
  0
VERTEX
  8
0
  5
1561
 10
88.4630
 20
306.597
 30
0.000000
  70
    32
  0
VERTEX
  8
0
  5
1562
 10
88.3869
 20
306.620
 30
0.000000
  70
    32
  0
VERTEX
  8
0
  5
1563
 10
88.3104
 20
306.641
 30
0.000000
  70
    32
  0
VERTEX
  8
0
  5
1564
 10
88.2336
 20
306.661
 30
0.000000
  70
    32
  0
VERTEX
  8
0
  5
1565
 10
88.1566
 20
306.681
 30
0.000000
  70
    32
  0
VERTEX
  8
0
  5
1566
 10
88.0794
 20
306.700
 30
0.000000
  70
    32
  0
VERTEX
  8
0
  5
1567
 10
88.0019
 20
306.717
 30
0.000000
  70
    32
  0
VERTEX
  8
0
  5
1568
 10
87.9242
 20
306.734
 30
0.000000
  70
    32
  0
VERTEX
  8
0
  5
1569
 10
87.8462
 20
306.750
 30
0.000000
  70
    32
  0
VERTEX
  8
0
  5
156A
 10
87.7681
 20
306.765
 30
0.000000
  70
    32
  0
VERTEX
  8
0
  5
156B
 10
87.6898
 20
306.779
 30
0.000000
  70
    32
  0
VERTEX
  8
0
  5
156C
 10
87.6113
 20
306.793
 30
0.000000
  70
    32
  0
VERTEX
  8
0
  5
156D
 10
87.5326
 20
306.805
 30
0.000000
  70
    32
  0
VERTEX
  8
0
  5
156E
 10
87.4537
 20
306.816
 30
0.000000
  70
    32
  0
VERTEX
  8
0
  5
156F
 10
87.3748
 20
306.827
 30
0.000000
  70
    32
  0
VERTEX
  8
0
  5
1570
 10
87.2957
 20
306.837
 30
0.000000
  70
    32
  0
VERTEX
  8
0
  5
1571
 10
87.2164
 20
306.845
 30
0.000000
  70
    32
  0
VERTEX
  8
0
  5
1572
 10
87.1371
 20
306.853
 30
0.000000
  70
    32
  0
VERTEX
  8
0
  5
1573
 10
87.0577
 20
306.860
 30
0.000000
  70
    32
  0
VERTEX
  8
0
  5
1574
 10
86.9782
 20
306.866
 30
0.000000
  70
    32
  0
VERTEX
  8
0
  5
1575
 10
86.8986
 20
306.871
 30
0.000000
  70
    32
  0
VERTEX
  8
0
  5
1576
 10
86.8189
 20
306.875
 30
0.000000
  70
    32
  0
VERTEX
  8
0
  5
1577
 10
86.7392
 20
306.878
 30
0.000000
  70
    32
  0
VERTEX
  8
0
  5
1578
 10
86.6595
 20
306.881
 30
0.000000
  70
    32
  0
VERTEX
  8
0
  5
1579
 10
86.5798
 20
306.882
 30
0.000000
  70
    32
  0
VERTEX
  8
0
  5
157A
 10
86.5000
 20
306.883
 30
0.000000
  70
    32
  0
SEQEND
  8
0
  5
157B
  0
POLYLINE
  5
FA5
  8
0
 10
93.0
 20
295.81401460748293
 30
0.0
 66
     1
 70
     8
  0
VERTEX
  8
0
  5
157C
 10
93.0000
 20
295.814
 30
0.000000
  70
    32
  0
VERTEX
  8
0
  5
157D
 10
93.1818
 20
296.032
 30
0.000000
  70
    32
  0
VERTEX
  8
0
  5
157E
 10
93.3552
 20
296.256
 30
0.000000
  70
    32
  0
VERTEX
  8
0
  5
157F
 10
93.5202
 20
296.485
 30
0.000000
  70
    32
  0
VERTEX
  8
0
  5
1580
 10
93.6765
 20
296.720
 30
0.000000
  70
    32
  0
VERTEX
  8
0
  5
1581
 10
93.8239
 20
296.960
 30
0.000000
  70
    32
  0
VERTEX
  8
0
  5
1582
 10
93.9622
 20
297.205
 30
0.000000
  70
    32
  0
VERTEX
  8
0
  5
1583
 10
94.0913
 20
297.454
 30
0.000000
  70
    32
  0
VERTEX
  8
0
  5
1584
 10
94.2110
 20
297.707
 30
0.000000
  70
    32
  0
VERTEX
  8
0
  5
1585
 10
94.3211
 20
297.964
 30
0.000000
  70
    32
  0
VERTEX
  8
0
  5
1586
 10
94.4215
 20
298.224
 30
0.000000
  70
    32
  0
VERTEX
  8
0
  5
1587
 10
94.5122
 20
298.488
 30
0.000000
  70
    32
  0
VERTEX
  8
0
  5
1588
 10
94.5928
 20
298.754
 30
0.000000
  70
    32
  0
VERTEX
  8
0
  5
1589
 10
94.6635
 20
299.023
 30
0.000000
  70
    32
  0
VERTEX
  8
0
  5
158A
 10
94.7240
 20
299.294
 30
0.000000
  70
    32
  0
VERTEX
  8
0
  5
158B
 10
94.7744
 20
299.567
 30
0.000000
  70
    32
  0
VERTEX
  8
0
  5
158C
 10
94.8145
 20
299.841
 30
0.000000
  70
    32
  0
VERTEX
  8
0
  5
158D
 10
94.8443
 20
300.117
 30
0.000000
  70
    32
  0
VERTEX
  8
0
  5
158E
 10
94.8638
 20
300.393
 30
0.000000
  70
    32
  0
VERTEX
  8
0
  5
158F
 10
94.8729
 20
300.670
 30
0.000000
  70
    32
  0
VERTEX
  8
0
  5
1590
 10
94.8716
 20
300.947
 30
0.000000
  70
    32
  0
VERTEX
  8
0
  5
1591
 10
94.8599
 20
301.224
 30
0.000000
  70
    32
  0
VERTEX
  8
0
  5
1592
 10
94.8379
 20
301.500
 30
0.000000
  70
    32
  0
VERTEX
  8
0
  5
1593
 10
94.8056
 20
301.775
 30
0.000000
  70
    32
  0
VERTEX
  8
0
  5
1594
 10
94.7630
 20
302.049
 30
0.000000
  70
    32
  0
VERTEX
  8
0
  5
1595
 10
94.7101
 20
302.322
 30
0.000000
  70
    32
  0
VERTEX
  8
0
  5
1596
 10
94.6471
 20
302.592
 30
0.000000
  70
    32
  0
VERTEX
  8
0
  5
1597
 10
94.5739
 20
302.861
 30
0.000000
  70
    32
  0
VERTEX
  8
0
  5
1598
 10
94.4908
 20
303.127
 30
0.000000
  70
    32
  0
VERTEX
  8
0
  5
1599
 10
94.3978
 20
303.389
 30
0.000000
  70
    32
  0
VERTEX
  8
0
  5
159A
 10
94.2949
 20
303.649
 30
0.000000
  70
    32
  0
VERTEX
  8
0
  5
159B
 10
94.1824
 20
303.905
 30
0.000000
  70
    32
  0
VERTEX
  8
0
  5
159C
 10
94.0604
 20
304.157
 30
0.000000
  70
    32
  0
VERTEX
  8
0
  5
159D
 10
93.9291
 20
304.405
 30
0.000000
  70
    32
  0
VERTEX
  8
0
  5
159E
 10
93.7885
 20
304.648
 30
0.000000
  70
    32
  0
VERTEX
  8
0
  5
159F
 10
93.6389
 20
304.887
 30
0.000000
  70
    32
  0
VERTEX
  8
0
  5
15A0
 10
93.4805
 20
305.121
 30
0.000000
  70
    32
  0
VERTEX
  8
0
  5
15A1
 10
93.3134
 20
305.349
 30
0.000000
  70
    32
  0
VERTEX
  8
0
  5
15A2
 10
93.1378
 20
305.571
 30
0.000000
  70
    32
  0
VERTEX
  8
0
  5
15A3
 10
92.9541
 20
305.788
 30
0.000000
  70
    32
  0
VERTEX
  8
0
  5
15A4
 10
92.7623
 20
305.998
 30
0.000000
  70
    32
  0
VERTEX
  8
0
  5
15A5
 10
92.5628
 20
306.202
 30
0.000000
  70
    32
  0
VERTEX
  8
0
  5
15A6
 10
92.3557
 20
306.399
 30
0.000000
  70
    32
  0
VERTEX
  8
0
  5
15A7
 10
92.1415
 20
306.589
 30
0.000000
  70
    32
  0
VERTEX
  8
0
  5
15A8
 10
91.9202
 20
306.772
 30
0.000000
  70
    32
  0
VERTEX
  8
0
  5
15A9
 10
91.6922
 20
306.948
 30
0.000000
  70
    32
  0
VERTEX
  8
0
  5
15AA
 10
91.4578
 20
307.116
 30
0.000000
  70
    32
  0
VERTEX
  8
0
  5
15AB
 10
91.2172
 20
307.276
 30
0.000000
  70
    32
  0
VERTEX
  8
0
  5
15AC
 10
90.9708
 20
307.428
 30
0.000000
  70
    32
  0
VERTEX
  8
0
  5
15AD
 10
90.7188
 20
307.572
 30
0.000000
  70
    32
  0
VERTEX
  8
0
  5
15AE
 10
90.4617
 20
307.707
 30
0.000000
  70
    32
  0
VERTEX
  8
0
  5
15AF
 10
90.1996
 20
307.834
 30
0.000000
  70
    32
  0
VERTEX
  8
0
  5
15B0
 10
89.9329
 20
307.952
 30
0.000000
  70
    32
  0
VERTEX
  8
0
  5
15B1
 10
89.6620
 20
308.061
 30
0.000000
  70
    32
  0
VERTEX
  8
0
  5
15B2
 10
89.3871
 20
308.161
 30
0.000000
  70
    32
  0
VERTEX
  8
0
  5
15B3
 10
89.1087
 20
308.252
 30
0.000000
  70
    32
  0
VERTEX
  8
0
  5
15B4
 10
88.8271
 20
308.333
 30
0.000000
  70
    32
  0
VERTEX
  8
0
  5
15B5
 10
88.5425
 20
308.406
 30
0.000000
  70
    32
  0
VERTEX
  8
0
  5
15B6
 10
88.2555
 20
308.468
 30
0.000000
  70
    32
  0
VERTEX
  8
0
  5
15B7
 10
87.9662
 20
308.522
 30
0.000000
  70
    32
  0
VERTEX
  8
0
  5
15B8
 10
87.6752
 20
308.565
 30
0.000000
  70
    32
  0
VERTEX
  8
0
  5
15B9
 10
87.3826
 20
308.599
 30
0.000000
  70
    32
  0
VERTEX
  8
0
  5
15BA
 10
87.0890
 20
308.624
 30
0.000000
  70
    32
  0
VERTEX
  8
0
  5
15BB
 10
86.7947
 20
308.638
 30
0.000000
  70
    32
  0
VERTEX
  8
0
  5
15BC
 10
86.5000
 20
308.643
 30
0.000000
  70
    32
  0
VERTEX
  8
0
  5
15BD
 10
86.2053
 20
308.638
 30
0.000000
  70
    32
  0
VERTEX
  8
0
  5
15BE
 10
85.9110
 20
308.624
 30
0.000000
  70
    32
  0
VERTEX
  8
0
  5
15BF
 10
85.6174
 20
308.599
 30
0.000000
  70
    32
  0
VERTEX
  8
0
  5
15C0
 10
85.3248
 20
308.565
 30
0.000000
  70
    32
  0
VERTEX
  8
0
  5
15C1
 10
85.0338
 20
308.522
 30
0.000000
  70
    32
  0
VERTEX
  8
0
  5
15C2
 10
84.7445
 20
308.468
 30
0.000000
  70
    32
  0
VERTEX
  8
0
  5
15C3
 10
84.4575
 20
308.406
 30
0.000000
  70
    32
  0
VERTEX
  8
0
  5
15C4
 10
84.1729
 20
308.333
 30
0.000000
  70
    32
  0
VERTEX
  8
0
  5
15C5
 10
83.8913
 20
308.252
 30
0.000000
  70
    32
  0
VERTEX
  8
0
  5
15C6
 10
83.6129
 20
308.161
 30
0.000000
  70
    32
  0
VERTEX
  8
0
  5
15C7
 10
83.3380
 20
308.061
 30
0.000000
  70
    32
  0
VERTEX
  8
0
  5
15C8
 10
83.0671
 20
307.952
 30
0.000000
  70
    32
  0
VERTEX
  8
0
  5
15C9
 10
82.8004
 20
307.834
 30
0.000000
  70
    32
  0
VERTEX
  8
0
  5
15CA
 10
82.5383
 20
307.707
 30
0.000000
  70
    32
  0
VERTEX
  8
0
  5
15CB
 10
82.2812
 20
307.572
 30
0.000000
  70
    32
  0
VERTEX
  8
0
  5
15CC
 10
82.0292
 20
307.428
 30
0.000000
  70
    32
  0
VERTEX
  8
0
  5
15CD
 10
81.7828
 20
307.276
 30
0.000000
  70
    32
  0
VERTEX
  8
0
  5
15CE
 10
81.5422
 20
307.116
 30
0.000000
  70
    32
  0
VERTEX
  8
0
  5
15CF
 10
81.3078
 20
306.948
 30
0.000000
  70
    32
  0
VERTEX
  8
0
  5
15D0
 10
81.0798
 20
306.772
 30
0.000000
  70
    32
  0
VERTEX
  8
0
  5
15D1
 10
80.8585
 20
306.589
 30
0.000000
  70
    32
  0
VERTEX
  8
0
  5
15D2
 10
80.6443
 20
306.399
 30
0.000000
  70
    32
  0
VERTEX
  8
0
  5
15D3
 10
80.4372
 20
306.202
 30
0.000000
  70
    32
  0
VERTEX
  8
0
  5
15D4
 10
80.2377
 20
305.998
 30
0.000000
  70
    32
  0
VERTEX
  8
0
  5
15D5
 10
80.0459
 20
305.788
 30
0.000000
  70
    32
  0
VERTEX
  8
0
  5
15D6
 10
79.8622
 20
305.571
 30
0.000000
  70
    32
  0
VERTEX
  8
0
  5
15D7
 10
79.6866
 20
305.349
 30
0.000000
  70
    32
  0
VERTEX
  8
0
  5
15D8
 10
79.5195
 20
305.121
 30
0.000000
  70
    32
  0
VERTEX
  8
0
  5
15D9
 10
79.3611
 20
304.887
 30
0.000000
  70
    32
  0
VERTEX
  8
0
  5
15DA
 10
79.2115
 20
304.648
 30
0.000000
  70
    32
  0
VERTEX
  8
0
  5
15DB
 10
79.0709
 20
304.405
 30
0.000000
  70
    32
  0
VERTEX
  8
0
  5
15DC
 10
78.9396
 20
304.157
 30
0.000000
  70
    32
  0
VERTEX
  8
0
  5
15DD
 10
78.8176
 20
303.905
 30
0.000000
  70
    32
  0
VERTEX
  8
0
  5
15DE
 10
78.7051
 20
303.649
 30
0.000000
  70
    32
  0
VERTEX
  8
0
  5
15DF
 10
78.6022
 20
303.389
 30
0.000000
  70
    32
  0
VERTEX
  8
0
  5
15E0
 10
78.5092
 20
303.127
 30
0.000000
  70
    32
  0
VERTEX
  8
0
  5
15E1
 10
78.4261
 20
302.861
 30
0.000000
  70
    32
  0
VERTEX
  8
0
  5
15E2
 10
78.3529
 20
302.592
 30
0.000000
  70
    32
  0
VERTEX
  8
0
  5
15E3
 10
78.2899
 20
302.322
 30
0.000000
  70
    32
  0
VERTEX
  8
0
  5
15E4
 10
78.2370
 20
302.049
 30
0.000000
  70
    32
  0
VERTEX
  8
0
  5
15E5
 10
78.1944
 20
301.775
 30
0.000000
  70
    32
  0
VERTEX
  8
0
  5
15E6
 10
78.1621
 20
301.500
 30
0.000000
  70
    32
  0
VERTEX
  8
0
  5
15E7
 10
78.1401
 20
301.224
 30
0.000000
  70
    32
  0
VERTEX
  8
0
  5
15E8
 10
78.1284
 20
300.947
 30
0.000000
  70
    32
  0
VERTEX
  8
0
  5
15E9
 10
78.1271
 20
300.670
 30
0.000000
  70
    32
  0
VERTEX
  8
0
  5
15EA
 10
78.1362
 20
300.393
 30
0.000000
  70
    32
  0
VERTEX
  8
0
  5
15EB
 10
78.1557
 20
300.117
 30
0.000000
  70
    32
  0
VERTEX
  8
0
  5
15EC
 10
78.1855
 20
299.841
 30
0.000000
  70
    32
  0
VERTEX
  8
0
  5
15ED
 10
78.2256
 20
299.567
 30
0.000000
  70
    32
  0
VERTEX
  8
0
  5
15EE
 10
78.2760
 20
299.294
 30
0.000000
  70
    32
  0
VERTEX
  8
0
  5
15EF
 10
78.3365
 20
299.023
 30
0.000000
  70
    32
  0
VERTEX
  8
0
  5
15F0
 10
78.4072
 20
298.754
 30
0.000000
  70
    32
  0
VERTEX
  8
0
  5
15F1
 10
78.4878
 20
298.488
 30
0.000000
  70
    32
  0
VERTEX
  8
0
  5
15F2
 10
78.5785
 20
298.224
 30
0.000000
  70
    32
  0
VERTEX
  8
0
  5
15F3
 10
78.6789
 20
297.964
 30
0.000000
  70
    32
  0
VERTEX
  8
0
  5
15F4
 10
78.7890
 20
297.707
 30
0.000000
  70
    32
  0
VERTEX
  8
0
  5
15F5
 10
78.9087
 20
297.454
 30
0.000000
  70
    32
  0
VERTEX
  8
0
  5
15F6
 10
79.0378
 20
297.205
 30
0.000000
  70
    32
  0
VERTEX
  8
0
  5
15F7
 10
79.1761
 20
296.960
 30
0.000000
  70
    32
  0
VERTEX
  8
0
  5
15F8
 10
79.3235
 20
296.720
 30
0.000000
  70
    32
  0
VERTEX
  8
0
  5
15F9
 10
79.4798
 20
296.485
 30
0.000000
  70
    32
  0
VERTEX
  8
0
  5
15FA
 10
79.6448
 20
296.256
 30
0.000000
  70
    32
  0
VERTEX
  8
0
  5
15FB
 10
79.8182
 20
296.032
 30
0.000000
  70
    32
  0
VERTEX
  8
0
  5
15FC
 10
80.0000
 20
295.814
 30
0.000000
  70
    32
  0
SEQEND
  8
0
  5
15FD
  0
POLYLINE
  5
FA6
  8
0
 66
     1
 10
0.0
 20
0.0
 30
0.0
  0
VERTEX
  5
11DC
  8
0
 10
86.5
 20
319.99999999999989
 30
0.0
  0
VERTEX
  5
11DD
  8
0
 10
85.939692136471649
 20
319.98931404704729
 30
0.0
  0
VERTEX
  5
11DE
  8
0
 10
85.348874106581434
 20
319.95484464002311
 30
0.0
  0
VERTEX
  5
11DF
  8
0
 10
84.759619090680644
 20
319.89657982155609
 30
0.0
  0
VERTEX
  5
11E0
  8
0
 10
84.172879178790495
 20
319.81457944458521
 30
0.0
  0
VERTEX
  5
11E1
  8
0
 10
83.589600858371341
 20
319.70894147854523
 30
0.0
  0
VERTEX
  5
11E2
  8
0
 10
83.010729681999464
 20
319.57980269054292
 30
0.0
  0
VERTEX
  5
11E3
  8
0
 10
82.437208636724108
 20
319.42733901754099
 30
0.0
  0
VERTEX
  5
11E4
  8
0
 10
81.869976422751961
 20
319.25176585060382
 30
0.0
  0
VERTEX
  5
11E5
  8
0
 10
81.309965651460061
 20
319.05333821726032
 30
0.0
  0
VERTEX
  5
11E6
  8
0
 10
80.758100972900138
 20
318.83235084914679
 30
0.0
  0
VERTEX
  5
11E7
  8
0
 10
80.215297145435457
 20
318.58913812389778
 30
0.0
  0
VERTEX
  5
11E8
  8
0
 10
79.682457062173171
 20
318.32407387247099
 30
0.0
  0
VERTEX
  5
11E9
  8
0
 10
79.160469750353286
 20
318.0375710455935
 30
0.0
  0
VERTEX
  5
11EA
  8
0
 10
78.650208360777697
 20
317.7300812356745
 30
0.0
  0
VERTEX
  5
11EB
  8
0
 10
78.152528164720707
 20
317.4020940532364
 30
0.0
  0
VERTEX
  5
11EC
  8
0
 10
77.668264575524745
 20
317.05413635951118
 30
0.0
  0
VERTEX
  5
11ED
  8
0
 10
77.198231211374605
 20
316.68677135927351
 30
0.0
  0
VERTEX
  5
11EE
  8
0
 10
76.743218014591321
 20
316.30059756010911
 30
0.0
  0
VERTEX
  5
11EF
  8
0
 10
76.303989441295244
 20
315.89624760612662
 30
0.0
  0
VERTEX
  5
11F0
  8
0
 10
75.881282733566195
 20
315.47438699554459
 30
0.0
  0
VERTEX
  5
11F1
  8
0
 10
75.475806284366399
 20
315.03571269265041
 30
0.0
  0
VERTEX
  5
11F2
  8
0
 10
75.088238103574213
 20
314.58095164531238
 30
0.0
  0
VERTEX
  5
11F3
  8
0
 10
74.719224391586522
 20
314.11085921958039
 30
0.0
  0
VERTEX
  5
11F4
  8
0
 10
74.369378225153696
 20
313.62621756296568
 30
0.0
  0
VERTEX
  5
11F5
  8
0
 10
74.039278358440242
 20
313.12783390778662
 30
0.0
  0
VERTEX
  5
11F6
  8
0
 10
73.729468140819336
 20
312.61653882556959
 30
0.0
  0
VERTEX
  5
11F7
  8
0
 10
73.440454551598123
 20
312.09318444293473
 30
0.0
  0
VERTEX
  5
11F8
  8
0
 10
73.172707350766132
 20
311.55864262872598
 30
0.0
  0
VERTEX
  5
11F9
  8
0
 10
72.926658343933923
 20
311.01380316141439
 30
0.0
  0
VERTEX
  5
11FA
  8
0
 10
72.702700758899709
 20
310.45957188503189
 30
0.0
  0
VERTEX
  5
11FB
  8
0
 10
72.501188730707327
 20
309.89686886111821
 30
0.0
  0
VERTEX
  5
11FC
  8
0
 10
72.322436891633956
 20
309.3266265234123
 30
0.0
  0
VERTEX
  5
11FD
  8
0
 10
72.166720062262812
 20
308.74978784129672
 30
0.0
  0
VERTEX
  5
11FE
  8
0
 10
72.034273039594609
 20
308.16730449733382
 30
0.0
  0
VERTEX
  5
11FF
  8
0
 10
71.925290478069201
 20
307.58013508361859
 30
0.0
  0
VERTEX
  5
1200
  8
0
 10
71.839926859324123
 20
306.98924332110971
 30
0.0
  0
VERTEX
  5
1201
  8
0
 10
71.778296546556703
 20
306.39559630560962
 30
0.0
  0
VERTEX
  5
1202
  8
0
 10
71.740473919401666
 20
305.80016278362689
 30
0.0
  0
VERTEX
  5
1203
  8
0
 10
71.726493585337266
 20
305.20391146096688
 30
0.0
  0
VERTEX
  5
1204
  8
0
 10
71.736350663721396
 20
304.60780934657038
 30
0.0
  0
VERTEX
  5
1205
  8
0
 10
71.770001005254016
 20
304.01282187503762
 30
0.0
  0
VERTEX
  5
1206
  8
0
 10
71.827361382633853
 20
303.41991027005849
 30
0.0
  0
VERTEX
  5
1207
  8
0
 10
71.908310331729353
 20
302.83002678969842
 30
0.0
  0
VERTEX
  5
1208
  8
0
 10
72.012688702876176
 20
302.24411571277699
 30
0.0
  0
VERTEX
  5
1209
  8
0
 10
72.140300258053003
 20
301.66311188973458
 30
0.0
  0
VERTEX
  5
120A
  8
0
 10
72.290912319148674
 20
301.0879393391541
 30
0.0
  0
VERTEX
  5
120B
  8
0
 10
72.46425646392413
 20
300.51950989130881
 30
0.0
  0
VERTEX
  5
120C
  8
0
 10
72.660029266282663
 20
299.95872187976011
 30
0.0
  0
VERTEX
  5
120D
  8
0
 10
72.877893077444924
 20
299.4064588818984
 30
0.0
  0
VERTEX
  5
120E
  8
0
 10
73.117476844576004
 20
298.86358850917833
 30
0.0
  0
VERTEX
  5
120F
  8
0
 10
73.378376963372375
 20
298.3309612476346
 30
0.0
  0
VERTEX
  5
1210
  8
0
 10
73.660158161033223
 20
297.80940934909609
 30
0.0
  0
VERTEX
  5
1211
  8
0
 10
73.962354405978431
 20
297.29974577330381
 30
0.0
  0
VERTEX
  5
1212
  8
0
 10
74.284469840594511
 20
296.80276318091302
 30
0.0
  0
VERTEX
  5
1213
  8
0
 10
74.625979733219538
 20
296.31923297709648
 30
0.0
  0
VERTEX
  5
1214
  8
0
 10
74.986331445516043
 20
295.84990440516788
 30
0.0
  0
VERTEX
  5
1215
  8
0
 10
75.3649454113513
 20
295.39550368931339
 30
0.0
  0
VERTEX
  5
1216
  8
0
 10
75.761216123285749
 20
294.95673322515222
 30
0.0
  0
VERTEX
  5
1217
  8
0
 10
76.174513122819235
 20
294.5342708164452
 30
0.0
  0
VERTEX
  5
1218
  8
0
 10
76.604181990616553
 20
294.12876895583452
 30
0.0
  0
VERTEX
  5
1219
  8
0
 10
77.049545333104334
 20
293.74085414704621
 30
0.0
  0
VERTEX
  5
121A
  8
0
 10
77.509903762053682
 20
293.37112626550049
 30
0.0
  0
VERTEX
  5
121B
  8
0
 10
77.984536864089705
 20
293.02015795379708
 30
0.0
  0
VERTEX
  5
121C
  8
0
 10
78.472704157507678
 20
292.68849404806468
 30
0.0
  0
VERTEX
  5
121D
  8
0
 10
78.973646034311969
 20
292.37665103070123
 30
0.0
  0
VERTEX
  5
121E
  8
0
 10
79.486584686083674
 20
292.08511650463089
 30
0.0
  0
VERTEX
  5
121F
  8
0
 10
80.0
 20
291.81988916275378
 30
0.0
  0
SEQEND
  5
1220
  8
0
  0
POLYLINE
  5
FA7
  8
0
 66
     1
 10
0.0
 20
0.0
 30
0.0
  0
VERTEX
  5
1221
  8
0
 10
93.0
 20
291.82223963184128
 30
0.0
  0
VERTEX
  5
1222
  8
0
 10
93.142683455200086
 20
291.89086046857659
 30
0.0
  0
VERTEX
  5
1223
  8
0
 10
93.668353231160381
 20
292.170329414918
 30
0.0
  0
VERTEX
  5
1224
  8
0
 10
94.182583638837741
 20
292.47093876043022
 30
0.0
  0
VERTEX
  5
1225
  8
0
 10
94.684513280313013
 20
292.79221137547847
 30
0.0
  0
VERTEX
  5
1226
  8
0
 10
95.173299965824526
 20
293.13363261051109
 30
0.0
  0
VERTEX
  5
1227
  8
0
 10
95.648122666359086
 20
293.49465115764639
 30
0.0
  0
VERTEX
  5
1228
  8
0
 10
96.108183414638006
 20
293.87468004808608
 30
0.0
  0
VERTEX
  5
1229
  8
0
 10
96.552709140129764
 20
294.27309777790902
 30
0.0
  0
VERTEX
  5
122A
  8
0
 10
96.980953425371354
 20
294.68924955324201
 30
0.0
  0
VERTEX
  5
122B
  8
0
 10
97.392198172703957
 20
295.12244864461547
 30
0.0
  0
VERTEX
  5
122C
  8
0
 10
97.785755172447352
 20
295.57197783951989
 30
0.0
  0
VERTEX
  5
122D
  8
0
 10
98.160967565431065
 20
296.03709098169929
 30
0.0
  0
VERTEX
  5
122E
  8
0
 10
98.517211194645142
 20
296.51701458558728
 30
0.0
  0
VERTEX
  5
122F
  8
0
 10
98.853895842477868
 20
297.01094951440092
 30
0.0
  0
VERTEX
  5
1230
  8
0
 10
99.170466351565665
 20
297.51807271075478
 30
0.0
  0
VERTEX
  5
1231
  8
0
 10
99.466403628642652
 20
298.0375389691668
 30
0.0
  0
VERTEX
  5
1232
  8
0
 10
99.741225531959344
 20
298.56848274046479
 30
0.0
  0
VERTEX
  5
1233
  8
0
 10
99.994487643813272
 20
299.11001995881833
 30
0.0
  0
VERTEX
  5
1234
  8
0
 10
100.2257839305346
 20
299.66124988288061
 30
0.0
  0
VERTEX
  5
1235
  8
0
 10
100.4347472928921
 20
300.22125694330617
 30
0.0
  0
VERTEX
  5
1236
  8
0
 10
100.6210500103527
 20
300.78911258966542
 30
0.0
  0
VERTEX
  5
1237
  8
0
 10
100.7844040829622
 20
301.3638771305134
 30
0.0
  0
VERTEX
  5
1238
  8
0
 10
100.92456147483399
 20
301.94460156105998
 30
0.0
  0
VERTEX
  5
1239
  8
0
 10
101.04131426335989
 20
302.53032937352037
 30
0.0
  0
VERTEX
  5
123A
  8
0
 10
101.1344946983026
 20
303.12009834580323
 30
0.0
  0
VERTEX
  5
123B
  8
0
 10
101.2039751749282
 20
303.71294230471091
 30
0.0
  0
VERTEX
  5
123C
  8
0
 10
101.2496681252785
 20
304.3078928602817
 30
0.0
  0
VERTEX
  5
123D
  8
0
 10
101.2715258316086
 20
304.90398110830381
 30
0.0
  0
VERTEX
  5
123E
  8
0
 10
101.2695401659207
 20
305.5002392983817
 30
0.0
  0
VERTEX
  5
123F
  8
0
 10
101.24374228166261
 20
306.09570211405929
 30
0.0
  0
VERTEX
  5
1240
  8
0
 10
101.19420261243221
 20
306.68940512810212
 30
0.0
  0
VERTEX
  5
1241
  8
0
 10
101.1210300514594
 20
307.28039377241691
 30
0.0
  0
VERTEX
  5
1242
  8
0
 10
101.0243713629677
 20
307.86772096989972
 30
0.0
  0
VERTEX
  5
1243
  8
0
 10
100.904410602626
 20
308.45044859806808
 30
0.0
  0
VERTEX
  5
1244
  8
0
 10
100.7613684857799
 20
309.0276489078243
 30
0.0
  0
VERTEX
  5
1245
  8
0
 10
100.5955017068711
 20
309.59840589556279
 30
0.0
  0
VERTEX
  5
1246
  8
0
 10
100.4071022134296
 20
310.16181662754991
 30
0.0
  0
VERTEX
  5
1247
  8
0
 10
100.19649643803039
 20
310.71699251564092
 30
0.0
  0
VERTEX
  5
1248
  8
0
 10
99.964044491654946
 20
311.26306054353461
 30
0.0
  0
VERTEX
  5
1249
  8
0
 10
99.710139321931138
 20
311.79916444292058
 30
0.0
  0
VERTEX
  5
124A
  8
0
 10
99.435205839799892
 20
312.32446581904759
 30
0.0
  0
VERTEX
  5
124B
  8
0
 10
99.13970001822463
 20
312.8381452254294
 30
0.0
  0
VERTEX
  5
124C
  8
0
 10
98.824107966637044
 20
313.3394031876353
 30
0.0
  0
VERTEX
  5
124D
  8
0
 10
98.488944984884483
 20
313.82746117635088
 30
0.0
  0
VERTEX
  5
124E
  8
0
 10
98.134754600510647
 20
314.3015625301972
 30
0.0
  0
VERTEX
  5
124F
  8
0
 10
97.76210759324772
 20
314.76097332909569
 30
0.0
  0
VERTEX
  5
1250
  8
0
 10
97.371601010609083
 20
315.20498321934377
 30
0.0
  0
VERTEX
  5
1251
  8
0
 10
96.963857178464195
 20
315.63290619193822
 30
0.0
  0
VERTEX
  5
1252
  8
0
 10
96.539522710396355
 20
316.04408131611768
 30
0.0
  0
VERTEX
  5
1253
  8
0
 10
96.099267519519586
 20
316.43787343054402
 30
0.0
  0
VERTEX
  5
1254
  8
0
 10
95.643783836223292
 20
316.81367379501302
 30
0.0
  0
VERTEX
  5
1255
  8
0
 10
95.173785235020887
 20
317.17090070606707
 30
0.0
  0
VERTEX
  5
1256
  8
0
 10
94.690005673282485
 20
317.5090000803699
 30
0.0
  0
VERTEX
  5
1257
  8
0
 10
94.193198544122197
 20
317.82744601016333
 30
0.0
  0
VERTEX
  5
1258
  8
0
 10
93.684135745080766
 20
318.1257412955556
 30
0.0
  0
VERTEX
  5
1259
  8
0
 10
93.163606763478825
 20
318.40341795875582
 30
0.0
  0
VERTEX
  5
125A
  8
0
 10
92.632417778401987
 20
318.66003774564859
 30
0.0
  0
VERTEX
  5
125B
  8
0
 10
92.091390778261257
 20
318.89519262025323
 30
0.0
  0
VERTEX
  5
125C
  8
0
 10
91.541362691691802
 20
319.10850525761481
 30
0.0
  0
VERTEX
  5
125D
  8
0
 10
90.983184528296064
 20
319.29962954048131
 30
0.0
  0
VERTEX
  5
125E
  8
0
 10
90.417720524395918
 20
319.46825106470112
 30
0.0
  0
VERTEX
  5
125F
  8
0
 10
89.845847287590004
 20
319.61408765760109
 30
0.0
  0
VERTEX
  5
1260
  8
0
 10
89.268452932576125
 20
319.73688991264589
 30
0.0
  0
VERTEX
  5
1261
  8
0
 10
88.686436199468275
 20
319.8364417424329
 30
0.0
  0
VERTEX
  5
1262
  8
0
 10
88.100705544782613
 20
319.91256095054109
 30
0.0
  0
VERTEX
  5
1263
  8
0
 10
87.512178194487674
 20
319.96509982095222
 30
0.0
  0
VERTEX
  5
1264
  8
0
 10
86.921779148105315
 20
319.99394572175049
 30
0.0
  0
VERTEX
  5
1265
  8
0
 10
86.5
 20
319.99999999999989
 30
0.0
  0
SEQEND
  5
1266
  8
0
  0
LINE
  5
FAB
  8
1
 10
86.5
 20
325.00090922967922
 30
0.0
 11
86.5
 21
158.0
 31
0.0
  0
CIRCLE
  5
FAC
  8
0
 10
179.5
 20
86.5
 30
0.0
 40
11.5
  0
CIRCLE
  5
FAD
  8
0
 10
179.5
 20
86.5
 30
0.0
 40
15.9
  0
CIRCLE
  5
FAE
  8
3
 10
179.5
 20
86.5
 30
0.0
 40
6.9175000000000004
  0
ARC
  5
FAF
  8
0
 10
210.9999999999998
 20
86.500000000005627
 30
0.0
 40
6.500000000005616
 50
270.0
 51
275.3835010717379
  0
ARC
  5
FB0
  8
0
 10
210.9999999999998
 20
86.499999999994657
 30
0.0
 40
6.5000000000053584
 50
84.616498928255496
 51
90.0
  0
POLYLINE
  5
FB1
  8
0
 10
211.60984057406228
 20
80.028671351706265
 30
0.0
 66
     1
 70
     8
  0
VERTEX
  8
0
  5
15FE
 10
211.610
 20
80.0287
 30
0.000000
  70
    32
  0
VERTEX
  8
0
  5
15FF
 10
211.663
 20
80.0356
 30
0.000000
  70
    32
  0
VERTEX
  8
0
  5
1600
 10
211.716
 20
80.0462
 30
0.000000
  70
    32
  0
VERTEX
  8
0
  5
1601
 10
211.769
 20
80.0605
 30
0.000000
  70
    32
  0
VERTEX
  8
0
  5
1602
 10
211.822
 20
80.0786
 30
0.000000
  70
    32
  0
VERTEX
  8
0
  5
1603
 10
211.875
 20
80.1004
 30
0.000000
  70
    32
  0
VERTEX
  8
0
  5
1604
 10
211.927
 20
80.1259
 30
0.000000
  70
    32
  0
VERTEX
  8
0
  5
1605
 10
211.980
 20
80.1550
 30
0.000000
  70
    32
  0
VERTEX
  8
0
  5
1606
 10
212.032
 20
80.1879
 30
0.000000
  70
    32
  0
VERTEX
  8
0
  5
1607
 10
212.083
 20
80.2243
 30
0.000000
  70
    32
  0
VERTEX
  8
0
  5
1608
 10
212.135
 20
80.2644
 30
0.000000
  70
    32
  0
VERTEX
  8
0
  5
1609
 10
212.186
 20
80.3081
 30
0.000000
  70
    32
  0
VERTEX
  8
0
  5
160A
 10
212.237
 20
80.3554
 30
0.000000
  70
    32
  0
VERTEX
  8
0
  5
160B
 10
212.287
 20
80.4063
 30
0.000000
  70
    32
  0
VERTEX
  8
0
  5
160C
 10
212.337
 20
80.4606
 30
0.000000
  70
    32
  0
VERTEX
  8
0
  5
160D
 10
212.386
 20
80.5185
 30
0.000000
  70
    32
  0
VERTEX
  8
0
  5
160E
 10
212.435
 20
80.5798
 30
0.000000
  70
    32
  0
VERTEX
  8
0
  5
160F
 10
212.484
 20
80.6445
 30
0.000000
  70
    32
  0
VERTEX
  8
0
  5
1610
 10
212.531
 20
80.7126
 30
0.000000
  70
    32
  0
VERTEX
  8
0
  5
1611
 10
212.579
 20
80.7841
 30
0.000000
  70
    32
  0
VERTEX
  8
0
  5
1612
 10
212.625
 20
80.8588
 30
0.000000
  70
    32
  0
VERTEX
  8
0
  5
1613
 10
212.671
 20
80.9369
 30
0.000000
  70
    32
  0
VERTEX
  8
0
  5
1614
 10
212.717
 20
81.0181
 30
0.000000
  70
    32
  0
VERTEX
  8
0
  5
1615
 10
212.762
 20
81.1025
 30
0.000000
  70
    32
  0
VERTEX
  8
0
  5
1616
 10
212.806
 20
81.1900
 30
0.000000
  70
    32
  0
VERTEX
  8
0
  5
1617
 10
212.849
 20
81.2806
 30
0.000000
  70
    32
  0
VERTEX
  8
0
  5
1618
 10
212.891
 20
81.3742
 30
0.000000
  70
    32
  0
VERTEX
  8
0
  5
1619
 10
212.933
 20
81.4708
 30
0.000000
  70
    32
  0
VERTEX
  8
0
  5
161A
 10
212.974
 20
81.5703
 30
0.000000
  70
    32
  0
VERTEX
  8
0
  5
161B
 10
213.014
 20
81.6726
 30
0.000000
  70
    32
  0
VERTEX
  8
0
  5
161C
 10
213.054
 20
81.7777
 30
0.000000
  70
    32
  0
VERTEX
  8
0
  5
161D
 10
213.092
 20
81.8855
 30
0.000000
  70
    32
  0
VERTEX
  8
0
  5
161E
 10
213.129
 20
81.9961
 30
0.000000
  70
    32
  0
VERTEX
  8
0
  5
161F
 10
213.166
 20
82.1092
 30
0.000000
  70
    32
  0
VERTEX
  8
0
  5
1620
 10
213.202
 20
82.2248
 30
0.000000
  70
    32
  0
VERTEX
  8
0
  5
1621
 10
213.236
 20
82.3429
 30
0.000000
  70
    32
  0
VERTEX
  8
0
  5
1622
 10
213.270
 20
82.4635
 30
0.000000
  70
    32
  0
VERTEX
  8
0
  5
1623
 10
213.303
 20
82.5863
 30
0.000000
  70
    32
  0
VERTEX
  8
0
  5
1624
 10
213.334
 20
82.7114
 30
0.000000
  70
    32
  0
VERTEX
  8
0
  5
1625
 10
213.365
 20
82.8387
 30
0.000000
  70
    32
  0
VERTEX
  8
0
  5
1626
 10
213.395
 20
82.9682
 30
0.000000
  70
    32
  0
VERTEX
  8
0
  5
1627
 10
213.423
 20
83.0996
 30
0.000000
  70
    32
  0
VERTEX
  8
0
  5
1628
 10
213.450
 20
83.2331
 30
0.000000
  70
    32
  0
VERTEX
  8
0
  5
1629
 10
213.477
 20
83.3684
 30
0.000000
  70
    32
  0
VERTEX
  8
0
  5
162A
 10
213.502
 20
83.5055
 30
0.000000
  70
    32
  0
VERTEX
  8
0
  5
162B
 10
213.526
 20
83.6444
 30
0.000000
  70
    32
  0
VERTEX
  8
0
  5
162C
 10
213.549
 20
83.7849
 30
0.000000
  70
    32
  0
VERTEX
  8
0
  5
162D
 10
213.571
 20
83.9269
 30
0.000000
  70
    32
  0
VERTEX
  8
0
  5
162E
 10
213.591
 20
84.0705
 30
0.000000
  70
    32
  0
VERTEX
  8
0
  5
162F
 10
213.611
 20
84.2155
 30
0.000000
  70
    32
  0
VERTEX
  8
0
  5
1630
 10
213.629
 20
84.3618
 30
0.000000
  70
    32
  0
VERTEX
  8
0
  5
1631
 10
213.646
 20
84.5093
 30
0.000000
  70
    32
  0
VERTEX
  8
0
  5
1632
 10
213.661
 20
84.6580
 30
0.000000
  70
    32
  0
VERTEX
  8
0
  5
1633
 10
213.676
 20
84.8077
 30
0.000000
  70
    32
  0
VERTEX
  8
0
  5
1634
 10
213.689
 20
84.9584
 30
0.000000
  70
    32
  0
VERTEX
  8
0
  5
1635
 10
213.701
 20
85.1100
 30
0.000000
  70
    32
  0
VERTEX
  8
0
  5
1636
 10
213.712
 20
85.2624
 30
0.000000
  70
    32
  0
VERTEX
  8
0
  5
1637
 10
213.722
 20
85.4156
 30
0.000000
  70
    32
  0
VERTEX
  8
0
  5
1638
 10
213.730
 20
85.5693
 30
0.000000
  70
    32
  0
VERTEX
  8
0
  5
1639
 10
213.737
 20
85.7236
 30
0.000000
  70
    32
  0
VERTEX
  8
0
  5
163A
 10
213.743
 20
85.8783
 30
0.000000
  70
    32
  0
VERTEX
  8
0
  5
163B
 10
213.747
 20
86.0334
 30
0.000000
  70
    32
  0
VERTEX
  8
0
  5
163C
 10
213.750
 20
86.1888
 30
0.000000
  70
    32
  0
VERTEX
  8
0
  5
163D
 10
213.752
 20
86.3444
 30
0.000000
  70
    32
  0
VERTEX
  8
0
  5
163E
 10
213.753
 20
86.5000
 30
0.000000
  70
    32
  0
VERTEX
  8
0
  5
163F
 10
213.752
 20
86.6556
 30
0.000000
  70
    32
  0
VERTEX
  8
0
  5
1640
 10
213.750
 20
86.8112
 30
0.000000
  70
    32
  0
VERTEX
  8
0
  5
1641
 10
213.747
 20
86.9666
 30
0.000000
  70
    32
  0
VERTEX
  8
0
  5
1642
 10
213.743
 20
87.1217
 30
0.000000
  70
    32
  0
VERTEX
  8
0
  5
1643
 10
213.737
 20
87.2764
 30
0.000000
  70
    32
  0
VERTEX
  8
0
  5
1644
 10
213.730
 20
87.4307
 30
0.000000
  70
    32
  0
VERTEX
  8
0
  5
1645
 10
213.722
 20
87.5844
 30
0.000000
  70
    32
  0
VERTEX
  8
0
  5
1646
 10
213.712
 20
87.7376
 30
0.000000
  70
    32
  0
VERTEX
  8
0
  5
1647
 10
213.701
 20
87.8900
 30
0.000000
  70
    32
  0
VERTEX
  8
0
  5
1648
 10
213.689
 20
88.0416
 30
0.000000
  70
    32
  0
VERTEX
  8
0
  5
1649
 10
213.676
 20
88.1923
 30
0.000000
  70
    32
  0
VERTEX
  8
0
  5
164A
 10
213.661
 20
88.3420
 30
0.000000
  70
    32
  0
VERTEX
  8
0
  5
164B
 10
213.646
 20
88.4907
 30
0.000000
  70
    32
  0
VERTEX
  8
0
  5
164C
 10
213.629
 20
88.6382
 30
0.000000
  70
    32
  0
VERTEX
  8
0
  5
164D
 10
213.611
 20
88.7845
 30
0.000000
  70
    32
  0
VERTEX
  8
0
  5
164E
 10
213.591
 20
88.9295
 30
0.000000
  70
    32
  0
VERTEX
  8
0
  5
164F
 10
213.571
 20
89.0731
 30
0.000000
  70
    32
  0
VERTEX
  8
0
  5
1650
 10
213.549
 20
89.2151
 30
0.000000
  70
    32
  0
VERTEX
  8
0
  5
1651
 10
213.526
 20
89.3556
 30
0.000000
  70
    32
  0
VERTEX
  8
0
  5
1652
 10
213.502
 20
89.4945
 30
0.000000
  70
    32
  0
VERTEX
  8
0
  5
1653
 10
213.477
 20
89.6316
 30
0.000000
  70
    32
  0
VERTEX
  8
0
  5
1654
 10
213.450
 20
89.7669
 30
0.000000
  70
    32
  0
VERTEX
  8
0
  5
1655
 10
213.423
 20
89.9004
 30
0.000000
  70
    32
  0
VERTEX
  8
0
  5
1656
 10
213.395
 20
90.0318
 30
0.000000
  70
    32
  0
VERTEX
  8
0
  5
1657
 10
213.365
 20
90.1613
 30
0.000000
  70
    32
  0
VERTEX
  8
0
  5
1658
 10
213.334
 20
90.2886
 30
0.000000
  70
    32
  0
VERTEX
  8
0
  5
1659
 10
213.303
 20
90.4137
 30
0.000000
  70
    32
  0
VERTEX
  8
0
  5
165A
 10
213.270
 20
90.5365
 30
0.000000
  70
    32
  0
VERTEX
  8
0
  5
165B
 10
213.236
 20
90.6571
 30
0.000000
  70
    32
  0
VERTEX
  8
0
  5
165C
 10
213.202
 20
90.7752
 30
0.000000
  70
    32
  0
VERTEX
  8
0
  5
165D
 10
213.166
 20
90.8908
 30
0.000000
  70
    32
  0
VERTEX
  8
0
  5
165E
 10
213.129
 20
91.0039
 30
0.000000
  70
    32
  0
VERTEX
  8
0
  5
165F
 10
213.092
 20
91.1145
 30
0.000000
  70
    32
  0
VERTEX
  8
0
  5
1660
 10
213.054
 20
91.2223
 30
0.000000
  70
    32
  0
VERTEX
  8
0
  5
1661
 10
213.014
 20
91.3274
 30
0.000000
  70
    32
  0
VERTEX
  8
0
  5
1662
 10
212.974
 20
91.4297
 30
0.000000
  70
    32
  0
VERTEX
  8
0
  5
1663
 10
212.933
 20
91.5292
 30
0.000000
  70
    32
  0
VERTEX
  8
0
  5
1664
 10
212.891
 20
91.6258
 30
0.000000
  70
    32
  0
VERTEX
  8
0
  5
1665
 10
212.849
 20
91.7194
 30
0.000000
  70
    32
  0
VERTEX
  8
0
  5
1666
 10
212.806
 20
91.8100
 30
0.000000
  70
    32
  0
VERTEX
  8
0
  5
1667
 10
212.762
 20
91.8975
 30
0.000000
  70
    32
  0
VERTEX
  8
0
  5
1668
 10
212.717
 20
91.9819
 30
0.000000
  70
    32
  0
VERTEX
  8
0
  5
1669
 10
212.671
 20
92.0631
 30
0.000000
  70
    32
  0
VERTEX
  8
0
  5
166A
 10
212.625
 20
92.1412
 30
0.000000
  70
    32
  0
VERTEX
  8
0
  5
166B
 10
212.579
 20
92.2159
 30
0.000000
  70
    32
  0
VERTEX
  8
0
  5
166C
 10
212.531
 20
92.2874
 30
0.000000
  70
    32
  0
VERTEX
  8
0
  5
166D
 10
212.484
 20
92.3555
 30
0.000000
  70
    32
  0
VERTEX
  8
0
  5
166E
 10
212.435
 20
92.4202
 30
0.000000
  70
    32
  0
VERTEX
  8
0
  5
166F
 10
212.386
 20
92.4815
 30
0.000000
  70
    32
  0
VERTEX
  8
0
  5
1670
 10
212.337
 20
92.5394
 30
0.000000
  70
    32
  0
VERTEX
  8
0
  5
1671
 10
212.287
 20
92.5937
 30
0.000000
  70
    32
  0
VERTEX
  8
0
  5
1672
 10
212.237
 20
92.6446
 30
0.000000
  70
    32
  0
VERTEX
  8
0
  5
1673
 10
212.186
 20
92.6919
 30
0.000000
  70
    32
  0
VERTEX
  8
0
  5
1674
 10
212.135
 20
92.7356
 30
0.000000
  70
    32
  0
VERTEX
  8
0
  5
1675
 10
212.083
 20
92.7757
 30
0.000000
  70
    32
  0
VERTEX
  8
0
  5
1676
 10
212.032
 20
92.8121
 30
0.000000
  70
    32
  0
VERTEX
  8
0
  5
1677
 10
211.980
 20
92.8450
 30
0.000000
  70
    32
  0
VERTEX
  8
0
  5
1678
 10
211.927
 20
92.8741
 30
0.000000
  70
    32
  0
VERTEX
  8
0
  5
1679
 10
211.875
 20
92.8996
 30
0.000000
  70
    32
  0
VERTEX
  8
0
  5
167A
 10
211.822
 20
92.9214
 30
0.000000
  70
    32
  0
VERTEX
  8
0
  5
167B
 10
211.769
 20
92.9395
 30
0.000000
  70
    32
  0
VERTEX
  8
0
  5
167C
 10
211.716
 20
92.9538
 30
0.000000
  70
    32
  0
VERTEX
  8
0
  5
167D
 10
211.663
 20
92.9644
 30
0.000000
  70
    32
  0
VERTEX
  8
0
  5
167E
 10
211.610
 20
92.9713
 30
0.000000
  70
    32
  0
SEQEND
  8
0
  5
167F
  0
CIRCLE
  5
FB2
  8
0
 10
179.5
 20
86.5
 30
0.0
 40
16.5
  0
LINE
  5
FB3
  8
0
 10
194.66575088810299
 20
80.0
 30
0.0
 11
295.55247930988207
 21
80.0
 31
0.0
  0
LINE
  5
FB4
  8
0
 10
295.55247930988207
 20
93.0
 30
0.0
 11
194.66575088810299
 21
93.0
 31
0.0
  0
POLYLINE
  5
FB5
  8
0
 10
294.1550942762151
 20
93.809193622525626
 30
0.0
 66
     1
 70
     8
  0
VERTEX
  8
0
  5
1680
 10
294.155
 20
93.8092
 30
0.000000
  70
    32
  0
VERTEX
  8
0
  5
1681
 10
294.152
 20
93.8037
 30
0.000000
  70
    32
  0
VERTEX
  8
0
  5
1682
 10
294.148
 20
93.7982
 30
0.000000
  70
    32
  0
VERTEX
  8
0
  5
1683
 10
294.145
 20
93.7926
 30
0.000000
  70
    32
  0
VERTEX
  8
0
  5
1684
 10
294.142
 20
93.7871
 30
0.000000
  70
    32
  0
VERTEX
  8
0
  5
1685
 10
294.138
 20
93.7815
 30
0.000000
  70
    32
  0
VERTEX
  8
0
  5
1686
 10
294.135
 20
93.7759
 30
0.000000
  70
    32
  0
VERTEX
  8
0
  5
1687
 10
294.132
 20
93.7704
 30
0.000000
  70
    32
  0
VERTEX
  8
0
  5
1688
 10
294.128
 20
93.7647
 30
0.000000
  70
    32
  0
VERTEX
  8
0
  5
1689
 10
294.125
 20
93.7591
 30
0.000000
  70
    32
  0
VERTEX
  8
0
  5
168A
 10
294.122
 20
93.7535
 30
0.000000
  70
    32
  0
VERTEX
  8
0
  5
168B
 10
294.118
 20
93.7479
 30
0.000000
  70
    32
  0
VERTEX
  8
0
  5
168C
 10
294.115
 20
93.7422
 30
0.000000
  70
    32
  0
VERTEX
  8
0
  5
168D
 10
294.112
 20
93.7365
 30
0.000000
  70
    32
  0
VERTEX
  8
0
  5
168E
 10
294.108
 20
93.7309
 30
0.000000
  70
    32
  0
VERTEX
  8
0
  5
168F
 10
294.105
 20
93.7252
 30
0.000000
  70
    32
  0
VERTEX
  8
0
  5
1690
 10
294.102
 20
93.7195
 30
0.000000
  70
    32
  0
VERTEX
  8
0
  5
1691
 10
294.098
 20
93.7137
 30
0.000000
  70
    32
  0
VERTEX
  8
0
  5
1692
 10
294.095
 20
93.7080
 30
0.000000
  70
    32
  0
VERTEX
  8
0
  5
1693
 10
294.092
 20
93.7023
 30
0.000000
  70
    32
  0
VERTEX
  8
0
  5
1694
 10
294.088
 20
93.6965
 30
0.000000
  70
    32
  0
VERTEX
  8
0
  5
1695
 10
294.085
 20
93.6907
 30
0.000000
  70
    32
  0
VERTEX
  8
0
  5
1696
 10
294.082
 20
93.6849
 30
0.000000
  70
    32
  0
VERTEX
  8
0
  5
1697
 10
294.078
 20
93.6791
 30
0.000000
  70
    32
  0
VERTEX
  8
0
  5
1698
 10
294.075
 20
93.6733
 30
0.000000
  70
    32
  0
VERTEX
  8
0
  5
1699
 10
294.072
 20
93.6675
 30
0.000000
  70
    32
  0
VERTEX
  8
0
  5
169A
 10
294.068
 20
93.6617
 30
0.000000
  70
    32
  0
VERTEX
  8
0
  5
169B
 10
294.065
 20
93.6558
 30
0.000000
  70
    32
  0
VERTEX
  8
0
  5
169C
 10
294.062
 20
93.6500
 30
0.000000
  70
    32
  0
VERTEX
  8
0
  5
169D
 10
294.059
 20
93.6441
 30
0.000000
  70
    32
  0
VERTEX
  8
0
  5
169E
 10
294.055
 20
93.6382
 30
0.000000
  70
    32
  0
VERTEX
  8
0
  5
169F
 10
294.052
 20
93.6323
 30
0.000000
  70
    32
  0
VERTEX
  8
0
  5
16A0
 10
294.049
 20
93.6264
 30
0.000000
  70
    32
  0
VERTEX
  8
0
  5
16A1
 10
294.045
 20
93.6204
 30
0.000000
  70
    32
  0
VERTEX
  8
0
  5
16A2
 10
294.042
 20
93.6145
 30
0.000000
  70
    32
  0
VERTEX
  8
0
  5
16A3
 10
294.039
 20
93.6086
 30
0.000000
  70
    32
  0
VERTEX
  8
0
  5
16A4
 10
294.036
 20
93.6026
 30
0.000000
  70
    32
  0
VERTEX
  8
0
  5
16A5
 10
294.032
 20
93.5966
 30
0.000000
  70
    32
  0
VERTEX
  8
0
  5
16A6
 10
294.029
 20
93.5906
 30
0.000000
  70
    32
  0
VERTEX
  8
0
  5
16A7
 10
294.026
 20
93.5846
 30
0.000000
  70
    32
  0
VERTEX
  8
0
  5
16A8
 10
294.023
 20
93.5786
 30
0.000000
  70
    32
  0
VERTEX
  8
0
  5
16A9
 10
294.019
 20
93.5726
 30
0.000000
  70
    32
  0
VERTEX
  8
0
  5
16AA
 10
294.016
 20
93.5665
 30
0.000000
  70
    32
  0
VERTEX
  8
0
  5
16AB
 10
294.013
 20
93.5605
 30
0.000000
  70
    32
  0
VERTEX
  8
0
  5
16AC
 10
294.009
 20
93.5544
 30
0.000000
  70
    32
  0
VERTEX
  8
0
  5
16AD
 10
294.006
 20
93.5483
 30
0.000000
  70
    32
  0
VERTEX
  8
0
  5
16AE
 10
294.003
 20
93.5422
 30
0.000000
  70
    32
  0
VERTEX
  8
0
  5
16AF
 10
294.000
 20
93.5361
 30
0.000000
  70
    32
  0
VERTEX
  8
0
  5
16B0
 10
293.997
 20
93.5300
 30
0.000000
  70
    32
  0
VERTEX
  8
0
  5
16B1
 10
293.993
 20
93.5239
 30
0.000000
  70
    32
  0
VERTEX
  8
0
  5
16B2
 10
293.990
 20
93.5177
 30
0.000000
  70
    32
  0
VERTEX
  8
0
  5
16B3
 10
293.987
 20
93.5115
 30
0.000000
  70
    32
  0
VERTEX
  8
0
  5
16B4
 10
293.984
 20
93.5054
 30
0.000000
  70
    32
  0
VERTEX
  8
0
  5
16B5
 10
293.980
 20
93.4992
 30
0.000000
  70
    32
  0
VERTEX
  8
0
  5
16B6
 10
293.977
 20
93.4930
 30
0.000000
  70
    32
  0
VERTEX
  8
0
  5
16B7
 10
293.974
 20
93.4868
 30
0.000000
  70
    32
  0
VERTEX
  8
0
  5
16B8
 10
293.971
 20
93.4806
 30
0.000000
  70
    32
  0
VERTEX
  8
0
  5
16B9
 10
293.967
 20
93.4743
 30
0.000000
  70
    32
  0
VERTEX
  8
0
  5
16BA
 10
293.964
 20
93.4681
 30
0.000000
  70
    32
  0
VERTEX
  8
0
  5
16BB
 10
293.961
 20
93.4618
 30
0.000000
  70
    32
  0
VERTEX
  8
0
  5
16BC
 10
293.958
 20
93.4555
 30
0.000000
  70
    32
  0
VERTEX
  8
0
  5
16BD
 10
293.955
 20
93.4493
 30
0.000000
  70
    32
  0
VERTEX
  8
0
  5
16BE
 10
293.951
 20
93.4430
 30
0.000000
  70
    32
  0
VERTEX
  8
0
  5
16BF
 10
293.948
 20
93.4366
 30
0.000000
  70
    32
  0
VERTEX
  8
0
  5
16C0
 10
293.945
 20
93.4303
 30
0.000000
  70
    32
  0
VERTEX
  8
0
  5
16C1
 10
293.942
 20
93.4240
 30
0.000000
  70
    32
  0
VERTEX
  8
0
  5
16C2
 10
293.939
 20
93.4176
 30
0.000000
  70
    32
  0
VERTEX
  8
0
  5
16C3
 10
293.936
 20
93.4113
 30
0.000000
  70
    32
  0
VERTEX
  8
0
  5
16C4
 10
293.932
 20
93.4049
 30
0.000000
  70
    32
  0
VERTEX
  8
0
  5
16C5
 10
293.929
 20
93.3985
 30
0.000000
  70
    32
  0
VERTEX
  8
0
  5
16C6
 10
293.926
 20
93.3921
 30
0.000000
  70
    32
  0
VERTEX
  8
0
  5
16C7
 10
293.923
 20
93.3857
 30
0.000000
  70
    32
  0
VERTEX
  8
0
  5
16C8
 10
293.920
 20
93.3793
 30
0.000000
  70
    32
  0
VERTEX
  8
0
  5
16C9
 10
293.916
 20
93.3729
 30
0.000000
  70
    32
  0
VERTEX
  8
0
  5
16CA
 10
293.913
 20
93.3664
 30
0.000000
  70
    32
  0
VERTEX
  8
0
  5
16CB
 10
293.910
 20
93.3599
 30
0.000000
  70
    32
  0
VERTEX
  8
0
  5
16CC
 10
293.907
 20
93.3535
 30
0.000000
  70
    32
  0
VERTEX
  8
0
  5
16CD
 10
293.904
 20
93.3470
 30
0.000000
  70
    32
  0
VERTEX
  8
0
  5
16CE
 10
293.901
 20
93.3405
 30
0.000000
  70
    32
  0
VERTEX
  8
0
  5
16CF
 10
293.898
 20
93.3340
 30
0.000000
  70
    32
  0
VERTEX
  8
0
  5
16D0
 10
293.894
 20
93.3275
 30
0.000000
  70
    32
  0
VERTEX
  8
0
  5
16D1
 10
293.891
 20
93.3209
 30
0.000000
  70
    32
  0
VERTEX
  8
0
  5
16D2
 10
293.888
 20
93.3144
 30
0.000000
  70
    32
  0
VERTEX
  8
0
  5
16D3
 10
293.885
 20
93.3078
 30
0.000000
  70
    32
  0
VERTEX
  8
0
  5
16D4
 10
293.882
 20
93.3012
 30
0.000000
  70
    32
  0
VERTEX
  8
0
  5
16D5
 10
293.879
 20
93.2946
 30
0.000000
  70
    32
  0
VERTEX
  8
0
  5
16D6
 10
293.876
 20
93.2881
 30
0.000000
  70
    32
  0
VERTEX
  8
0
  5
16D7
 10
293.872
 20
93.2814
 30
0.000000
  70
    32
  0
VERTEX
  8
0
  5
16D8
 10
293.869
 20
93.2748
 30
0.000000
  70
    32
  0
VERTEX
  8
0
  5
16D9
 10
293.866
 20
93.2682
 30
0.000000
  70
    32
  0
VERTEX
  8
0
  5
16DA
 10
293.863
 20
93.2615
 30
0.000000
  70
    32
  0
VERTEX
  8
0
  5
16DB
 10
293.860
 20
93.2549
 30
0.000000
  70
    32
  0
VERTEX
  8
0
  5
16DC
 10
293.857
 20
93.2482
 30
0.000000
  70
    32
  0
VERTEX
  8
0
  5
16DD
 10
293.854
 20
93.2415
 30
0.000000
  70
    32
  0
VERTEX
  8
0
  5
16DE
 10
293.851
 20
93.2348
 30
0.000000
  70
    32
  0
VERTEX
  8
0
  5
16DF
 10
293.848
 20
93.2281
 30
0.000000
  70
    32
  0
VERTEX
  8
0
  5
16E0
 10
293.844
 20
93.2214
 30
0.000000
  70
    32
  0
VERTEX
  8
0
  5
16E1
 10
293.841
 20
93.2147
 30
0.000000
  70
    32
  0
VERTEX
  8
0
  5
16E2
 10
293.838
 20
93.2079
 30
0.000000
  70
    32
  0
VERTEX
  8
0
  5
16E3
 10
293.835
 20
93.2012
 30
0.000000
  70
    32
  0
VERTEX
  8
0
  5
16E4
 10
293.832
 20
93.1944
 30
0.000000
  70
    32
  0
VERTEX
  8
0
  5
16E5
 10
293.829
 20
93.1876
 30
0.000000
  70
    32
  0
VERTEX
  8
0
  5
16E6
 10
293.826
 20
93.1808
 30
0.000000
  70
    32
  0
VERTEX
  8
0
  5
16E7
 10
293.823
 20
93.1740
 30
0.000000
  70
    32
  0
VERTEX
  8
0
  5
16E8
 10
293.820
 20
93.1672
 30
0.000000
  70
    32
  0
VERTEX
  8
0
  5
16E9
 10
293.817
 20
93.1604
 30
0.000000
  70
    32
  0
VERTEX
  8
0
  5
16EA
 10
293.814
 20
93.1535
 30
0.000000
  70
    32
  0
VERTEX
  8
0
  5
16EB
 10
293.811
 20
93.1467
 30
0.000000
  70
    32
  0
VERTEX
  8
0
  5
16EC
 10
293.808
 20
93.1398
 30
0.000000
  70
    32
  0
VERTEX
  8
0
  5
16ED
 10
293.804
 20
93.1329
 30
0.000000
  70
    32
  0
VERTEX
  8
0
  5
16EE
 10
293.801
 20
93.1261
 30
0.000000
  70
    32
  0
VERTEX
  8
0
  5
16EF
 10
293.798
 20
93.1192
 30
0.000000
  70
    32
  0
VERTEX
  8
0
  5
16F0
 10
293.795
 20
93.1122
 30
0.000000
  70
    32
  0
VERTEX
  8
0
  5
16F1
 10
293.792
 20
93.1053
 30
0.000000
  70
    32
  0
VERTEX
  8
0
  5
16F2
 10
293.789
 20
93.0984
 30
0.000000
  70
    32
  0
VERTEX
  8
0
  5
16F3
 10
293.786
 20
93.0914
 30
0.000000
  70
    32
  0
VERTEX
  8
0
  5
16F4
 10
293.783
 20
93.0845
 30
0.000000
  70
    32
  0
VERTEX
  8
0
  5
16F5
 10
293.780
 20
93.0775
 30
0.000000
  70
    32
  0
VERTEX
  8
0
  5
16F6
 10
293.777
 20
93.0705
 30
0.000000
  70
    32
  0
VERTEX
  8
0
  5
16F7
 10
293.774
 20
93.0635
 30
0.000000
  70
    32
  0
VERTEX
  8
0
  5
16F8
 10
293.771
 20
93.0565
 30
0.000000
  70
    32
  0
VERTEX
  8
0
  5
16F9
 10
293.768
 20
93.0495
 30
0.000000
  70
    32
  0
VERTEX
  8
0
  5
16FA
 10
293.765
 20
93.0424
 30
0.000000
  70
    32
  0
VERTEX
  8
0
  5
16FB
 10
293.762
 20
93.0354
 30
0.000000
  70
    32
  0
VERTEX
  8
0
  5
16FC
 10
293.759
 20
93.0283
 30
0.000000
  70
    32
  0
VERTEX
  8
0
  5
16FD
 10
293.756
 20
93.0213
 30
0.000000
  70
    32
  0
VERTEX
  8
0
  5
16FE
 10
293.753
 20
93.0142
 30
0.000000
  70
    32
  0
VERTEX
  8
0
  5
16FF
 10
293.750
 20
93.0071
 30
0.000000
  70
    32
  0
VERTEX
  8
0
  5
1700
 10
293.747
 20
93.0000
 30
0.000000
  70
    32
  0
SEQEND
  8
0
  5
1701
  0
POLYLINE
  5
FB6
  8
0
 10
293.74697908644134
 20
80.0
 30
0.0
 66
     1
 70
     8
  0
VERTEX
  8
0
  5
1702
 10
293.747
 20
80.0000
 30
0.000000
  70
    32
  0
VERTEX
  8
0
  5
1703
 10
293.750
 20
79.9929
 30
0.000000
  70
    32
  0
VERTEX
  8
0
  5
1704
 10
293.753
 20
79.9858
 30
0.000000
  70
    32
  0
VERTEX
  8
0
  5
1705
 10
293.756
 20
79.9787
 30
0.000000
  70
    32
  0
VERTEX
  8
0
  5
1706
 10
293.759
 20
79.9717
 30
0.000000
  70
    32
  0
VERTEX
  8
0
  5
1707
 10
293.762
 20
79.9646
 30
0.000000
  70
    32
  0
VERTEX
  8
0
  5
1708
 10
293.765
 20
79.9576
 30
0.000000
  70
    32
  0
VERTEX
  8
0
  5
1709
 10
293.768
 20
79.9506
 30
0.000000
  70
    32
  0
VERTEX
  8
0
  5
170A
 10
293.771
 20
79.9435
 30
0.000000
  70
    32
  0
VERTEX
  8
0
  5
170B
 10
293.774
 20
79.9365
 30
0.000000
  70
    32
  0
VERTEX
  8
0
  5
170C
 10
293.777
 20
79.9295
 30
0.000000
  70
    32
  0
VERTEX
  8
0
  5
170D
 10
293.780
 20
79.9226
 30
0.000000
  70
    32
  0
VERTEX
  8
0
  5
170E
 10
293.783
 20
79.9156
 30
0.000000
  70
    32
  0
VERTEX
  8
0
  5
170F
 10
293.786
 20
79.9086
 30
0.000000
  70
    32
  0
VERTEX
  8
0
  5
1710
 10
293.789
 20
79.9017
 30
0.000000
  70
    32
  0
VERTEX
  8
0
  5
1711
 10
293.792
 20
79.8948
 30
0.000000
  70
    32
  0
VERTEX
  8
0
  5
1712
 10
293.795
 20
79.8878
 30
0.000000
  70
    32
  0
VERTEX
  8
0
  5
1713
 10
293.798
 20
79.8809
 30
0.000000
  70
    32
  0
VERTEX
  8
0
  5
1714
 10
293.801
 20
79.8740
 30
0.000000
  70
    32
  0
VERTEX
  8
0
  5
1715
 10
293.804
 20
79.8672
 30
0.000000
  70
    32
  0
VERTEX
  8
0
  5
1716
 10
293.807
 20
79.8603
 30
0.000000
  70
    32
  0
VERTEX
  8
0
  5
1717
 10
293.811
 20
79.8534
 30
0.000000
  70
    32
  0
VERTEX
  8
0
  5
1718
 10
293.814
 20
79.8466
 30
0.000000
  70
    32
  0
VERTEX
  8
0
  5
1719
 10
293.817
 20
79.8397
 30
0.000000
  70
    32
  0
VERTEX
  8
0
  5
171A
 10
293.820
 20
79.8329
 30
0.000000
  70
    32
  0
VERTEX
  8
0
  5
171B
 10
293.823
 20
79.8261
 30
0.000000
  70
    32
  0
VERTEX
  8
0
  5
171C
 10
293.826
 20
79.8193
 30
0.000000
  70
    32
  0
VERTEX
  8
0
  5
171D
 10
293.829
 20
79.8125
 30
0.000000
  70
    32
  0
VERTEX
  8
0
  5
171E
 10
293.832
 20
79.8057
 30
0.000000
  70
    32
  0
VERTEX
  8
0
  5
171F
 10
293.835
 20
79.7990
 30
0.000000
  70
    32
  0
VERTEX
  8
0
  5
1720
 10
293.838
 20
79.7922
 30
0.000000
  70
    32
  0
VERTEX
  8
0
  5
1721
 10
293.841
 20
79.7855
 30
0.000000
  70
    32
  0
VERTEX
  8
0
  5
1722
 10
293.844
 20
79.7788
 30
0.000000
  70
    32
  0
VERTEX
  8
0
  5
1723
 10
293.847
 20
79.7720
 30
0.000000
  70
    32
  0
VERTEX
  8
0
  5
1724
 10
293.851
 20
79.7653
 30
0.000000
  70
    32
  0
VERTEX
  8
0
  5
1725
 10
293.854
 20
79.7586
 30
0.000000
  70
    32
  0
VERTEX
  8
0
  5
1726
 10
293.857
 20
79.7520
 30
0.000000
  70
    32
  0
VERTEX
  8
0
  5
1727
 10
293.860
 20
79.7453
 30
0.000000
  70
    32
  0
VERTEX
  8
0
  5
1728
 10
293.863
 20
79.7386
 30
0.000000
  70
    32
  0
VERTEX
  8
0
  5
1729
 10
293.866
 20
79.7320
 30
0.000000
  70
    32
  0
VERTEX
  8
0
  5
172A
 10
293.869
 20
79.7254
 30
0.000000
  70
    32
  0
VERTEX
  8
0
  5
172B
 10
293.872
 20
79.7188
 30
0.000000
  70
    32
  0
VERTEX
  8
0
  5
172C
 10
293.875
 20
79.7122
 30
0.000000
  70
    32
  0
VERTEX
  8
0
  5
172D
 10
293.879
 20
79.7056
 30
0.000000
  70
    32
  0
VERTEX
  8
0
  5
172E
 10
293.882
 20
79.6990
 30
0.000000
  70
    32
  0
VERTEX
  8
0
  5
172F
 10
293.885
 20
79.6924
 30
0.000000
  70
    32
  0
VERTEX
  8
0
  5
1730
 10
293.888
 20
79.6859
 30
0.000000
  70
    32
  0
VERTEX
  8
0
  5
1731
 10
293.891
 20
79.6793
 30
0.000000
  70
    32
  0
VERTEX
  8
0
  5
1732
 10
293.894
 20
79.6728
 30
0.000000
  70
    32
  0
VERTEX
  8
0
  5
1733
 10
293.897
 20
79.6663
 30
0.000000
  70
    32
  0
VERTEX
  8
0
  5
1734
 10
293.901
 20
79.6598
 30
0.000000
  70
    32
  0
VERTEX
  8
0
  5
1735
 10
293.904
 20
79.6533
 30
0.000000
  70
    32
  0
VERTEX
  8
0
  5
1736
 10
293.907
 20
79.6468
 30
0.000000
  70
    32
  0
VERTEX
  8
0
  5
1737
 10
293.910
 20
79.6403
 30
0.000000
  70
    32
  0
VERTEX
  8
0
  5
1738
 10
293.913
 20
79.6339
 30
0.000000
  70
    32
  0
VERTEX
  8
0
  5
1739
 10
293.916
 20
79.6274
 30
0.000000
  70
    32
  0
VERTEX
  8
0
  5
173A
 10
293.919
 20
79.6210
 30
0.000000
  70
    32
  0
VERTEX
  8
0
  5
173B
 10
293.923
 20
79.6146
 30
0.000000
  70
    32
  0
VERTEX
  8
0
  5
173C
 10
293.926
 20
79.6082
 30
0.000000
  70
    32
  0
VERTEX
  8
0
  5
173D
 10
293.929
 20
79.6018
 30
0.000000
  70
    32
  0
VERTEX
  8
0
  5
173E
 10
293.932
 20
79.5954
 30
0.000000
  70
    32
  0
VERTEX
  8
0
  5
173F
 10
293.935
 20
79.5890
 30
0.000000
  70
    32
  0
VERTEX
  8
0
  5
1740
 10
293.939
 20
79.5827
 30
0.000000
  70
    32
  0
VERTEX
  8
0
  5
1741
 10
293.942
 20
79.5763
 30
0.000000
  70
    32
  0
VERTEX
  8
0
  5
1742
 10
293.945
 20
79.5700
 30
0.000000
  70
    32
  0
VERTEX
  8
0
  5
1743
 10
293.948
 20
79.5637
 30
0.000000
  70
    32
  0
VERTEX
  8
0
  5
1744
 10
293.951
 20
79.5574
 30
0.000000
  70
    32
  0
VERTEX
  8
0
  5
1745
 10
293.954
 20
79.5511
 30
0.000000
  70
    32
  0
VERTEX
  8
0
  5
1746
 10
293.958
 20
79.5448
 30
0.000000
  70
    32
  0
VERTEX
  8
0
  5
1747
 10
293.961
 20
79.5385
 30
0.000000
  70
    32
  0
VERTEX
  8
0
  5
1748
 10
293.964
 20
79.5323
 30
0.000000
  70
    32
  0
VERTEX
  8
0
  5
1749
 10
293.967
 20
79.5260
 30
0.000000
  70
    32
  0
VERTEX
  8
0
  5
174A
 10
293.971
 20
79.5198
 30
0.000000
  70
    32
  0
VERTEX
  8
0
  5
174B
 10
293.974
 20
79.5136
 30
0.000000
  70
    32
  0
VERTEX
  8
0
  5
174C
 10
293.977
 20
79.5074
 30
0.000000
  70
    32
  0
VERTEX
  8
0
  5
174D
 10
293.980
 20
79.5012
 30
0.000000
  70
    32
  0
VERTEX
  8
0
  5
174E
 10
293.983
 20
79.4950
 30
0.000000
  70
    32
  0
VERTEX
  8
0
  5
174F
 10
293.987
 20
79.4888
 30
0.000000
  70
    32
  0
VERTEX
  8
0
  5
1750
 10
293.990
 20
79.4827
 30
0.000000
  70
    32
  0
VERTEX
  8
0
  5
1751
 10
293.993
 20
79.4765
 30
0.000000
  70
    32
  0
VERTEX
  8
0
  5
1752
 10
293.996
 20
79.4704
 30
0.000000
  70
    32
  0
VERTEX
  8
0
  5
1753
 10
294.000
 20
79.4643
 30
0.000000
  70
    32
  0
VERTEX
  8
0
  5
1754
 10
294.003
 20
79.4582
 30
0.000000
  70
    32
  0
VERTEX
  8
0
  5
1755
 10
294.006
 20
79.4521
 30
0.000000
  70
    32
  0
VERTEX
  8
0
  5
1756
 10
294.009
 20
79.4460
 30
0.000000
  70
    32
  0
VERTEX
  8
0
  5
1757
 10
294.013
 20
79.4399
 30
0.000000
  70
    32
  0
VERTEX
  8
0
  5
1758
 10
294.016
 20
79.4339
 30
0.000000
  70
    32
  0
VERTEX
  8
0
  5
1759
 10
294.019
 20
79.4278
 30
0.000000
  70
    32
  0
VERTEX
  8
0
  5
175A
 10
294.022
 20
79.4218
 30
0.000000
  70
    32
  0
VERTEX
  8
0
  5
175B
 10
294.026
 20
79.4158
 30
0.000000
  70
    32
  0
VERTEX
  8
0
  5
175C
 10
294.029
 20
79.4098
 30
0.000000
  70
    32
  0
VERTEX
  8
0
  5
175D
 10
294.032
 20
79.4038
 30
0.000000
  70
    32
  0
VERTEX
  8
0
  5
175E
 10
294.035
 20
79.3978
 30
0.000000
  70
    32
  0
VERTEX
  8
0
  5
175F
 10
294.039
 20
79.3919
 30
0.000000
  70
    32
  0
VERTEX
  8
0
  5
1760
 10
294.042
 20
79.3859
 30
0.000000
  70
    32
  0
VERTEX
  8
0
  5
1761
 10
294.045
 20
79.3800
 30
0.000000
  70
    32
  0
VERTEX
  8
0
  5
1762
 10
294.048
 20
79.3740
 30
0.000000
  70
    32
  0
VERTEX
  8
0
  5
1763
 10
294.052
 20
79.3681
 30
0.000000
  70
    32
  0
VERTEX
  8
0
  5
1764
 10
294.055
 20
79.3622
 30
0.000000
  70
    32
  0
VERTEX
  8
0
  5
1765
 10
294.058
 20
79.3564
 30
0.000000
  70
    32
  0
VERTEX
  8
0
  5
1766
 10
294.062
 20
79.3505
 30
0.000000
  70
    32
  0
VERTEX
  8
0
  5
1767
 10
294.065
 20
79.3446
 30
0.000000
  70
    32
  0
VERTEX
  8
0
  5
1768
 10
294.068
 20
79.3388
 30
0.000000
  70
    32
  0
VERTEX
  8
0
  5
1769
 10
294.071
 20
79.3329
 30
0.000000
  70
    32
  0
VERTEX
  8
0
  5
176A
 10
294.075
 20
79.3271
 30
0.000000
  70
    32
  0
VERTEX
  8
0
  5
176B
 10
294.078
 20
79.3213
 30
0.000000
  70
    32
  0
VERTEX
  8
0
  5
176C
 10
294.081
 20
79.3155
 30
0.000000
  70
    32
  0
VERTEX
  8
0
  5
176D
 10
294.085
 20
79.3097
 30
0.000000
  70
    32
  0
VERTEX
  8
0
  5
176E
 10
294.088
 20
79.3040
 30
0.000000
  70
    32
  0
VERTEX
  8
0
  5
176F
 10
294.091
 20
79.2982
 30
0.000000
  70
    32
  0
VERTEX
  8
0
  5
1770
 10
294.095
 20
79.2925
 30
0.000000
  70
    32
  0
VERTEX
  8
0
  5
1771
 10
294.098
 20
79.2867
 30
0.000000
  70
    32
  0
VERTEX
  8
0
  5
1772
 10
294.101
 20
79.2810
 30
0.000000
  70
    32
  0
VERTEX
  8
0
  5
1773
 10
294.105
 20
79.2753
 30
0.000000
  70
    32
  0
VERTEX
  8
0
  5
1774
 10
294.108
 20
79.2696
 30
0.000000
  70
    32
  0
VERTEX
  8
0
  5
1775
 10
294.111
 20
79.2639
 30
0.000000
  70
    32
  0
VERTEX
  8
0
  5
1776
 10
294.115
 20
79.2583
 30
0.000000
  70
    32
  0
VERTEX
  8
0
  5
1777
 10
294.118
 20
79.2526
 30
0.000000
  70
    32
  0
VERTEX
  8
0
  5
1778
 10
294.121
 20
79.2470
 30
0.000000
  70
    32
  0
VERTEX
  8
0
  5
1779
 10
294.125
 20
79.2414
 30
0.000000
  70
    32
  0
VERTEX
  8
0
  5
177A
 10
294.128
 20
79.2358
 30
0.000000
  70
    32
  0
VERTEX
  8
0
  5
177B
 10
294.131
 20
79.2302
 30
0.000000
  70
    32
  0
VERTEX
  8
0
  5
177C
 10
294.135
 20
79.2246
 30
0.000000
  70
    32
  0
VERTEX
  8
0
  5
177D
 10
294.138
 20
79.2190
 30
0.000000
  70
    32
  0
VERTEX
  8
0
  5
177E
 10
294.141
 20
79.2134
 30
0.000000
  70
    32
  0
VERTEX
  8
0
  5
177F
 10
294.145
 20
79.2079
 30
0.000000
  70
    32
  0
VERTEX
  8
0
  5
1780
 10
294.148
 20
79.2024
 30
0.000000
  70
    32
  0
VERTEX
  8
0
  5
1781
 10
294.151
 20
79.1968
 30
0.000000
  70
    32
  0
VERTEX
  8
0
  5
1782
 10
294.155
 20
79.1913
 30
0.000000
  70
    32
  0
SEQEND
  8
0
  5
1783
  0
POLYLINE
  5
FB7
  8
0
 66
     1
 10
0.0
 20
0.0
 30
0.0
  0
VERTEX
  5
1267
  8
0
 10
294.15477130797649
 20
79.191334298471446
 30
0.0
  0
VERTEX
  5
1268
  8
0
 10
294.25868317611912
 20
79.024701149919906
 30
0.0
  0
VERTEX
  5
1269
  8
0
 10
294.5714097469866
 20
78.550021984891373
 30
0.0
  0
VERTEX
  5
126A
  8
0
 10
294.90248163774032
 20
78.085734056396518
 30
0.0
  0
VERTEX
  5
126B
  8
0
 10
295.25139422681508
 20
77.632725078773262
 30
0.0
  0
VERTEX
  5
126C
  8
0
 10
295.6176189075104
 20
77.191831647282982
 30
0.0
  0
VERTEX
  5
126D
  8
0
 10
296.00060577488512
 20
76.763841339883129
 30
0.0
  0
VERTEX
  5
126E
  8
0
 10
296.39978550291647
 20
76.349495574554965
 30
0.0
  0
VERTEX
  5
126F
  8
0
 10
296.8145706665382
 20
75.949492586946633
 30
0.0
  0
VERTEX
  5
1270
  8
0
 10
297.24435670559768
 20
75.56449019700085
 30
0.0
  0
VERTEX
  5
1271
  8
0
 10
297.68852267319221
 20
75.195108218156065
 30
0.0
  0
VERTEX
  5
1272
  8
0
 10
298.14643186654388
 20
74.841930467951556
 30
0.0
  0
VERTEX
  5
1273
  8
0
 10
298.67010361425309
 20
74.469483477700692
 30
0.0
  0
VERTEX
  5
1274
  8
0
 10
299.20822297863492
 20
74.118871389722585
 30
0.0
  0
VERTEX
  5
1275
  8
0
 10
299.7583459472703
 20
73.79147902740317
 30
0.0
  0
VERTEX
  5
1276
  8
0
 10
300.31943671686213
 20
73.487602786843013
 30
0.0
  0
VERTEX
  5
1277
  8
0
 10
300.89050036321851
 20
73.207477955436616
 30
0.0
  0
VERTEX
  5
1278
  8
0
 10
301.47054604389859
 20
72.951304462160579
 30
0.0
  0
VERTEX
  5
1279
  8
0
 10
302.05858601106769
 20
72.719247839555294
 30
0.0
  0
VERTEX
  5
127A
  8
0
 10
302.6536357373493
 20
72.511439447261296
 30
0.0
  0
VERTEX
  5
127B
  8
0
 10
303.25471426134601
 20
72.327976567533256
 30
0.0
  0
VERTEX
  5
127C
  8
0
 10
303.86084469672249
 20
72.1689224360141
 30
0.0
  0
VERTEX
  5
127D
  8
0
 10
304.47105487363712
 20
72.034306244672507
 30
0.0
  0
VERTEX
  5
127E
  8
0
 10
305.08437808697408
 20
71.924123142398969
 30
0.0
  0
VERTEX
  5
127F
  8
0
 10
305.69985393018692
 20
71.838334250723847
 30
0.0
  0
VERTEX
  5
1280
  8
0
 10
306.31652919711843
 20
71.776866706361659
 30
0.0
  0
VERTEX
  5
1281
  8
0
 10
306.93345883704268
 20
71.739613738130799
 30
0.0
  0
VERTEX
  5
1282
  8
0
 10
307.54970695052538
 20
71.726434782784281
 30
0.0
  0
VERTEX
  5
1283
  8
0
 10
308.16434781558019
 20
71.737155642070704
 30
0.0
  0
VERTEX
  5
1284
  8
0
 10
308.7764653093131
 20
71.771568558712943
 30
0.0
  0
VERTEX
  5
1285
  8
0
 10
309.38515527850132
 20
71.829432290270404
 30
0.0
  0
VERTEX
  5
1286
  8
0
 10
309.98952892552012
 20
71.910472679467205
 30
0.0
  0
VERTEX
  5
1287
  8
0
 10
310.58871185179902
 20
72.014382966435107
 30
0.0
  0
VERTEX
  5
1288
  8
0
 10
311.18184512386171
 20
72.140824131123495
 30
0.0
  0
VERTEX
  5
1289
  8
0
 10
311.76808632955232
 20
72.289425265394925
 30
0.0
  0
VERTEX
  5
128A
  8
0
 10
312.3466106208387
 20
72.459783969804221
 30
0.0
  0
VERTEX
  5
128B
  8
0
 10
312.91661173945448
 20
72.651466769238823
 30
0.0
  0
VERTEX
  5
128C
  8
0
 10
313.47730302197721
 20
72.864009540698248
 30
0.0
  0
VERTEX
  5
128D
  8
0
 10
314.0279183812558
 20
73.096917945451295
 30
0.0
  0
VERTEX
  5
128E
  8
0
 10
314.56771326142803
 20
73.349667856620272
 30
0.0
  0
VERTEX
  5
128F
  8
0
 10
315.09596556411179
 20
73.621705771864754
 30
0.0
  0
VERTEX
  5
1290
  8
0
 10
315.61197654382067
 20
73.912449199281014
 30
0.0
  0
VERTEX
  5
1291
  8
0
 10
316.11507167126712
 20
74.221287002932627
 30
0.0
  0
VERTEX
  5
1292
  8
0
 10
316.60460146408923
 20
74.547579692641634
 30
0.0
  0
VERTEX
  5
1293
  8
0
 10
317.07994228587489
 20
74.890659641041225
 30
0.0
  0
VERTEX
  5
1294
  8
0
 10
317.5404971163116
 20
75.249831209735021
 30
0.0
  0
VERTEX
  5
1295
  8
0
 10
317.98569629822168
 20
75.624370766448223
 30
0.0
  0
VERTEX
  5
1296
  8
0
 10
318.41499827163761
 20
76.013526577483958
 30
0.0
  0
VERTEX
  5
1297
  8
0
 10
318.82789031145199
 20
76.416518566634807
 30
0.0
  0
VERTEX
  5
1298
  8
0
 10
319.22388929442877
 20
76.83253794638
 30
0.0
  0
VERTEX
  5
1299
  8
0
 10
319.60254253437603
 20
77.260746755252683
 30
0.0
  0
VERTEX
  5
129A
  8
0
 10
319.96342874202611
 20
77.700277385540574
 30
0.0
  0
VERTEX
  5
129B
  8
0
 10
320.30615918915078
 20
78.150232271518121
 30
0.0
  0
VERTEX
  5
129C
  8
0
 10
320.6303791838659
 20
78.60968405035959
 30
0.0
  0
VERTEX
  5
129D
  8
0
 10
320.9357699916481
 20
79.077676733246165
 30
0.0
  0
VERTEX
  5
129E
  8
0
 10
321.22205135295189
 20
79.553228766662755
 30
0.0
  0
VERTEX
  5
129F
  8
0
 10
321.48898472780678
 20
80.035339353250265
 30
0.0
  0
VERTEX
  5
12A0
  8
0
 10
321.73637728941981
 20
80.523000034307529
 30
0.0
  0
VERTEX
  5
12A1
  8
0
 10
321.9640863991242
 20
81.015214198970725
 30
0.0
  0
VERTEX
  5
12A2
  8
0
 10
322.17202366868202
 20
81.511027479041104
 30
0.0
  0
VERTEX
  5
12A3
  8
0
 10
322.36015652544143
 20
82.009570838201284
 30
0.0
  0
VERTEX
  5
12A4
  8
0
 10
322.5285031892318
 20
82.510113002848129
 30
0.0
  0
VERTEX
  5
12A5
  8
0
 10
322.67711414056771
 20
83.01210412988371
 30
0.0
  0
VERTEX
  5
12A6
  8
0
 10
322.80603080304792
 20
83.515158009305196
 30
0.0
  0
VERTEX
  5
12A7
  8
0
 10
322.91521636047742
 20
84.018856165377954
 30
0.0
  0
VERTEX
  5
12A8
  8
0
 10
323.00448320604158
 20
84.522204839229985
 30
0.0
  0
VERTEX
  5
12A9
  8
0
 10
323.07352486199761
 20
85.02280366375561
 30
0.0
  0
VERTEX
  5
12AA
  8
0
 10
323.12222499712863
 20
85.516822431608432
 30
0.0
  0
VERTEX
  5
12AB
  8
0
 10
323.15109407234741
 20
86.001710296012888
 30
0.0
  0
VERTEX
  5
12AC
  8
0
 10
323.16107425349952
 20
86.480408976214676
 30
0.0
  0
VERTEX
  5
12AD
  8
0
 10
323.15247880891519
 20
86.962473718762908
 30
0.0
  0
VERTEX
  5
12AE
  8
0
 10
323.1240957493124
 20
87.459184939592262
 30
0.0
  0
VERTEX
  5
12AF
  8
0
 10
323.07297111369121
 20
87.981874916524816
 30
0.0
  0
VERTEX
  5
12B0
  8
0
 10
322.99436309410947
 20
88.541007963507184
 30
0.0
  0
VERTEX
  5
12B1
  8
0
 10
322.89963908576959
 20
89.058991032012045
 30
0.0
  0
VERTEX
  5
12B2
  8
0
 10
322.78277620532248
 20
89.581618494381019
 30
0.0
  0
VERTEX
  5
12B3
  8
0
 10
322.6443581808258
 20
90.104582525373587
 30
0.0
  0
VERTEX
  5
12B4
  8
0
 10
322.4847778879635
 20
90.625865445925569
 30
0.0
  0
VERTEX
  5
12B5
  8
0
 10
322.3042794372293
 20
91.144339187526043
 30
0.0
  0
VERTEX
  5
12B6
  8
0
 10
322.103061441112
 20
91.659072317031814
 30
0.0
  0
VERTEX
  5
12B7
  8
0
 10
321.88134298823161
 20
92.169107019012529
 30
0.0
  0
VERTEX
  5
12B8
  8
0
 10
321.6393920298346
 20
92.673428557516502
 30
0.0
  0
VERTEX
  5
12B9
  8
0
 10
321.3775317658633
 20
93.170992009647421
 30
0.0
  0
VERTEX
  5
12BA
  8
0
 10
321.096136872415
 20
93.660755536979764
 30
0.0
  0
VERTEX
  5
12BB
  8
0
 10
320.79562634804188
 20
94.141705278012793
 30
0.0
  0
VERTEX
  5
12BC
  8
0
 10
320.47645625362247
 20
94.612870152097614
 30
0.0
  0
VERTEX
  5
12BD
  8
0
 10
320.13911361816372
 20
95.073328812904506
 30
0.0
  0
VERTEX
  5
12BE
  8
0
 10
319.78411178245011
 20
95.522211498107765
 30
0.0
  0
VERTEX
  5
12BF
  8
0
 10
319.41198702695652
 20
95.958698975250854
 30
0.0
  0
VERTEX
  5
12C0
  8
0
 10
319.02329619900621
 20
96.382020079566757
 30
0.0
  0
VERTEX
  5
12C1
  8
0
 10
318.6186150549579
 20
96.791448761162385
 30
0.0
  0
VERTEX
  5
12C2
  8
0
 10
318.19853708225378
 20
97.186301154763669
 30
0.0
  0
VERTEX
  5
12C3
  8
0
 10
317.76367262420382
 20
97.565932927635103
 30
0.0
  0
VERTEX
  5
12C4
  8
0
 10
317.3146481817767
 20
97.929737008139284
 30
0.0
  0
VERTEX
  5
12C5
  8
0
 10
316.7990907785952
 20
98.315290466564306
 30
0.0
  0
VERTEX
  5
12C6
  8
0
 10
316.26842001551398
 20
98.679323837753387
 30
0.0
  0
VERTEX
  5
12C7
  8
0
 10
315.72515740710418
 20
99.020316393915266
 30
0.0
  0
VERTEX
  5
12C8
  8
0
 10
315.17034519836619
 20
99.337946257793078
 30
0.0
  0
VERTEX
  5
12C9
  8
0
 10
314.60498047948499
 20
99.631957411380313
 30
0.0
  0
VERTEX
  5
12CA
  8
0
 10
314.03005591966621
 20
99.902129687219599
 30
0.0
  0
VERTEX
  5
12CB
  8
0
 10
313.44656106400589
 20
100.14827752391361
 30
0.0
  0
VERTEX
  5
12CC
  8
0
 10
312.85548234901029
 20
100.370249638491
 30
0.0
  0
VERTEX
  5
12CD
  8
0
 10
312.25780286911368
 20
100.5679288702008
 30
0.0
  0
VERTEX
  5
12CE
  8
0
 10
311.65450195868681
 20
100.74123211742339
 30
0.0
  0
VERTEX
  5
12CF
  8
0
 10
311.04655462441218
 20
100.8901103222226
 30
0.0
  0
VERTEX
  5
12D0
  8
0
 10
310.43493085653972
 20
101.0145484709594
 30
0.0
  0
VERTEX
  5
12D1
  8
0
 10
309.82059484264408
 20
101.11456558914669
 30
0.0
  0
VERTEX
  5
12D2
  8
0
 10
309.20450410351151
 20
101.1902147157121
 30
0.0
  0
VERTEX
  5
12D3
  8
0
 10
308.5876085675045
 20
101.24158284686
 30
0.0
  0
VERTEX
  5
12D4
  8
0
 10
307.97084959713311
 20
101.2687908433564
 30
0.0
  0
VERTEX
  5
12D5
  8
0
 10
307.35515897939331
 20
101.27199329770281
 30
0.0
  0
VERTEX
  5
12D6
  8
0
 10
306.741457889716
 20
101.2513783596291
 30
0.0
  0
VERTEX
  5
12D7
  8
0
 10
306.13065895965178
 20
101.2071678064603
 30
0.0
  0
VERTEX
  5
12D8
  8
0
 10
305.52365938784152
 20
101.1396166329444
 30
0.0
  0
VERTEX
  5
12D9
  8
0
 10
304.9213421050024
 20
101.04901261367679
 30
0.0
  0
VERTEX
  5
12DA
  8
0
 10
304.32457519808372
 20
100.9356759871546
 30
0.0
  0
VERTEX
  5
12DB
  8
0
 10
303.7342108476837
 20
100.7999591004307
 30
0.0
  0
VERTEX
  5
12DC
  8
0
 10
303.15108427693582
 20
100.6422460260856
 30
0.0
  0
VERTEX
  5
12DD
  8
0
 10
302.5760127154183
 20
100.4629521568358
 30
0.0
  0
VERTEX
  5
12DE
  8
0
 10
302.00979438168218
 20
100.26252378396509
 30
0.0
  0
VERTEX
  5
12DF
  8
0
 10
301.45320748766511
 20
100.0414376667149
 30
0.0
  0
VERTEX
  5
12E0
  8
0
 10
300.90700926794511
 20
99.800200600868493
 30
0.0
  0
VERTEX
  5
12E1
  8
0
 10
300.37193503646267
 20
99.539348996033141
 30
0.0
  0
VERTEX
  5
12E2
  8
0
 10
299.84869727293272
 20
99.259448472570455
 30
0.0
  0
VERTEX
  5
12E3
  8
0
 10
299.33798474068948
 20
98.961093490758117
 30
0.0
  0
VERTEX
  5
12E4
  8
0
 10
298.84046163695672
 20
98.644907026504882
 30
0.0
  0
VERTEX
  5
12E5
  8
0
 10
298.35676677552152
 20
98.311540309702764
 30
0.0
  0
VERTEX
  5
12E6
  8
0
 10
297.88751280022461
 20
97.961672642788017
 30
0.0
  0
VERTEX
  5
12E7
  8
0
 10
297.43328542534999
 20
97.596011317847456
 30
0.0
  0
VERTEX
  5
12E8
  8
0
 10
296.99464269553118
 20
97.215291649753055
 30
0.0
  0
VERTEX
  5
12E9
  8
0
 10
296.57211425265268
 20
96.820277138862266
 30
0.0
  0
VERTEX
  5
12EA
  8
0
 10
296.16620058975923
 20
96.411759767233875
 30
0.0
  0
VERTEX
  5
12EB
  8
0
 10
295.77737226126868
 20
95.990560412877585
 30
0.0
  0
VERTEX
  5
12EC
  8
0
 10
295.40606900393692
 20
95.557529330580493
 30
0.0
  0
VERTEX
  5
12ED
  8
0
 10
295.05269870307922
 20
95.113546584639039
 30
0.0
  0
VERTEX
  5
12EE
  8
0
 10
294.71763611350963
 20
94.659522212383706
 30
0.0
  0
VERTEX
  5
12EF
  8
0
 10
294.40122121634607
 20
94.196395724475906
 30
0.0
  0
VERTEX
  5
12F0
  8
0
 10
294.15451909914827
 20
93.808288765181942
 30
0.0
  0
SEQEND
  5
12F1
  8
0
  0
POLYLINE
  5
FB8
  8
0
 10
294.19583361558716
 20
79.125486751639144
 30
0.0
 66
     1
 70
     8
  0
VERTEX
  8
0
  5
1784
 10
294.196
 20
79.1255
 30
0.000000
  70
    32
  0
VERTEX
  8
0
  5
1785
 10
294.278
 20
79.0019
 30
0.000000
  70
    32
  0
VERTEX
  8
0
  5
1786
 10
294.361
 20
78.8860
 30
0.000000
  70
    32
  0
VERTEX
  8
0
  5
1787
 10
294.445
 20
78.7780
 30
0.000000
  70
    32
  0
VERTEX
  8
0
  5
1788
 10
294.530
 20
78.6779
 30
0.000000
  70
    32
  0
VERTEX
  8
0
  5
1789
 10
294.617
 20
78.5860
 30
0.000000
  70
    32
  0
VERTEX
  8
0
  5
178A
 10
294.704
 20
78.5022
 30
0.000000
  70
    32
  0
VERTEX
  8
0
  5
178B
 10
294.793
 20
78.4266
 30
0.000000
  70
    32
  0
VERTEX
  8
0
  5
178C
 10
294.882
 20
78.3594
 30
0.000000
  70
    32
  0
VERTEX
  8
0
  5
178D
 10
294.971
 20
78.3006
 30
0.000000
  70
    32
  0
VERTEX
  8
0
  5
178E
 10
295.062
 20
78.2502
 30
0.000000
  70
    32
  0
VERTEX
  8
0
  5
178F
 10
295.153
 20
78.2084
 30
0.000000
  70
    32
  0
VERTEX
  8
0
  5
1790
 10
295.244
 20
78.1751
 30
0.000000
  70
    32
  0
VERTEX
  8
0
  5
1791
 10
295.336
 20
78.1504
 30
0.000000
  70
    32
  0
VERTEX
  8
0
  5
1792
 10
295.427
 20
78.1344
 30
0.000000
  70
    32
  0
VERTEX
  8
0
  5
1793
 10
295.519
 20
78.1270
 30
0.000000
  70
    32
  0
VERTEX
  8
0
  5
1794
 10
295.611
 20
78.1282
 30
0.000000
  70
    32
  0
VERTEX
  8
0
  5
1795
 10
295.703
 20
78.1380
 30
0.000000
  70
    32
  0
VERTEX
  8
0
  5
1796
 10
295.795
 20
78.1565
 30
0.000000
  70
    32
  0
VERTEX
  8
0
  5
1797
 10
295.887
 20
78.1836
 30
0.000000
  70
    32
  0
VERTEX
  8
0
  5
1798
 10
295.978
 20
78.2193
 30
0.000000
  70
    32
  0
VERTEX
  8
0
  5
1799
 10
296.069
 20
78.2636
 30
0.000000
  70
    32
  0
VERTEX
  8
0
  5
179A
 10
296.159
 20
78.3163
 30
0.000000
  70
    32
  0
VERTEX
  8
0
  5
179B
 10
296.249
 20
78.3775
 30
0.000000
  70
    32
  0
VERTEX
  8
0
  5
179C
 10
296.337
 20
78.4471
 30
0.000000
  70
    32
  0
VERTEX
  8
0
  5
179D
 10
296.425
 20
78.5249
 30
0.000000
  70
    32
  0
VERTEX
  8
0
  5
179E
 10
296.513
 20
78.6110
 30
0.000000
  70
    32
  0
VERTEX
  8
0
  5
179F
 10
296.599
 20
78.7053
 30
0.000000
  70
    32
  0
VERTEX
  8
0
  5
17A0
 10
296.684
 20
78.8076
 30
0.000000
  70
    32
  0
VERTEX
  8
0
  5
17A1
 10
296.768
 20
78.9179
 30
0.000000
  70
    32
  0
VERTEX
  8
0
  5
17A2
 10
296.851
 20
79.0359
 30
0.000000
  70
    32
  0
VERTEX
  8
0
  5
17A3
 10
296.932
 20
79.1617
 30
0.000000
  70
    32
  0
VERTEX
  8
0
  5
17A4
 10
297.012
 20
79.2951
 30
0.000000
  70
    32
  0
VERTEX
  8
0
  5
17A5
 10
297.090
 20
79.4358
 30
0.000000
  70
    32
  0
VERTEX
  8
0
  5
17A6
 10
297.167
 20
79.5839
 30
0.000000
  70
    32
  0
VERTEX
  8
0
  5
17A7
 10
297.242
 20
79.7391
 30
0.000000
  70
    32
  0
VERTEX
  8
0
  5
17A8
 10
297.316
 20
79.9013
 30
0.000000
  70
    32
  0
VERTEX
  8
0
  5
17A9
 10
297.387
 20
80.0703
 30
0.000000
  70
    32
  0
VERTEX
  8
0
  5
17AA
 10
297.457
 20
80.2460
 30
0.000000
  70
    32
  0
VERTEX
  8
0
  5
17AB
 10
297.525
 20
80.4281
 30
0.000000
  70
    32
  0
VERTEX
  8
0
  5
17AC
 10
297.590
 20
80.6165
 30
0.000000
  70
    32
  0
VERTEX
  8
0
  5
17AD
 10
297.654
 20
80.8109
 30
0.000000
  70
    32
  0
VERTEX
  8
0
  5
17AE
 10
297.715
 20
81.0112
 30
0.000000
  70
    32
  0
VERTEX
  8
0
  5
17AF
 10
297.775
 20
81.2172
 30
0.000000
  70
    32
  0
VERTEX
  8
0
  5
17B0
 10
297.831
 20
81.4286
 30
0.000000
  70
    32
  0
VERTEX
  8
0
  5
17B1
 10
297.886
 20
81.6453
 30
0.000000
  70
    32
  0
VERTEX
  8
0
  5
17B2
 10
297.938
 20
81.8670
 30
0.000000
  70
    32
  0
VERTEX
  8
0
  5
17B3
 10
297.988
 20
82.0934
 30
0.000000
  70
    32
  0
VERTEX
  8
0
  5
17B4
 10
298.035
 20
82.3245
 30
0.000000
  70
    32
  0
VERTEX
  8
0
  5
17B5
 10
298.080
 20
82.5598
 30
0.000000
  70
    32
  0
VERTEX
  8
0
  5
17B6
 10
298.122
 20
82.7992
 30
0.000000
  70
    32
  0
VERTEX
  8
0
  5
17B7
 10
298.161
 20
83.0424
 30
0.000000
  70
    32
  0
VERTEX
  8
0
  5
17B8
 10
298.198
 20
83.2892
 30
0.000000
  70
    32
  0
VERTEX
  8
0
  5
17B9
 10
298.231
 20
83.5392
 30
0.000000
  70
    32
  0
VERTEX
  8
0
  5
17BA
 10
298.263
 20
83.7924
 30
0.000000
  70
    32
  0
VERTEX
  8
0
  5
17BB
 10
298.291
 20
84.0483
 30
0.000000
  70
    32
  0
VERTEX
  8
0
  5
17BC
 10
298.316
 20
84.3068
 30
0.000000
  70
    32
  0
VERTEX
  8
0
  5
17BD
 10
298.339
 20
84.5676
 30
0.000000
  70
    32
  0
VERTEX
  8
0
  5
17BE
 10
298.359
 20
84.8303
 30
0.000000
  70
    32
  0
VERTEX
  8
0
  5
17BF
 10
298.376
 20
85.0947
 30
0.000000
  70
    32
  0
VERTEX
  8
0
  5
17C0
 10
298.390
 20
85.3606
 30
0.000000
  70
    32
  0
VERTEX
  8
0
  5
17C1
 10
298.401
 20
85.6277
 30
0.000000
  70
    32
  0
VERTEX
  8
0
  5
17C2
 10
298.409
 20
85.8957
 30
0.000000
  70
    32
  0
VERTEX
  8
0
  5
17C3
 10
298.414
 20
86.1643
 30
0.000000
  70
    32
  0
VERTEX
  8
0
  5
17C4
 10
298.416
 20
86.4333
 30
0.000000
  70
    32
  0
VERTEX
  8
0
  5
17C5
 10
298.416
 20
86.7023
 30
0.000000
  70
    32
  0
VERTEX
  8
0
  5
17C6
 10
298.412
 20
86.9711
 30
0.000000
  70
    32
  0
VERTEX
  8
0
  5
17C7
 10
298.405
 20
87.2394
 30
0.000000
  70
    32
  0
VERTEX
  8
0
  5
17C8
 10
298.396
 20
87.5070
 30
0.000000
  70
    32
  0
VERTEX
  8
0
  5
17C9
 10
298.383
 20
87.7735
 30
0.000000
  70
    32
  0
VERTEX
  8
0
  5
17CA
 10
298.368
 20
88.0387
 30
0.000000
  70
    32
  0
VERTEX
  8
0
  5
17CB
 10
298.349
 20
88.3024
 30
0.000000
  70
    32
  0
VERTEX
  8
0
  5
17CC
 10
298.328
 20
88.5641
 30
0.000000
  70
    32
  0
VERTEX
  8
0
  5
17CD
 10
298.304
 20
88.8237
 30
0.000000
  70
    32
  0
VERTEX
  8
0
  5
17CE
 10
298.277
 20
89.0810
 30
0.000000
  70
    32
  0
VERTEX
  8
0
  5
17CF
 10
298.247
 20
89.3355
 30
0.000000
  70
    32
  0
VERTEX
  8
0
  5
17D0
 10
298.215
 20
89.5872
 30
0.000000
  70
    32
  0
VERTEX
  8
0
  5
17D1
 10
298.179
 20
89.8356
 30
0.000000
  70
    32
  0
VERTEX
  8
0
  5
17D2
 10
298.141
 20
90.0807
 30
0.000000
  70
    32
  0
VERTEX
  8
0
  5
17D3
 10
298.101
 20
90.3220
 30
0.000000
  70
    32
  0
VERTEX
  8
0
  5
17D4
 10
298.057
 20
90.5593
 30
0.000000
  70
    32
  0
VERTEX
  8
0
  5
17D5
 10
298.011
 20
90.7925
 30
0.000000
  70
    32
  0
VERTEX
  8
0
  5
17D6
 10
297.963
 20
91.0213
 30
0.000000
  70
    32
  0
VERTEX
  8
0
  5
17D7
 10
297.912
 20
91.2453
 30
0.000000
  70
    32
  0
VERTEX
  8
0
  5
17D8
 10
297.859
 20
91.4645
 30
0.000000
  70
    32
  0
VERTEX
  8
0
  5
17D9
 10
297.803
 20
91.6786
 30
0.000000
  70
    32
  0
VERTEX
  8
0
  5
17DA
 10
297.745
 20
91.8873
 30
0.000000
  70
    32
  0
VERTEX
  8
0
  5
17DB
 10
297.685
 20
92.0905
 30
0.000000
  70
    32
  0
VERTEX
  8
0
  5
17DC
 10
297.622
 20
92.2878
 30
0.000000
  70
    32
  0
VERTEX
  8
0
  5
17DD
 10
297.557
 20
92.4792
 30
0.000000
  70
    32
  0
VERTEX
  8
0
  5
17DE
 10
297.491
 20
92.6645
 30
0.000000
  70
    32
  0
VERTEX
  8
0
  5
17DF
 10
297.422
 20
92.8433
 30
0.000000
  70
    32
  0
VERTEX
  8
0
  5
17E0
 10
297.351
 20
93.0157
 30
0.000000
  70
    32
  0
VERTEX
  8
0
  5
17E1
 10
297.279
 20
93.1813
 30
0.000000
  70
    32
  0
VERTEX
  8
0
  5
17E2
 10
297.205
 20
93.3400
 30
0.000000
  70
    32
  0
VERTEX
  8
0
  5
17E3
 10
297.129
 20
93.4916
 30
0.000000
  70
    32
  0
VERTEX
  8
0
  5
17E4
 10
297.051
 20
93.6360
 30
0.000000
  70
    32
  0
VERTEX
  8
0
  5
17E5
 10
296.972
 20
93.7731
 30
0.000000
  70
    32
  0
VERTEX
  8
0
  5
17E6
 10
296.891
 20
93.9026
 30
0.000000
  70
    32
  0
VERTEX
  8
0
  5
17E7
 10
296.809
 20
94.0245
 30
0.000000
  70
    32
  0
VERTEX
  8
0
  5
17E8
 10
296.726
 20
94.1387
 30
0.000000
  70
    32
  0
VERTEX
  8
0
  5
17E9
 10
296.641
 20
94.2449
 30
0.000000
  70
    32
  0
VERTEX
  8
0
  5
17EA
 10
296.556
 20
94.3432
 30
0.000000
  70
    32
  0
VERTEX
  8
0
  5
17EB
 10
296.469
 20
94.4334
 30
0.000000
  70
    32
  0
VERTEX
  8
0
  5
17EC
 10
296.381
 20
94.5153
 30
0.000000
  70
    32
  0
VERTEX
  8
0
  5
17ED
 10
296.293
 20
94.5891
 30
0.000000
  70
    32
  0
VERTEX
  8
0
  5
17EE
 10
296.203
 20
94.6544
 30
0.000000
  70
    32
  0
VERTEX
  8
0
  5
17EF
 10
296.114
 20
94.7113
 30
0.000000
  70
    32
  0
VERTEX
  8
0
  5
17F0
 10
296.023
 20
94.7598
 30
0.000000
  70
    32
  0
VERTEX
  8
0
  5
17F1
 10
295.932
 20
94.7997
 30
0.000000
  70
    32
  0
VERTEX
  8
0
  5
17F2
 10
295.841
 20
94.8311
 30
0.000000
  70
    32
  0
VERTEX
  8
0
  5
17F3
 10
295.749
 20
94.8539
 30
0.000000
  70
    32
  0
VERTEX
  8
0
  5
17F4
 10
295.657
 20
94.8680
 30
0.000000
  70
    32
  0
VERTEX
  8
0
  5
17F5
 10
295.565
 20
94.8735
 30
0.000000
  70
    32
  0
VERTEX
  8
0
  5
17F6
 10
295.473
 20
94.8704
 30
0.000000
  70
    32
  0
VERTEX
  8
0
  5
17F7
 10
295.381
 20
94.8586
 30
0.000000
  70
    32
  0
VERTEX
  8
0
  5
17F8
 10
295.289
 20
94.8382
 30
0.000000
  70
    32
  0
VERTEX
  8
0
  5
17F9
 10
295.198
 20
94.8092
 30
0.000000
  70
    32
  0
VERTEX
  8
0
  5
17FA
 10
295.107
 20
94.7716
 30
0.000000
  70
    32
  0
VERTEX
  8
0
  5
17FB
 10
295.016
 20
94.7255
 30
0.000000
  70
    32
  0
VERTEX
  8
0
  5
17FC
 10
294.926
 20
94.6708
 30
0.000000
  70
    32
  0
VERTEX
  8
0
  5
17FD
 10
294.837
 20
94.6078
 30
0.000000
  70
    32
  0
VERTEX
  8
0
  5
17FE
 10
294.748
 20
94.5364
 30
0.000000
  70
    32
  0
VERTEX
  8
0
  5
17FF
 10
294.660
 20
94.4566
 30
0.000000
  70
    32
  0
VERTEX
  8
0
  5
1800
 10
294.573
 20
94.3687
 30
0.000000
  70
    32
  0
VERTEX
  8
0
  5
1801
 10
294.487
 20
94.2727
 30
0.000000
  70
    32
  0
VERTEX
  8
0
  5
1802
 10
294.402
 20
94.1686
 30
0.000000
  70
    32
  0
VERTEX
  8
0
  5
1803
 10
294.319
 20
94.0566
 30
0.000000
  70
    32
  0
VERTEX
  8
0
  5
1804
 10
294.236
 20
93.9368
 30
0.000000
  70
    32
  0
SEQEND
  8
0
  5
1805
  0
LINE
  5
FB9
  8
1
 10
158.0
 20
86.5
 30
0.0
 11
328.16151968785289
 21
86.5
 31
0.0
  0
LINE
  5
FBA
  8
1
 10
179.5
 20
65.0
 30
0.0
 11
179.5
 21
108.0
 31
0.0
  0
POLYLINE
  5
FBB
  8
0
 10
295.5524793098819
 20
79.999999999999972
 30
0.0
 66
     1
 70
     8
  0
VERTEX
  8
0
  5
1806
 10
295.552
 20
80.0000
 30
0.000000
  70
    32
  0
VERTEX
  8
0
  5
1807
 10
295.607
 20
80.0020
 30
0.000000
  70
    32
  0
VERTEX
  8
0
  5
1808
 10
295.662
 20
80.0078
 30
0.000000
  70
    32
  0
VERTEX
  8
0
  5
1809
 10
295.716
 20
80.0176
 30
0.000000
  70
    32
  0
VERTEX
  8
0
  5
180A
 10
295.770
 20
80.0313
 30
0.000000
  70
    32
  0
VERTEX
  8
0
  5
180B
 10
295.825
 20
80.0489
 30
0.000000
  70
    32
  0
VERTEX
  8
0
  5
180C
 10
295.879
 20
80.0704
 30
0.000000
  70
    32
  0
VERTEX
  8
0
  5
180D
 10
295.933
 20
80.0957
 30
0.000000
  70
    32
  0
VERTEX
  8
0
  5
180E
 10
295.986
 20
80.1249
 30
0.000000
  70
    32
  0
VERTEX
  8
0
  5
180F
 10
296.040
 20
80.1579
 30
0.000000
  70
    32
  0
VERTEX
  8
0
  5
1810
 10
296.093
 20
80.1948
 30
0.000000
  70
    32
  0
VERTEX
  8
0
  5
1811
 10
296.145
 20
80.2355
 30
0.000000
  70
    32
  0
VERTEX
  8
0
  5
1812
 10
296.198
 20
80.2799
 30
0.000000
  70
    32
  0
VERTEX
  8
0
  5
1813
 10
296.250
 20
80.3281
 30
0.000000
  70
    32
  0
VERTEX
  8
0
  5
1814
 10
296.301
 20
80.3800
 30
0.000000
  70
    32
  0
VERTEX
  8
0
  5
1815
 10
296.353
 20
80.4355
 30
0.000000
  70
    32
  0
VERTEX
  8
0
  5
1816
 10
296.403
 20
80.4948
 30
0.000000
  70
    32
  0
VERTEX
  8
0
  5
1817
 10
296.453
 20
80.5576
 30
0.000000
  70
    32
  0
VERTEX
  8
0
  5
1818
 10
296.503
 20
80.6241
 30
0.000000
  70
    32
  0
VERTEX
  8
0
  5
1819
 10
296.552
 20
80.6940
 30
0.000000
  70
    32
  0
VERTEX
  8
0
  5
181A
 10
296.600
 20
80.7675
 30
0.000000
  70
    32
  0
VERTEX
  8
0
  5
181B
 10
296.648
 20
80.8444
 30
0.000000
  70
    32
  0
VERTEX
  8
0
  5
181C
 10
296.695
 20
80.9248
 30
0.000000
  70
    32
  0
VERTEX
  8
0
  5
181D
 10
296.742
 20
81.0085
 30
0.000000
  70
    32
  0
VERTEX
  8
0
  5
181E
 10
296.788
 20
81.0954
 30
0.000000
  70
    32
  0
VERTEX
  8
0
  5
181F
 10
296.833
 20
81.1857
 30
0.000000
  70
    32
  0
VERTEX
  8
0
  5
1820
 10
296.877
 20
81.2792
 30
0.000000
  70
    32
  0
VERTEX
  8
0
  5
1821
 10
296.920
 20
81.3757
 30
0.000000
  70
    32
  0
VERTEX
  8
0
  5
1822
 10
296.963
 20
81.4754
 30
0.000000
  70
    32
  0
VERTEX
  8
0
  5
1823
 10
297.005
 20
81.5781
 30
0.000000
  70
    32
  0
VERTEX
  8
0
  5
1824
 10
297.045
 20
81.6838
 30
0.000000
  70
    32
  0
VERTEX
  8
0
  5
1825
 10
297.085
 20
81.7924
 30
0.000000
  70
    32
  0
VERTEX
  8
0
  5
1826
 10
297.124
 20
81.9038
 30
0.000000
  70
    32
  0
VERTEX
  8
0
  5
1827
 10
297.163
 20
82.0180
 30
0.000000
  70
    32
  0
VERTEX
  8
0
  5
1828
 10
297.200
 20
82.1349
 30
0.000000
  70
    32
  0
VERTEX
  8
0
  5
1829
 10
297.236
 20
82.2544
 30
0.000000
  70
    32
  0
VERTEX
  8
0
  5
182A
 10
297.271
 20
82.3764
 30
0.000000
  70
    32
  0
VERTEX
  8
0
  5
182B
 10
297.305
 20
82.5010
 30
0.000000
  70
    32
  0
VERTEX
  8
0
  5
182C
 10
297.338
 20
82.6280
 30
0.000000
  70
    32
  0
VERTEX
  8
0
  5
182D
 10
297.370
 20
82.7572
 30
0.000000
  70
    32
  0
VERTEX
  8
0
  5
182E
 10
297.401
 20
82.8888
 30
0.000000
  70
    32
  0
VERTEX
  8
0
  5
182F
 10
297.431
 20
83.0225
 30
0.000000
  70
    32
  0
VERTEX
  8
0
  5
1830
 10
297.459
 20
83.1583
 30
0.000000
  70
    32
  0
VERTEX
  8
0
  5
1831
 10
297.487
 20
83.2962
 30
0.000000
  70
    32
  0
VERTEX
  8
0
  5
1832
 10
297.513
 20
83.4359
 30
0.000000
  70
    32
  0
VERTEX
  8
0
  5
1833
 10
297.538
 20
83.5775
 30
0.000000
  70
    32
  0
VERTEX
  8
0
  5
1834
 10
297.562
 20
83.7209
 30
0.000000
  70
    32
  0
VERTEX
  8
0
  5
1835
 10
297.585
 20
83.8659
 30
0.000000
  70
    32
  0
VERTEX
  8
0
  5
1836
 10
297.606
 20
84.0126
 30
0.000000
  70
    32
  0
VERTEX
  8
0
  5
1837
 10
297.627
 20
84.1607
 30
0.000000
  70
    32
  0
VERTEX
  8
0
  5
1838
 10
297.646
 20
84.3102
 30
0.000000
  70
    32
  0
VERTEX
  8
0
  5
1839
 10
297.663
 20
84.4611
 30
0.000000
  70
    32
  0
VERTEX
  8
0
  5
183A
 10
297.680
 20
84.6131
 30
0.000000
  70
    32
  0
VERTEX
  8
0
  5
183B
 10
297.695
 20
84.7664
 30
0.000000
  70
    32
  0
VERTEX
  8
0
  5
183C
 10
297.709
 20
84.9206
 30
0.000000
  70
    32
  0
VERTEX
  8
0
  5
183D
 10
297.722
 20
85.0758
 30
0.000000
  70
    32
  0
VERTEX
  8
0
  5
183E
 10
297.733
 20
85.2319
 30
0.000000
  70
    32
  0
VERTEX
  8
0
  5
183F
 10
297.743
 20
85.3887
 30
0.000000
  70
    32
  0
VERTEX
  8
0
  5
1840
 10
297.752
 20
85.5463
 30
0.000000
  70
    32
  0
VERTEX
  8
0
  5
1841
 10
297.759
 20
85.7043
 30
0.000000
  70
    32
  0
VERTEX
  8
0
  5
1842
 10
297.765
 20
85.8629
 30
0.000000
  70
    32
  0
VERTEX
  8
0
  5
1843
 10
297.770
 20
86.0218
 30
0.000000
  70
    32
  0
VERTEX
  8
0
  5
1844
 10
297.773
 20
86.1811
 30
0.000000
  70
    32
  0
VERTEX
  8
0
  5
1845
 10
297.775
 20
86.3405
 30
0.000000
  70
    32
  0
VERTEX
  8
0
  5
1846
 10
297.776
 20
86.5000
 30
0.000000
  70
    32
  0
VERTEX
  8
0
  5
1847
 10
297.775
 20
86.6595
 30
0.000000
  70
    32
  0
VERTEX
  8
0
  5
1848
 10
297.773
 20
86.8189
 30
0.000000
  70
    32
  0
VERTEX
  8
0
  5
1849
 10
297.770
 20
86.9782
 30
0.000000
  70
    32
  0
VERTEX
  8
0
  5
184A
 10
297.765
 20
87.1371
 30
0.000000
  70
    32
  0
VERTEX
  8
0
  5
184B
 10
297.759
 20
87.2957
 30
0.000000
  70
    32
  0
VERTEX
  8
0
  5
184C
 10
297.752
 20
87.4537
 30
0.000000
  70
    32
  0
VERTEX
  8
0
  5
184D
 10
297.743
 20
87.6113
 30
0.000000
  70
    32
  0
VERTEX
  8
0
  5
184E
 10
297.733
 20
87.7681
 30
0.000000
  70
    32
  0
VERTEX
  8
0
  5
184F
 10
297.722
 20
87.9242
 30
0.000000
  70
    32
  0
VERTEX
  8
0
  5
1850
 10
297.709
 20
88.0794
 30
0.000000
  70
    32
  0
VERTEX
  8
0
  5
1851
 10
297.695
 20
88.2336
 30
0.000000
  70
    32
  0
VERTEX
  8
0
  5
1852
 10
297.680
 20
88.3869
 30
0.000000
  70
    32
  0
VERTEX
  8
0
  5
1853
 10
297.663
 20
88.5389
 30
0.000000
  70
    32
  0
VERTEX
  8
0
  5
1854
 10
297.646
 20
88.6898
 30
0.000000
  70
    32
  0
VERTEX
  8
0
  5
1855
 10
297.627
 20
88.8393
 30
0.000000
  70
    32
  0
VERTEX
  8
0
  5
1856
 10
297.606
 20
88.9874
 30
0.000000
  70
    32
  0
VERTEX
  8
0
  5
1857
 10
297.585
 20
89.1341
 30
0.000000
  70
    32
  0
VERTEX
  8
0
  5
1858
 10
297.562
 20
89.2791
 30
0.000000
  70
    32
  0
VERTEX
  8
0
  5
1859
 10
297.538
 20
89.4225
 30
0.000000
  70
    32
  0
VERTEX
  8
0
  5
185A
 10
297.513
 20
89.5641
 30
0.000000
  70
    32
  0
VERTEX
  8
0
  5
185B
 10
297.487
 20
89.7038
 30
0.000000
  70
    32
  0
VERTEX
  8
0
  5
185C
 10
297.459
 20
89.8417
 30
0.000000
  70
    32
  0
VERTEX
  8
0
  5
185D
 10
297.431
 20
89.9775
 30
0.000000
  70
    32
  0
VERTEX
  8
0
  5
185E
 10
297.401
 20
90.1112
 30
0.000000
  70
    32
  0
VERTEX
  8
0
  5
185F
 10
297.370
 20
90.2428
 30
0.000000
  70
    32
  0
VERTEX
  8
0
  5
1860
 10
297.338
 20
90.3720
 30
0.000000
  70
    32
  0
VERTEX
  8
0
  5
1861
 10
297.305
 20
90.4990
 30
0.000000
  70
    32
  0
VERTEX
  8
0
  5
1862
 10
297.271
 20
90.6236
 30
0.000000
  70
    32
  0
VERTEX
  8
0
  5
1863
 10
297.236
 20
90.7456
 30
0.000000
  70
    32
  0
VERTEX
  8
0
  5
1864
 10
297.200
 20
90.8651
 30
0.000000
  70
    32
  0
VERTEX
  8
0
  5
1865
 10
297.163
 20
90.9820
 30
0.000000
  70
    32
  0
VERTEX
  8
0
  5
1866
 10
297.124
 20
91.0962
 30
0.000000
  70
    32
  0
VERTEX
  8
0
  5
1867
 10
297.085
 20
91.2076
 30
0.000000
  70
    32
  0
VERTEX
  8
0
  5
1868
 10
297.045
 20
91.3162
 30
0.000000
  70
    32
  0
VERTEX
  8
0
  5
1869
 10
297.005
 20
91.4219
 30
0.000000
  70
    32
  0
VERTEX
  8
0
  5
186A
 10
296.963
 20
91.5246
 30
0.000000
  70
    32
  0
VERTEX
  8
0
  5
186B
 10
296.920
 20
91.6243
 30
0.000000
  70
    32
  0
VERTEX
  8
0
  5
186C
 10
296.877
 20
91.7208
 30
0.000000
  70
    32
  0
VERTEX
  8
0
  5
186D
 10
296.833
 20
91.8143
 30
0.000000
  70
    32
  0
VERTEX
  8
0
  5
186E
 10
296.788
 20
91.9046
 30
0.000000
  70
    32
  0
VERTEX
  8
0
  5
186F
 10
296.742
 20
91.9915
 30
0.000000
  70
    32
  0
VERTEX
  8
0
  5
1870
 10
296.695
 20
92.0752
 30
0.000000
  70
    32
  0
VERTEX
  8
0
  5
1871
 10
296.648
 20
92.1556
 30
0.000000
  70
    32
  0
VERTEX
  8
0
  5
1872
 10
296.600
 20
92.2325
 30
0.000000
  70
    32
  0
VERTEX
  8
0
  5
1873
 10
296.552
 20
92.3060
 30
0.000000
  70
    32
  0
VERTEX
  8
0
  5
1874
 10
296.503
 20
92.3759
 30
0.000000
  70
    32
  0
VERTEX
  8
0
  5
1875
 10
296.453
 20
92.4424
 30
0.000000
  70
    32
  0
VERTEX
  8
0
  5
1876
 10
296.403
 20
92.5052
 30
0.000000
  70
    32
  0
VERTEX
  8
0
  5
1877
 10
296.353
 20
92.5645
 30
0.000000
  70
    32
  0
VERTEX
  8
0
  5
1878
 10
296.301
 20
92.6200
 30
0.000000
  70
    32
  0
VERTEX
  8
0
  5
1879
 10
296.250
 20
92.6719
 30
0.000000
  70
    32
  0
VERTEX
  8
0
  5
187A
 10
296.198
 20
92.7201
 30
0.000000
  70
    32
  0
VERTEX
  8
0
  5
187B
 10
296.145
 20
92.7645
 30
0.000000
  70
    32
  0
VERTEX
  8
0
  5
187C
 10
296.093
 20
92.8052
 30
0.000000
  70
    32
  0
VERTEX
  8
0
  5
187D
 10
296.040
 20
92.8421
 30
0.000000
  70
    32
  0
VERTEX
  8
0
  5
187E
 10
295.986
 20
92.8751
 30
0.000000
  70
    32
  0
VERTEX
  8
0
  5
187F
 10
295.933
 20
92.9043
 30
0.000000
  70
    32
  0
VERTEX
  8
0
  5
1880
 10
295.879
 20
92.9296
 30
0.000000
  70
    32
  0
VERTEX
  8
0
  5
1881
 10
295.825
 20
92.9511
 30
0.000000
  70
    32
  0
VERTEX
  8
0
  5
1882
 10
295.770
 20
92.9687
 30
0.000000
  70
    32
  0
VERTEX
  8
0
  5
1883
 10
295.716
 20
92.9824
 30
0.000000
  70
    32
  0
VERTEX
  8
0
  5
1884
 10
295.662
 20
92.9922
 30
0.000000
  70
    32
  0
VERTEX
  8
0
  5
1885
 10
295.607
 20
92.9980
 30
0.000000
  70
    32
  0
VERTEX
  8
0
  5
1886
 10
295.552
 20
93.0000
 30
0.000000
  70
    32
  0
SEQEND
  8
0
  5
1887
  0
LINE
  5
FBC
  8
1
 10
308.0
 20
416.26870685639238
 30
0.0
 11
308.0
 21
376.73352846685509
 31
0.0
  0
LINE
  5
FBD
  8
1
 10
301.23865488144202
 20
323.8817557621993
 30
0.0
 11
314.76134511855798
 21
286.72846968544388
 31
0.0
  0
LINE
  5
FBE
  8
1
 10
308.0
 20
66.733528466855134
 30
0.0
 11
308.0
 21
106.2687068563924
 31
0.0
  0
CIRCLE
  5
FBF
  8
0
 10
179.5
 20
86.5
 30
0.0
 40
8.0
  0
LINE
  5
FC0
  8
1
 10
419.43130741619228
 20
305.30511272382159
 30
0.0
 11
379.88858194676851
 21
305.30511272382159
 31
0.0
  0
LINE
  5
FC1
  8
1
 10
66.727492234885403
 20
305.30511272382159
 30
0.0
 11
106.2702177043092
 21
305.30511272382159
 31
0.0
  0
LINE
  5
FC9
  8
0
 10
80.5
 20
163.0
 30
0.0
 11
92.5
 21
163.0
 31
0.0
  0
LINE
  5
FCA
  8
0
 10
78.5
 20
165.0
 30
0.0
 11
94.500000000000014
 21
165.0
 31
0.0
  0
LINE
  5
FCB
  8
0
 10
78.5
 20
220.52505500087861
 30
0.0
 11
94.500000000000014
 21
220.52505500087861
 31
0.0
  0
LINE
  5
FCC
  8
0
 10
80.5
 20
163.0
 30
0.0
 11
78.5
 21
165.0
 31
0.0
  0
LINE
  5
FCD
  8
0
 10
78.5
 20
165.0
 30
0.0
 11
78.5
 21
222.40000000000001
 31
0.0
  0
ARC
  5
FCE
  8
0
 10
77.900000000000091
 20
222.40000000000001
 30
0.0
 40
0.6
 50
0.0
 51
90.0
  0
LINE
  5
FCF
  8
3
 10
78.5
 20
222.40000000000001
 30
0.0
 11
79.582499999999982
 21
220.52505500086821
 31
0.0
  0
LINE
  5
FD0
  8
3
 10
79.582499999999982
 20
220.52505500086821
 30
0.0
 11
79.582499999999982
 21
163.91749999999999
 31
0.0
  0
LINE
  5
FD1
  8
3
 10
93.417500000000018
 20
220.52505500086821
 30
0.0
 11
93.417500000000018
 21
163.91749999999999
 31
0.0
  0
LINE
  5
FD2
  8
3
 10
94.500000000000014
 20
222.40000000000001
 30
0.0
 11
93.417500000000018
 21
220.52505500086821
 31
0.0
  0
ARC
  5
FD3
  8
0
 10
95.100000000000037
 20
222.40000000000001
 30
0.0
 40
0.6
 50
90.0
 51
180.0
  0
LINE
  5
FD4
  8
0
 10
94.500000000000014
 20
165.0
 30
0.0
 11
94.500000000000014
 21
222.40000000000001
 31
0.0
  0
LINE
  5
FD5
  8
0
 10
92.5
 20
163.0
 30
0.0
 11
94.500000000000014
 21
165.0
 31
0.0
  0
LINE
  5
FD6
  8
0
 10
173.50000000000011
 20
163.0
 30
0.0
 11
185.50000000000011
 21
163.0
 31
0.0
  0
LINE
  5
FD7
  8
0
 10
171.50000000000011
 20
165.0
 30
0.0
 11
187.50000000000011
 21
165.0
 31
0.0
  0
LINE
  5
FD8
  8
0
 10
171.50000000000011
 20
220.52505500087861
 30
0.0
 11
187.50000000000011
 21
220.52505500087861
 31
0.0
  0
LINE
  5
FD9
  8
0
 10
173.50000000000011
 20
163.0
 30
0.0
 11
171.50000000000011
 21
165.0
 31
0.0
  0
LINE
  5
FDA
  8
0
 10
171.50000000000011
 20
165.0
 30
0.0
 11
171.50000000000011
 21
222.40000000000001
 31
0.0
  0
ARC
  5
FDB
  8
0
 10
170.9000000000002
 20
222.40000000000001
 30
0.0
 40
0.6
 50
0.0
 51
90.0
  0
LINE
  5
FDC
  8
3
 10
171.50000000000011
 20
222.40000000000001
 30
0.0
 11
172.5825000000001
 21
220.52505500086821
 31
0.0
  0
LINE
  5
FDD
  8
3
 10
172.5825000000001
 20
220.52505500086821
 30
0.0
 11
172.5825000000001
 21
163.91749999999999
 31
0.0
  0
LINE
  5
FDE
  8
3
 10
186.4175000000001
 20
220.52505500086821
 30
0.0
 11
186.4175000000001
 21
163.91749999999999
 31
0.0
  0
LINE
  5
FDF
  8
3
 10
187.50000000000011
 20
222.40000000000001
 30
0.0
 11
186.4175000000001
 21
220.52505500086821
 31
0.0
  0
ARC
  5
FE0
  8
0
 10
188.10000000000011
 20
222.40000000000001
 30
0.0
 40
0.6
 50
90.0
 51
180.0
  0
LINE
  5
FE1
  8
0
 10
187.50000000000011
 20
165.0
 30
0.0
 11
187.50000000000011
 21
222.40000000000001
 31
0.0
  0
LINE
  5
FE2
  8
0
 10
185.50000000000011
 20
163.0
 30
0.0
 11
187.50000000000011
 21
165.0
 31
0.0
  0
LINE
  5
FE3
  8
0
 10
393.66108971188311
 20
163.0
 30
0.0
 11
405.66108971188299
 21
163.0
 31
0.0
  0
LINE
  5
FE4
  8
0
 10
391.66108971188311
 20
165.0
 30
0.0
 11
407.66108971188299
 21
165.0
 31
0.0
  0
LINE
  5
FE5
  8
0
 10
391.66108971188311
 20
220.52505500087861
 30
0.0
 11
407.66108971188299
 21
220.52505500087861
 31
0.0
  0
LINE
  5
FE6
  8
0
 10
393.66108971188311
 20
163.0
 30
0.0
 11
391.66108971188311
 21
165.0
 31
0.0
  0
LINE
  5
FE7
  8
0
 10
391.66108971188311
 20
165.0
 30
0.0
 11
391.66108971188311
 21
222.40000000000001
 31
0.0
  0
ARC
  5
FE8
  8
0
 10
391.06108971188308
 20
222.40000000000001
 30
0.0
 40
0.6
 50
0.0
 51
90.0
  0
LINE
  5
FE9
  8
3
 10
391.66108971188311
 20
222.40000000000001
 30
0.0
 11
392.74358971188298
 21
220.52505500086821
 31
0.0
  0
LINE
  5
FEA
  8
3
 10
392.74358971188298
 20
220.52505500086821
 30
0.0
 11
392.74358971188298
 21
163.91749999999999
 31
0.0
  0
LINE
  5
FEB
  8
3
 10
406.57858971188301
 20
220.52505500086821
 30
0.0
 11
406.57858971188301
 21
163.91749999999999
 31
0.0
  0
LINE
  5
FEC
  8
3
 10
407.66108971188299
 20
222.40000000000001
 30
0.0
 11
406.57858971188301
 21
220.52505500086821
 31
0.0
  0
ARC
  5
FED
  8
0
 10
408.2610897118829
 20
222.40000000000001
 30
0.0
 40
0.6
 50
90.0
 51
180.0
  0
LINE
  5
FEE
  8
0
 10
407.66108971188299
 20
165.0
 30
0.0
 11
407.66108971188299
 21
222.40000000000001
 31
0.0
  0
LINE
  5
FEF
  8
0
 10
405.66108971188299
 20
163.0
 30
0.0
 11
407.66108971188299
 21
165.0
 31
0.0
  0
ENDSEC
  0
EOF
